ISO-10303-21;
HEADER;
FILE_DESCRIPTION (( 'STEP AP214' ),
    '1' );
FILE_NAME ('Micro_RSCM-100-2.STEP',
    '2021-09-03T18:00:49',
    ( '' ),
    ( '' ),
    'SwSTEP 2.0',
    'SolidWorks 2020',
    '' );
FILE_SCHEMA (( 'AUTOMOTIVE_DESIGN' ));
ENDSEC;

DATA;
#1 = PRODUCT_DEFINITION ( 'UNKNOWN', '', #52, #242 ) ;
#2 = VECTOR ( 'NONE', #146, 39.37007874015748854 ) ;
#3 = VECTOR ( 'NONE', #104, 39.37007874015748854 ) ;
#4 = FILL_AREA_STYLE ('',( #43 ) ) ;
#5 = CARTESIAN_POINT ( 'NONE',  ( 0.0000000000000000000, 0.0000000000000000000, 0.0000000000000000000 ) ) ;
#6 =( LENGTH_UNIT ( ) NAMED_UNIT ( * ) SI_UNIT ( $, .METRE. ) );
#7 = AXIS2_PLACEMENT_3D ( 'NONE', #169, #144, #121 ) ;
#8 = VERTEX_POINT ( 'NONE', #184 ) ;
#9 = PLANE ( 'NONE',  #197 ) ;
#10 = CARTESIAN_POINT ( 'NONE',  ( -0.003936999999999995191, -1.229468845918996354E-17, 2.834646000000000665 ) ) ;
#11 = ORIENTED_EDGE ( 'NONE', *, *, #175, .T. ) ;
#12 = DIRECTION ( 'NONE',  ( -1.000000000000000000, 0.0000000000000000000, 0.0000000000000000000 ) ) ;
#13 = FACE_OUTER_BOUND ( 'NONE', #183, .T. ) ;
#14 = DIRECTION ( 'NONE',  ( -1.000000000000000000, 0.0000000000000000000, 0.0000000000000000000 ) ) ;
#15 = AXIS2_PLACEMENT_3D ( 'NONE', #99, #106, #12 ) ;
#16 = CIRCLE ( 'NONE', #94, 0.003936999999999995191 ) ;
#17 = CARTESIAN_POINT ( 'NONE',  ( 0.0000000000000000000, 0.0000000000000000000, 0.0000000000000000000 ) ) ;
#18 = DIRECTION ( 'NONE',  ( -0.0000000000000000000, -0.0000000000000000000, -1.000000000000000000 ) ) ;
#19 = ADVANCED_FACE ( 'NONE', ( #13 ), #92, .T. ) ;
#20 = ORIENTED_EDGE ( 'NONE', *, *, #214, .F. ) ;
#21 =( NAMED_UNIT ( * ) PLANE_ANGLE_UNIT ( ) SI_UNIT ( $, .RADIAN. ) );
#22 = DIMENSIONAL_EXPONENTS ( 1.000000000000000000, 0.0000000000000000000, 0.0000000000000000000, 0.0000000000000000000, 0.0000000000000000000, 0.0000000000000000000, 0.0000000000000000000 ) ;
#23 =( LENGTH_UNIT ( ) NAMED_UNIT ( * ) SI_UNIT ( $, .METRE. ) );
#24 = LINE ( 'NONE', #136, #29 ) ;
#25 = EDGE_CURVE ( 'NONE', #45, #107, #71, .T. ) ;
#26 = CARTESIAN_POINT ( 'NONE',  ( -0.1968504999999999838, 0.0000000000000000000, 2.500510016534062796 ) ) ;
#27 = AXIS2_PLACEMENT_3D ( 'NONE', #17, #223, #210 ) ;
#28 = EDGE_CURVE ( 'NONE', #230, #154, #127, .T. ) ;
#29 = VECTOR ( 'NONE', #235, 39.37007874015748854 ) ;
#30 = ORIENTED_EDGE ( 'NONE', *, *, #133, .F. ) ;
#31 = ORIENTED_EDGE ( 'NONE', *, *, #28, .F. ) ;
#32 = DIRECTION ( 'NONE',  ( 0.0000000000000000000, 0.0000000000000000000, 1.000000000000000000 ) ) ;
#33 = FACE_OUTER_BOUND ( 'NONE', #215, .T. ) ;
#34 = EDGE_CURVE ( 'NONE', #107, #65, #91, .T. ) ;
#35 = CARTESIAN_POINT ( 'NONE',  ( -0.003936999999999995191, 4.821434448243123477E-19, 0.0000000000000000000 ) ) ;
#36 = CYLINDRICAL_SURFACE ( 'NONE', #134, 0.1968504999999999838 ) ;
#37 = MECHANICAL_DESIGN_GEOMETRIC_PRESENTATION_REPRESENTATION (  '', ( #75 ), #120 ) ;
#38 = CARTESIAN_POINT ( 'NONE',  ( 0.0000000000000000000, 0.0000000000000000000, 0.0000000000000000000 ) ) ;
#39 = DIRECTION ( 'NONE',  ( 0.0000000000000000000, 0.0000000000000000000, 1.000000000000000000 ) ) ;
#40 = AXIS2_PLACEMENT_3D ( 'NONE', #126, #248, #14 ) ;
#41 = PRESENTATION_STYLE_ASSIGNMENT (( #44 ) ) ;
#42 = AXIS2_PLACEMENT_3D ( 'NONE', #95, #18, #193 ) ;
#43 = FILL_AREA_STYLE_COLOUR ( '', #129 ) ;
#44 = SURFACE_STYLE_USAGE ( .BOTH. , #79 ) ;
#45 = VERTEX_POINT ( 'NONE', #119 ) ;
#46 = ORIENTED_EDGE ( 'NONE', *, *, #25, .F. ) ;
#47 = PRODUCT_DEFINITION_SHAPE ( 'NONE', 'NONE',  #1 ) ;
#48 = ORIENTED_EDGE ( 'NONE', *, *, #113, .T. ) ;
#49 =( LENGTH_UNIT ( ) NAMED_UNIT ( * ) SI_UNIT ( $, .METRE. ) );
#50 = EDGE_LOOP ( 'NONE', ( #102, #163 ) ) ;
#51 = ORIENTED_EDGE ( 'NONE', *, *, #108, .F. ) ;
#52 = PRODUCT_DEFINITION_FORMATION_WITH_SPECIFIED_SOURCE ( 'ANY', '', #59, .NOT_KNOWN. ) ;
#53 = ORIENTED_EDGE ( 'NONE', *, *, #208, .F. ) ;
#54 = FILL_AREA_STYLE ('',( #182 ) ) ;
#55 = CARTESIAN_POINT ( 'NONE',  ( 0.0000000000000000000, 0.0000000000000000000, 0.0000000000000000000 ) ) ;
#56 = FACE_OUTER_BOUND ( 'NONE', #80, .T. ) ;
#57 = UNCERTAINTY_MEASURE_WITH_UNIT (LENGTH_MEASURE( 1.000000000000000082E-05 ), #173, 'distance_accuracy_value', 'NONE');
#58 = DIRECTION ( 'NONE',  ( 0.0000000000000000000, 0.0000000000000000000, 1.000000000000000000 ) ) ;
#59 = PRODUCT ( 'Micro_RSCM-100-2', 'Micro_RSCM-100-2', '', ( #247 ) ) ;
#60 = EDGE_CURVE ( 'NONE', #45, #228, #141, .T. ) ;
#61 = DIRECTION ( 'NONE',  ( -1.000000000000000000, 0.0000000000000000000, 0.0000000000000000000 ) ) ;
#62 = AXIS2_PLACEMENT_3D ( 'NONE', #165, #90, #179 ) ;
#63 = LINE ( 'NONE', #194, #190 ) ;
#64 = AXIS2_PLACEMENT_3D ( 'NONE', #200, #135, #142 ) ;
#65 = VERTEX_POINT ( 'NONE', #26 ) ;
#66 = AXIS2_PLACEMENT_3D ( 'NONE', #74, #58, #109 ) ;
#67 = FACE_OUTER_BOUND ( 'NONE', #50, .T. ) ;
#68 = ADVANCED_FACE ( 'NONE', ( #67 ), #9, .T. ) ;
#69 = CARTESIAN_POINT ( 'NONE',  ( 0.1968504999999999838, 2.410723347355560646E-17, 2.500510016534062796 ) ) ;
#70 = CARTESIAN_POINT ( 'NONE',  ( 0.0000000000000000000, 0.0000000000000000000, 2.834646000000000665 ) ) ;
#71 = LINE ( 'NONE', #201, #3 ) ;
#72 = CARTESIAN_POINT ( 'NONE',  ( 0.0000000000000000000, 0.0000000000000000000, 0.0000000000000000000 ) ) ;
#73 = APPLICATION_CONTEXT ( 'automotive_design' ) ;
#74 = CARTESIAN_POINT ( 'NONE',  ( 0.0000000000000000000, 0.0000000000000000000, 0.0000000000000000000 ) ) ;
#75 = STYLED_ITEM ( 'NONE', ( #158 ), #152 ) ;
#76 = AXIS2_PLACEMENT_3D ( 'NONE', #226, #237, #161 ) ;
#77 = FACE_OUTER_BOUND ( 'NONE', #203, .T. ) ;
#78 = CLOSED_SHELL ( 'NONE', ( #229, #225, #19, #162, #189, #114, #239, #68 ) ) ;
#79 = SURFACE_SIDE_STYLE ('',( #249 ) ) ;
#80 = EDGE_LOOP ( 'NONE', ( #81, #11 ) ) ;
#81 = ORIENTED_EDGE ( 'NONE', *, *, #96, .T. ) ;
#82 = CARTESIAN_POINT ( 'NONE',  ( -0.1968504999999999838, 0.0000000000000000000, 2.834646000000000665 ) ) ;
#83 = AXIS2_PLACEMENT_3D ( 'NONE', #188, #246, #61 ) ;
#84 = ORIENTED_EDGE ( 'NONE', *, *, #209, .T. ) ;
#85 = ORIENTED_EDGE ( 'NONE', *, *, #214, .T. ) ;
#86 = ORIENTED_EDGE ( 'NONE', *, *, #133, .T. ) ;
#87 = ORIENTED_EDGE ( 'NONE', *, *, #60, .T. ) ;
#88 = DIRECTION ( 'NONE',  ( -0.0000000000000000000, -0.0000000000000000000, -1.000000000000000000 ) ) ;
#89 = DIRECTION ( 'NONE',  ( 1.000000000000000000, 0.0000000000000000000, 0.0000000000000000000 ) ) ;
#90 = DIRECTION ( 'NONE',  ( 0.0000000000000000000, 0.0000000000000000000, -1.000000000000000000 ) ) ;
#91 = CIRCLE ( 'NONE', #15, 0.1968504999999999838 ) ;
#92 = CYLINDRICAL_SURFACE ( 'NONE', #7, 0.1968504999999999838 ) ;
#93 = DIRECTION ( 'NONE',  ( -0.5000000000000013323, 6.123233995736782060E-17, 0.8660254037844377084 ) ) ;
#94 = AXIS2_PLACEMENT_3D ( 'NONE', #55, #164, #240 ) ;
#95 = CARTESIAN_POINT ( 'NONE',  ( 0.0000000000000000000, 0.0000000000000000000, 0.3341359834659373140 ) ) ;
#96 = EDGE_CURVE ( 'NONE', #8, #172, #224, .T. ) ;
#97 = SURFACE_SIDE_STYLE ('',( #181 ) ) ;
#98 =( CONVERSION_BASED_UNIT ( 'INCH', #115 ) LENGTH_UNIT ( ) NAMED_UNIT ( #132 ) );
#99 = CARTESIAN_POINT ( 'NONE',  ( 0.0000000000000000000, 0.0000000000000000000, 2.500510016534062796 ) ) ;
#100 = PRESENTATION_LAYER_ASSIGNMENT (  '', '', ( #75 ) ) ;
#101 = ORIENTED_EDGE ( 'NONE', *, *, #118, .T. ) ;
#102 = ORIENTED_EDGE ( 'NONE', *, *, #60, .F. ) ;
#103 =( NAMED_UNIT ( * ) PLANE_ANGLE_UNIT ( ) SI_UNIT ( $, .RADIAN. ) );
#104 = DIRECTION ( 'NONE',  ( 0.5000000000000013323, 0.0000000000000000000, -0.8660254037844377084 ) ) ;
#105 = DIRECTION ( 'NONE',  ( 1.000000000000000000, 0.0000000000000000000, 0.0000000000000000000 ) ) ;
#106 = DIRECTION ( 'NONE',  ( 0.0000000000000000000, 0.0000000000000000000, -1.000000000000000000 ) ) ;
#107 = VERTEX_POINT ( 'NONE', #69 ) ;
#108 = EDGE_CURVE ( 'NONE', #8, #154, #206, .T. ) ;
#109 = DIRECTION ( 'NONE',  ( 1.000000000000000000, 0.0000000000000000000, -0.0000000000000000000 ) ) ;
#110 = LINE ( 'NONE', #35, #174 ) ;
#111 = APPLICATION_PROTOCOL_DEFINITION ( 'draft international standard', 'automotive_design', 1998, #73 ) ;
#112 = CIRCLE ( 'NONE', #40, 0.1968504999999999838 ) ;
#113 = EDGE_CURVE ( 'NONE', #172, #230, #110, .T. ) ;
#114 = ADVANCED_FACE ( 'NONE', ( #56 ), #187, .F. ) ;
#115 = LENGTH_MEASURE_WITH_UNIT ( LENGTH_MEASURE( 0.02539999999999999897 ), #49 );
#116 = ORIENTED_EDGE ( 'NONE', *, *, #34, .T. ) ;
#117 = PRESENTATION_LAYER_ASSIGNMENT (  '', '', ( #213 ) ) ;
#118 = EDGE_CURVE ( 'NONE', #228, #45, #207, .T. ) ;
#119 = CARTESIAN_POINT ( 'NONE',  ( 0.003936999999999995191, 0.0000000000000000000, 2.834646000000000665 ) ) ;
#120 =( GEOMETRIC_REPRESENTATION_CONTEXT ( 3 ) GLOBAL_UNCERTAINTY_ASSIGNED_CONTEXT ( ( #147 ) ) GLOBAL_UNIT_ASSIGNED_CONTEXT ( ( #98, #21, #178 ) ) REPRESENTATION_CONTEXT ( 'NONE', 'WORKASPACE' ) );
#121 = DIRECTION ( 'NONE',  ( -1.000000000000000000, 0.0000000000000000000, 0.0000000000000000000 ) ) ;
#122 = CIRCLE ( 'NONE', #42, 0.1968504999999999838 ) ;
#123 = CARTESIAN_POINT ( 'NONE',  ( -0.1968504999999999838, 0.0000000000000000000, 0.3341359834659373140 ) ) ;
#124 =( NAMED_UNIT ( * ) SI_UNIT ( $, .STERADIAN. ) SOLID_ANGLE_UNIT ( ) );
#125 = CARTESIAN_POINT ( 'NONE',  ( 0.1968504999999999838, 2.410723347355560646E-17, 0.3341359834659373140 ) ) ;
#126 = CARTESIAN_POINT ( 'NONE',  ( 0.0000000000000000000, 0.0000000000000000000, 2.500510016534062796 ) ) ;
#127 = CIRCLE ( 'NONE', #64, 0.1968504999999999838 ) ;
#128 =( GEOMETRIC_REPRESENTATION_CONTEXT ( 3 ) GLOBAL_UNCERTAINTY_ASSIGNED_CONTEXT ( ( #211 ) ) GLOBAL_UNIT_ASSIGNED_CONTEXT ( ( #204, #103, #145 ) ) REPRESENTATION_CONTEXT ( 'NONE', 'WORKASPACE' ) );
#129 = COLOUR_RGB ( '',0.7921568627450980005, 0.8196078431372548767, 0.9333333333333333481 ) ;
#130 = ORIENTED_EDGE ( 'NONE', *, *, #25, .T. ) ;
#131 = ORIENTED_EDGE ( 'NONE', *, *, #96, .F. ) ;
#132 = DIMENSIONAL_EXPONENTS ( 1.000000000000000000, 0.0000000000000000000, 0.0000000000000000000, 0.0000000000000000000, 0.0000000000000000000, 0.0000000000000000000, 0.0000000000000000000 ) ;
#133 = EDGE_CURVE ( 'NONE', #65, #230, #137, .T. ) ;
#134 = AXIS2_PLACEMENT_3D ( 'NONE', #149, #88, #168 ) ;
#135 = DIRECTION ( 'NONE',  ( -0.0000000000000000000, -0.0000000000000000000, -1.000000000000000000 ) ) ;
#136 = CARTESIAN_POINT ( 'NONE',  ( -0.003936999999999995191, -4.821434448243123477E-19, 2.834646000000000665 ) ) ;
#137 = LINE ( 'NONE', #82, #151 ) ;
#138 = EDGE_CURVE ( 'NONE', #65, #107, #112, .T. ) ;
#139 =( NAMED_UNIT ( * ) PLANE_ANGLE_UNIT ( ) SI_UNIT ( $, .RADIAN. ) );
#140 = ORIENTED_EDGE ( 'NONE', *, *, #113, .F. ) ;
#141 = CIRCLE ( 'NONE', #62, 0.003936999999999995191 ) ;
#142 = DIRECTION ( 'NONE',  ( -1.000000000000000000, 0.0000000000000000000, 0.0000000000000000000 ) ) ;
#143 = APPLICATION_CONTEXT ( 'automotive_design' ) ;
#144 = DIRECTION ( 'NONE',  ( -0.0000000000000000000, -0.0000000000000000000, -1.000000000000000000 ) ) ;
#145 =( NAMED_UNIT ( * ) SI_UNIT ( $, .STERADIAN. ) SOLID_ANGLE_UNIT ( ) );
#146 = DIRECTION ( 'NONE',  ( 0.5000000000000013323, 0.0000000000000000000, 0.8660254037844377084 ) ) ;
#147 = UNCERTAINTY_MEASURE_WITH_UNIT (LENGTH_MEASURE( 1.000000000000000082E-05 ), #98, 'distance_accuracy_value', 'NONE');
#148 = SHAPE_DEFINITION_REPRESENTATION ( #47, #212 ) ;
#149 = CARTESIAN_POINT ( 'NONE',  ( 0.0000000000000000000, 0.0000000000000000000, 2.834646000000000665 ) ) ;
#150 =( GEOMETRIC_REPRESENTATION_CONTEXT ( 3 ) GLOBAL_UNCERTAINTY_ASSIGNED_CONTEXT ( ( #57 ) ) GLOBAL_UNIT_ASSIGNED_CONTEXT ( ( #173, #139, #124 ) ) REPRESENTATION_CONTEXT ( 'NONE', 'WORKASPACE' ) );
#151 = VECTOR ( 'NONE', #234, 39.37007874015748143 ) ;
#152 = MANIFOLD_SOLID_BREP ( 'Mirror1', #78 ) ;
#153 = CONICAL_SURFACE ( 'NONE', #186, 0.003936999999999995191, 0.5235987755983005920 ) ;
#154 = VERTEX_POINT ( 'NONE', #125 ) ;
#155 = DIMENSIONAL_EXPONENTS ( 1.000000000000000000, 0.0000000000000000000, 0.0000000000000000000, 0.0000000000000000000, 0.0000000000000000000, 0.0000000000000000000, 0.0000000000000000000 ) ;
#156 = ORIENTED_EDGE ( 'NONE', *, *, #208, .T. ) ;
#157 = DIRECTION ( 'NONE',  ( -1.000000000000000000, 0.0000000000000000000, 0.0000000000000000000 ) ) ;
#158 = PRESENTATION_STYLE_ASSIGNMENT (( #177 ) ) ;
#159 = DIRECTION ( 'NONE',  ( 1.000000000000000000, 0.0000000000000000000, 0.0000000000000000000 ) ) ;
#160 = MECHANICAL_DESIGN_GEOMETRIC_PRESENTATION_REPRESENTATION (  '', ( #213 ), #150 ) ;
#161 = DIRECTION ( 'NONE',  ( 1.000000000000000000, 0.0000000000000000000, 0.0000000000000000000 ) ) ;
#162 = ADVANCED_FACE ( 'NONE', ( #77 ), #36, .T. ) ;
#163 = ORIENTED_EDGE ( 'NONE', *, *, #118, .F. ) ;
#164 = DIRECTION ( 'NONE',  ( -0.0000000000000000000, -0.0000000000000000000, -1.000000000000000000 ) ) ;
#165 = CARTESIAN_POINT ( 'NONE',  ( 0.0000000000000000000, 0.0000000000000000000, 2.834646000000000665 ) ) ;
#166 = EDGE_LOOP ( 'NONE', ( #87, #156, #217, #46 ) ) ;
#167 = FACE_OUTER_BOUND ( 'NONE', #166, .T. ) ;
#168 = DIRECTION ( 'NONE',  ( -1.000000000000000000, 0.0000000000000000000, 0.0000000000000000000 ) ) ;
#169 = CARTESIAN_POINT ( 'NONE',  ( 0.0000000000000000000, 0.0000000000000000000, 2.834646000000000665 ) ) ;
#170 = DIRECTION ( 'NONE',  ( 0.0000000000000000000, 0.0000000000000000000, -1.000000000000000000 ) ) ;
#171 = CARTESIAN_POINT ( 'NONE',  ( 0.003936999999999995191, 0.0000000000000000000, 0.0000000000000000000 ) ) ;
#172 = VERTEX_POINT ( 'NONE', #221 ) ;
#173 =( CONVERSION_BASED_UNIT ( 'INCH', #241 ) LENGTH_UNIT ( ) NAMED_UNIT ( #22 ) );
#174 = VECTOR ( 'NONE', #93, 39.37007874015748854 ) ;
#175 = EDGE_CURVE ( 'NONE', #172, #8, #16, .T. ) ;
#176 = DIRECTION ( 'NONE',  ( 0.0000000000000000000, 0.0000000000000000000, 1.000000000000000000 ) ) ;
#177 = SURFACE_STYLE_USAGE ( .BOTH. , #97 ) ;
#178 =( NAMED_UNIT ( * ) SI_UNIT ( $, .STERADIAN. ) SOLID_ANGLE_UNIT ( ) );
#179 = DIRECTION ( 'NONE',  ( -1.000000000000000000, 0.0000000000000000000, 0.0000000000000000000 ) ) ;
#180 = CONICAL_SURFACE ( 'NONE', #245, 0.003936999999999995191, 0.5235987755983005920 ) ;
#181 = SURFACE_STYLE_FILL_AREA ( #4 ) ;
#182 = FILL_AREA_STYLE_COLOUR ( '', #191 ) ;
#183 = EDGE_LOOP ( 'NONE', ( #238, #85, #31, #30 ) ) ;
#184 = CARTESIAN_POINT ( 'NONE',  ( 0.003936999999999995191, 0.0000000000000000000, 0.0000000000000000000 ) ) ;
#185 = AXIS2_PLACEMENT_3D ( 'NONE', #72, #236, #157 ) ;
#186 = AXIS2_PLACEMENT_3D ( 'NONE', #70, #170, #105 ) ;
#187 = PLANE ( 'NONE',  #66 ) ;
#188 = CARTESIAN_POINT ( 'NONE',  ( 0.0000000000000000000, 0.0000000000000000000, 2.834646000000000665 ) ) ;
#189 = ADVANCED_FACE ( 'NONE', ( #219 ), #180, .T. ) ;
#190 = VECTOR ( 'NONE', #222, 39.37007874015748143 ) ;
#191 = COLOUR_RGB ( '',0.7921568627450980005, 0.8196078431372548767, 0.9333333333333333481 ) ;
#192 = FACE_OUTER_BOUND ( 'NONE', #216, .T. ) ;
#193 = DIRECTION ( 'NONE',  ( -1.000000000000000000, 0.0000000000000000000, 0.0000000000000000000 ) ) ;
#194 = CARTESIAN_POINT ( 'NONE',  ( 0.1968504999999999838, 2.410723347355560646E-17, 2.834646000000000665 ) ) ;
#195 = PRODUCT_RELATED_PRODUCT_CATEGORY ( 'part', '', ( #59 ) ) ;
#196 = ORIENTED_EDGE ( 'NONE', *, *, #108, .T. ) ;
#197 = AXIS2_PLACEMENT_3D ( 'NONE', #199, #176, #243 ) ;
#198 = ORIENTED_EDGE ( 'NONE', *, *, #175, .F. ) ;
#199 = CARTESIAN_POINT ( 'NONE',  ( 0.0000000000000000000, 0.0000000000000000000, 2.834646000000000665 ) ) ;
#200 = CARTESIAN_POINT ( 'NONE',  ( 0.0000000000000000000, 0.0000000000000000000, 0.3341359834659373140 ) ) ;
#201 = CARTESIAN_POINT ( 'NONE',  ( 0.003936999999999995191, 0.0000000000000000000, 2.834646000000000665 ) ) ;
#202 = AXIS2_PLACEMENT_3D ( 'NONE', #38, #39, #159 ) ;
#203 = EDGE_LOOP ( 'NONE', ( #20, #116, #86, #232 ) ) ;
#204 =( CONVERSION_BASED_UNIT ( 'INCH', #233 ) LENGTH_UNIT ( ) NAMED_UNIT ( #155 ) );
#205 = ORIENTED_EDGE ( 'NONE', *, *, #138, .F. ) ;
#206 = LINE ( 'NONE', #171, #2 ) ;
#207 = CIRCLE ( 'NONE', #83, 0.003936999999999995191 ) ;
#208 = EDGE_CURVE ( 'NONE', #228, #65, #24, .T. ) ;
#209 = EDGE_CURVE ( 'NONE', #154, #230, #122, .T. ) ;
#210 = DIRECTION ( 'NONE',  ( 1.000000000000000000, 0.0000000000000000000, 0.0000000000000000000 ) ) ;
#211 = UNCERTAINTY_MEASURE_WITH_UNIT (LENGTH_MEASURE( 1.000000000000000082E-05 ), #204, 'distance_accuracy_value', 'NONE');
#212 = ADVANCED_BREP_SHAPE_REPRESENTATION ( 'Micro_RSCM-100-2', ( #152, #27 ), #128 ) ;
#213 = STYLED_ITEM ( 'NONE', ( #41 ), #212 ) ;
#214 = EDGE_CURVE ( 'NONE', #107, #154, #63, .T. ) ;
#215 = EDGE_LOOP ( 'NONE', ( #53, #101, #130, #205 ) ) ;
#216 = EDGE_LOOP ( 'NONE', ( #198, #48, #220, #51 ) ) ;
#217 = ORIENTED_EDGE ( 'NONE', *, *, #34, .F. ) ;
#218 = EDGE_LOOP ( 'NONE', ( #140, #131, #196, #84 ) ) ;
#219 = FACE_OUTER_BOUND ( 'NONE', #218, .T. ) ;
#220 = ORIENTED_EDGE ( 'NONE', *, *, #28, .T. ) ;
#221 = CARTESIAN_POINT ( 'NONE',  ( -0.003936999999999995191, 1.229468845918995738E-17, 0.0000000000000000000 ) ) ;
#222 = DIRECTION ( 'NONE',  ( -0.0000000000000000000, -0.0000000000000000000, -1.000000000000000000 ) ) ;
#223 = DIRECTION ( 'NONE',  ( 0.0000000000000000000, 0.0000000000000000000, 1.000000000000000000 ) ) ;
#224 = CIRCLE ( 'NONE', #185, 0.003936999999999995191 ) ;
#225 = ADVANCED_FACE ( 'NONE', ( #192 ), #231, .T. ) ;
#226 = CARTESIAN_POINT ( 'NONE',  ( 0.0000000000000000000, 0.0000000000000000000, 2.834646000000000665 ) ) ;
#227 = CONICAL_SURFACE ( 'NONE', #76, 0.003936999999999995191, 0.5235987755983005920 ) ;
#228 = VERTEX_POINT ( 'NONE', #10 ) ;
#229 = ADVANCED_FACE ( 'NONE', ( #167 ), #153, .T. ) ;
#230 = VERTEX_POINT ( 'NONE', #123 ) ;
#231 = CONICAL_SURFACE ( 'NONE', #202, 0.003936999999999995191, 0.5235987755983005920 ) ;
#232 = ORIENTED_EDGE ( 'NONE', *, *, #209, .F. ) ;
#233 = LENGTH_MEASURE_WITH_UNIT ( LENGTH_MEASURE( 0.02539999999999999897 ), #23 );
#234 = DIRECTION ( 'NONE',  ( -0.0000000000000000000, -0.0000000000000000000, -1.000000000000000000 ) ) ;
#235 = DIRECTION ( 'NONE',  ( -0.5000000000000013323, -6.123233995736782060E-17, -0.8660254037844377084 ) ) ;
#236 = DIRECTION ( 'NONE',  ( -0.0000000000000000000, -0.0000000000000000000, -1.000000000000000000 ) ) ;
#237 = DIRECTION ( 'NONE',  ( 0.0000000000000000000, 0.0000000000000000000, -1.000000000000000000 ) ) ;
#238 = ORIENTED_EDGE ( 'NONE', *, *, #138, .T. ) ;
#239 = ADVANCED_FACE ( 'NONE', ( #33 ), #227, .T. ) ;
#240 = DIRECTION ( 'NONE',  ( -1.000000000000000000, 0.0000000000000000000, 0.0000000000000000000 ) ) ;
#241 = LENGTH_MEASURE_WITH_UNIT ( LENGTH_MEASURE( 0.02539999999999999897 ), #6 );
#242 = PRODUCT_DEFINITION_CONTEXT ( 'detailed design', #143, 'design' ) ;
#243 = DIRECTION ( 'NONE',  ( 1.000000000000000000, 0.0000000000000000000, -0.0000000000000000000 ) ) ;
#244 = APPLICATION_PROTOCOL_DEFINITION ( 'draft international standard', 'automotive_design', 1998, #143 ) ;
#245 = AXIS2_PLACEMENT_3D ( 'NONE', #5, #32, #89 ) ;
#246 = DIRECTION ( 'NONE',  ( 0.0000000000000000000, 0.0000000000000000000, -1.000000000000000000 ) ) ;
#247 = PRODUCT_CONTEXT ( 'NONE', #73, 'mechanical' ) ;
#248 = DIRECTION ( 'NONE',  ( 0.0000000000000000000, 0.0000000000000000000, -1.000000000000000000 ) ) ;
#249 = SURFACE_STYLE_FILL_AREA ( #54 ) ;
ENDSEC;
END-ISO-10303-21;
