ISO-10303-21;
HEADER;
FILE_DESCRIPTION (( 'STEP AP214' ),
    '1' );
FILE_NAME ('81805.STEP',
    '2023-06-23T03:15:37',
    ( '' ),
    ( '' ),
    'SwSTEP 2.0',
    'SolidWorks 2023',
    '' );
FILE_SCHEMA (( 'AUTOMOTIVE_DESIGN' ));
ENDSEC;

DATA;
#1 = STYLED_ITEM ( 'NONE', ( #307 ), #213 ) ;
#2 = SURFACE_STYLE_FILL_AREA ( #41 ) ;
#3 = SURFACE_SIDE_STYLE ('',( #118 ) ) ;
#4 = PRESENTATION_STYLE_ASSIGNMENT (( #202 ) ) ;
#5 = EDGE_CURVE ( 'NONE', #216, #304, #89, .T. ) ;
#6 = MECHANICAL_DESIGN_GEOMETRIC_PRESENTATION_REPRESENTATION (  '', ( #37 ), #194 ) ;
#7 = PRODUCT_DEFINITION_CONTEXT ( 'detailed design', #167, 'design' ) ;
#8 =( NAMED_UNIT ( * ) SI_UNIT ( $, .STERADIAN. ) SOLID_ANGLE_UNIT ( ) );
#9 = FACE_OUTER_BOUND ( 'NONE', #63, .T. ) ;
#10 = CARTESIAN_POINT ( 'NONE',  ( 0.000000000000000000, 0.000000000000000000, 0.000000000000000000 ) ) ;
#11 = CYLINDRICAL_SURFACE ( 'NONE', #145, 0.09374999999999998612 ) ;
#12 = AXIS2_PLACEMENT_3D ( 'NONE', #45, #244, #266 ) ;
#13 =( LENGTH_UNIT ( ) NAMED_UNIT ( * ) SI_UNIT ( $, .METRE. ) );
#14 = EDGE_CURVE ( 'NONE', #57, #304, #104, .T. ) ;
#15 = ORIENTED_EDGE ( 'NONE', *, *, #251, .T. ) ;
#16 = MECHANICAL_DESIGN_GEOMETRIC_PRESENTATION_REPRESENTATION (  '', ( #53 ), #80 ) ;
#17 = APPLICATION_PROTOCOL_DEFINITION ( 'draft international standard', 'automotive_design', 1998, #119 ) ;
#18 = EDGE_LOOP ( 'NONE', ( #69, #185 ) ) ;
#19 = DIRECTION ( 'NONE',  ( -0.000000000000000000, -1.000000000000000000, -0.000000000000000000 ) ) ;
#20 = APPLICATION_PROTOCOL_DEFINITION ( 'draft international standard', 'automotive_design', 1998, #167 ) ;
#21 = CARTESIAN_POINT ( 'NONE',  ( 0.000000000000000000, 0.000000000000000000, 0.000000000000000000 ) ) ;
#22 = SURFACE_STYLE_USAGE ( .BOTH. , #3 ) ;
#23 = CARTESIAN_POINT ( 'NONE',  ( 1.148106374200643401E-17, 1.000000000000000000, 0.09374999999999998612 ) ) ;
#24 = AXIS2_PLACEMENT_3D ( 'NONE', #62, #59, #209 ) ;
#25 = DIRECTION ( 'NONE',  ( 0.000000000000000000, 0.000000000000000000, -1.000000000000000000 ) ) ;
#26 = DIRECTION ( 'NONE',  ( 0.000000000000000000, -1.000000000000000000, -0.000000000000000000 ) ) ;
#27 =( CONVERSION_BASED_UNIT ( 'INCH', #100 ) LENGTH_UNIT ( ) NAMED_UNIT ( #77 ) );
#28 = CIRCLE ( 'NONE', #246, 0.09374999999999998612 ) ;
#29 = EDGE_CURVE ( 'NONE', #280, #148, #95, .T. ) ;
#30 = LINE ( 'NONE', #276, #270 ) ;
#31 = SURFACE_STYLE_USAGE ( .BOTH. , #232 ) ;
#32 = DIRECTION ( 'NONE',  ( 0.000000000000000000, 1.000000000000000000, 0.000000000000000000 ) ) ;
#33 =( CONVERSION_BASED_UNIT ( 'INCH', #186 ) LENGTH_UNIT ( ) NAMED_UNIT ( #174 ) );
#34 = ORIENTED_EDGE ( 'NONE', *, *, #251, .F. ) ;
#35 = PLANE ( 'NONE',  #120 ) ;
#36 = ORIENTED_EDGE ( 'NONE', *, *, #5, .F. ) ;
#37 = STYLED_ITEM ( 'NONE', ( #128 ), #301 ) ;
#38 = SHAPE_DEFINITION_REPRESENTATION ( #268, #122 ) ;
#39 = ORIENTED_EDGE ( 'NONE', *, *, #264, .F. ) ;
#40 = DIRECTION ( 'NONE',  ( 0.000000000000000000, 0.000000000000000000, -1.000000000000000000 ) ) ;
#41 = FILL_AREA_STYLE ('',( #309 ) ) ;
#42 = ORIENTED_EDGE ( 'NONE', *, *, #44, .F. ) ;
#43 = AXIS2_PLACEMENT_3D ( 'NONE', #230, #293, #79 ) ;
#44 = EDGE_CURVE ( 'NONE', #148, #280, #28, .T. ) ;
#45 = CARTESIAN_POINT ( 'NONE',  ( 0.000000000000000000, 0.000000000000000000, 0.000000000000000000 ) ) ;
#46 =( NAMED_UNIT ( * ) SI_UNIT ( $, .STERADIAN. ) SOLID_ANGLE_UNIT ( ) );
#47 = CARTESIAN_POINT ( 'NONE',  ( 0.09374999999999998612, 2.500000000000000000, 1.148106374200644171E-17 ) ) ;
#48 = MECHANICAL_DESIGN_GEOMETRIC_PRESENTATION_REPRESENTATION (  '', ( #67 ), #165 ) ;
#49 = CARTESIAN_POINT ( 'NONE',  ( 0.000000000000000000, 1.000000000000000000, -0.09374999999999998612 ) ) ;
#50 = EDGE_CURVE ( 'NONE', #236, #239, #208, .T. ) ;
#51 = CYLINDRICAL_SURFACE ( 'NONE', #297, 0.09374999999999998612 ) ;
#52 = PLANE ( 'NONE',  #110 ) ;
#53 = STYLED_ITEM ( 'NONE', ( #136 ), #101 ) ;
#54 = STYLED_ITEM ( 'NONE', ( #179 ), #152 ) ;
#55 = CARTESIAN_POINT ( 'NONE',  ( -0.09374999999999998612, 1.000000000000000000, 0.000000000000000000 ) ) ;
#56 = SURFACE_STYLE_FILL_AREA ( #228 ) ;
#57 = VERTEX_POINT ( 'NONE', #218 ) ;
#58 = CARTESIAN_POINT ( 'NONE',  ( 0.000000000000000000, 1.000000000000000000, 0.000000000000000000 ) ) ;
#59 = DIRECTION ( 'NONE',  ( -4.082155997157843818E-17, 1.000000000000000000, -0.000000000000000000 ) ) ;
#60 = PRESENTATION_LAYER_ASSIGNMENT (  '', '', ( #53 ) ) ;
#61 = CARTESIAN_POINT ( 'NONE',  ( 0.000000000000000000, 1.000000000000000000, 0.000000000000000000 ) ) ;
#62 = CARTESIAN_POINT ( 'NONE',  ( -6.123233995736766036E-17, 2.500000000000000000, 0.000000000000000000 ) ) ;
#63 = EDGE_LOOP ( 'NONE', ( #42, #263 ) ) ;
#64 = FACE_OUTER_BOUND ( 'NONE', #302, .T. ) ;
#65 =( NAMED_UNIT ( * ) PLANE_ANGLE_UNIT ( ) SI_UNIT ( $, .RADIAN. ) );
#66 = DIRECTION ( 'NONE',  ( -4.082155997157843818E-17, 1.000000000000000000, -0.000000000000000000 ) ) ;
#67 = STYLED_ITEM ( 'NONE', ( #262 ), #212 ) ;
#68 =( NAMED_UNIT ( * ) PLANE_ANGLE_UNIT ( ) SI_UNIT ( $, .RADIAN. ) );
#69 = ORIENTED_EDGE ( 'NONE', *, *, #207, .T. ) ;
#70 = DIRECTION ( 'NONE',  ( -1.000000000000000000, 0.000000000000000000, 0.000000000000000000 ) ) ;
#71 = EDGE_LOOP ( 'NONE', ( #249, #112 ) ) ;
#72 = VECTOR ( 'NONE', #229, 39.37007874015748143 ) ;
#73 = SURFACE_STYLE_USAGE ( .BOTH. , #169 ) ;
#74 =( LENGTH_UNIT ( ) NAMED_UNIT ( * ) SI_UNIT ( $, .METRE. ) );
#75 = CLOSED_SHELL ( 'NONE', ( #152, #101, #301, #284 ) ) ;
#76 = EDGE_CURVE ( 'NONE', #237, #216, #150, .T. ) ;
#77 = DIMENSIONAL_EXPONENTS ( 1.000000000000000000, 0.000000000000000000, 0.000000000000000000, 0.000000000000000000, 0.000000000000000000, 0.000000000000000000, 0.000000000000000000 ) ;
#78 = FACE_OUTER_BOUND ( 'NONE', #160, .T. ) ;
#79 = DIRECTION ( 'NONE',  ( -1.000000000000000000, 0.000000000000000000, 0.000000000000000000 ) ) ;
#80 =( GEOMETRIC_REPRESENTATION_CONTEXT ( 3 ) GLOBAL_UNCERTAINTY_ASSIGNED_CONTEXT ( ( #240 ) ) GLOBAL_UNIT_ASSIGNED_CONTEXT ( ( #283, #250, #84 ) ) REPRESENTATION_CONTEXT ( 'NONE', 'WORKASPACE' ) );
#81 = COLOUR_RGB ( '',0.7921568627450980005, 0.8196078431372548767, 0.9333333333333333481 ) ;
#82 = FILL_AREA_STYLE ('',( #248 ) ) ;
#83 = SURFACE_STYLE_USAGE ( .BOTH. , #299 ) ;
#84 =( NAMED_UNIT ( * ) SI_UNIT ( $, .STERADIAN. ) SOLID_ANGLE_UNIT ( ) );
#85 = MECHANICAL_DESIGN_GEOMETRIC_PRESENTATION_REPRESENTATION (  '', ( #1 ), #92 ) ;
#86 = DIRECTION ( 'NONE',  ( -4.082155997157843818E-17, 1.000000000000000000, -0.000000000000000000 ) ) ;
#87 = ORIENTED_EDGE ( 'NONE', *, *, #207, .F. ) ;
#88 = PRODUCT_CONTEXT ( 'NONE', #119, 'mechanical' ) ;
#89 = LINE ( 'NONE', #131, #144 ) ;
#90 = DIRECTION ( 'NONE',  ( 0.000000000000000000, 0.000000000000000000, -1.000000000000000000 ) ) ;
#91 = AXIS2_PLACEMENT_3D ( 'NONE', #21, #243, #40 ) ;
#92 =( GEOMETRIC_REPRESENTATION_CONTEXT ( 3 ) GLOBAL_UNCERTAINTY_ASSIGNED_CONTEXT ( ( #125 ) ) GLOBAL_UNIT_ASSIGNED_CONTEXT ( ( #193, #223, #196 ) ) REPRESENTATION_CONTEXT ( 'NONE', 'WORKASPACE' ) );
#93 = FILL_AREA_STYLE ('',( #192 ) ) ;
#94 =( LENGTH_UNIT ( ) NAMED_UNIT ( * ) SI_UNIT ( $, .METRE. ) );
#95 = CIRCLE ( 'NONE', #288, 0.09374999999999998612 ) ;
#96 = MECHANICAL_DESIGN_GEOMETRIC_PRESENTATION_REPRESENTATION (  '', ( #54 ), #265 ) ;
#97 = LENGTH_MEASURE_WITH_UNIT ( LENGTH_MEASURE( 0.02539999999999999897 ), #267 );
#98 =( NAMED_UNIT ( * ) SI_UNIT ( $, .STERADIAN. ) SOLID_ANGLE_UNIT ( ) );
#99 = CIRCLE ( 'NONE', #12, 0.09375000000000001388 ) ;
#100 = LENGTH_MEASURE_WITH_UNIT ( LENGTH_MEASURE( 0.02539999999999999897 ), #175 );
#101 = ADVANCED_FACE ( 'NONE', ( #282 ), #306, .T. ) ;
#102 = CARTESIAN_POINT ( 'NONE',  ( -0.09375000000000012490, 2.500000000000000000, 0.000000000000000000 ) ) ;
#103 = CARTESIAN_POINT ( 'NONE',  ( 1.148106374200643401E-17, 0.000000000000000000, 0.09374999999999998612 ) ) ;
#104 = CIRCLE ( 'NONE', #91, 0.09375000000000001388 ) ;
#105 =( LENGTH_UNIT ( ) NAMED_UNIT ( * ) SI_UNIT ( $, .METRE. ) );
#106 = ADVANCED_FACE ( 'NONE', ( #78 ), #147, .T. ) ;
#107 = ORIENTED_EDGE ( 'NONE', *, *, #255, .T. ) ;
#108 = UNCERTAINTY_MEASURE_WITH_UNIT (LENGTH_MEASURE( 1.000000000000000082E-05 ), #27, 'distance_accuracy_value', 'NONE');
#109 =( LENGTH_UNIT ( ) NAMED_UNIT ( * ) SI_UNIT ( $, .METRE. ) );
#110 = AXIS2_PLACEMENT_3D ( 'NONE', #10, #26, #141 ) ;
#111 = EDGE_LOOP ( 'NONE', ( #154, #187 ) ) ;
#112 = ORIENTED_EDGE ( 'NONE', *, *, #76, .F. ) ;
#113 = UNCERTAINTY_MEASURE_WITH_UNIT (LENGTH_MEASURE( 1.000000000000000082E-05 ), #114, 'distance_accuracy_value', 'NONE');
#114 =( CONVERSION_BASED_UNIT ( 'INCH', #134 ) LENGTH_UNIT ( ) NAMED_UNIT ( #127 ) );
#115 = CARTESIAN_POINT ( 'NONE',  ( 0.000000000000000000, 1.000000000000000000, 0.000000000000000000 ) ) ;
#116 = DIRECTION ( 'NONE',  ( -1.000000000000000000, 0.000000000000000000, 0.000000000000000000 ) ) ;
#117 =( CONVERSION_BASED_UNIT ( 'INCH', #97 ) LENGTH_UNIT ( ) NAMED_UNIT ( #272 ) );
#118 = SURFACE_STYLE_FILL_AREA ( #225 ) ;
#119 = APPLICATION_CONTEXT ( 'automotive_design' ) ;
#120 = AXIS2_PLACEMENT_3D ( 'NONE', #159, #215, #180 ) ;
#121 =( NAMED_UNIT ( * ) PLANE_ANGLE_UNIT ( ) SI_UNIT ( $, .RADIAN. ) );
#122 = ADVANCED_BREP_SHAPE_REPRESENTATION ( '81805', ( #213, #212, #219 ), #217 ) ;
#123 = LENGTH_MEASURE_WITH_UNIT ( LENGTH_MEASURE( 0.02539999999999999897 ), #105 );
#124 = AXIS2_PLACEMENT_3D ( 'NONE', #222, #139, #70 ) ;
#125 = UNCERTAINTY_MEASURE_WITH_UNIT (LENGTH_MEASURE( 1.000000000000000082E-05 ), #193, 'distance_accuracy_value', 'NONE');
#126 = SURFACE_STYLE_FILL_AREA ( #82 ) ;
#127 = DIMENSIONAL_EXPONENTS ( 1.000000000000000000, 0.000000000000000000, 0.000000000000000000, 0.000000000000000000, 0.000000000000000000, 0.000000000000000000, 0.000000000000000000 ) ;
#128 = PRESENTATION_STYLE_ASSIGNMENT (( #31 ) ) ;
#129 = FILL_AREA_STYLE_COLOUR ( '', #204 ) ;
#130 = UNCERTAINTY_MEASURE_WITH_UNIT (LENGTH_MEASURE( 1.000000000000000082E-05 ), #117, 'distance_accuracy_value', 'NONE');
#131 = CARTESIAN_POINT ( 'NONE',  ( 0.000000000000000000, 0.000000000000000000, -0.09374999999999998612 ) ) ;
#132 = CARTESIAN_POINT ( 'NONE',  ( 0.000000000000000000, 0.000000000000000000, 0.000000000000000000 ) ) ;
#133 = DIRECTION ( 'NONE',  ( -1.000000000000000000, 0.000000000000000000, 0.000000000000000000 ) ) ;
#134 = LENGTH_MEASURE_WITH_UNIT ( LENGTH_MEASURE( 0.02539999999999999897 ), #109 );
#135 = ORIENTED_EDGE ( 'NONE', *, *, #14, .F. ) ;
#136 = PRESENTATION_STYLE_ASSIGNMENT (( #261 ) ) ;
#137 = AXIS2_PLACEMENT_3D ( 'NONE', #220, #161, #25 ) ;
#138 = ADVANCED_FACE ( 'NONE', ( #9 ), #231, .F. ) ;
#139 = DIRECTION ( 'NONE',  ( -4.082155997157843818E-17, 1.000000000000000000, -0.000000000000000000 ) ) ;
#140 = DIMENSIONAL_EXPONENTS ( 1.000000000000000000, 0.000000000000000000, 0.000000000000000000, 0.000000000000000000, 0.000000000000000000, 0.000000000000000000, 0.000000000000000000 ) ;
#141 = DIRECTION ( 'NONE',  ( 0.000000000000000000, 0.000000000000000000, -1.000000000000000000 ) ) ;
#142 = DIMENSIONAL_EXPONENTS ( 1.000000000000000000, 0.000000000000000000, 0.000000000000000000, 0.000000000000000000, 0.000000000000000000, 0.000000000000000000, 0.000000000000000000 ) ;
#143 = FILL_AREA_STYLE ('',( #129 ) ) ;
#144 = VECTOR ( 'NONE', #19, 39.37007874015748143 ) ;
#145 = AXIS2_PLACEMENT_3D ( 'NONE', #197, #163, #269 ) ;
#146 = DIRECTION ( 'NONE',  ( -0.000000000000000000, -1.000000000000000000, -0.000000000000000000 ) ) ;
#147 = CYLINDRICAL_SURFACE ( 'NONE', #43, 0.09375000000000002776 ) ;
#148 = VERTEX_POINT ( 'NONE', #55 ) ;
#149 = FACE_OUTER_BOUND ( 'NONE', #158, .T. ) ;
#150 = CIRCLE ( 'NONE', #296, 0.09374999999999998612 ) ;
#151 = VECTOR ( 'NONE', #287, 39.37007874015748143 ) ;
#152 = ADVANCED_FACE ( 'NONE', ( #203 ), #11, .T. ) ;
#153 = CYLINDRICAL_SURFACE ( 'NONE', #24, 0.09375000000000002776 ) ;
#154 = ORIENTED_EDGE ( 'NONE', *, *, #200, .T. ) ;
#155 =( NAMED_UNIT ( * ) SI_UNIT ( $, .STERADIAN. ) SOLID_ANGLE_UNIT ( ) );
#156 = ORIENTED_EDGE ( 'NONE', *, *, #29, .T. ) ;
#157 = AXIS2_PLACEMENT_3D ( 'NONE', #58, #32, #201 ) ;
#158 = EDGE_LOOP ( 'NONE', ( #233, #214, #278, #135 ) ) ;
#159 = CARTESIAN_POINT ( 'NONE',  ( 0.09374999999999998612, 2.500000000000000000, 0.000000000000000000 ) ) ;
#160 = EDGE_LOOP ( 'NONE', ( #34, #156, #258, #260 ) ) ;
#161 = DIRECTION ( 'NONE',  ( -0.000000000000000000, -1.000000000000000000, -0.000000000000000000 ) ) ;
#162 = ORIENTED_EDGE ( 'NONE', *, *, #195, .T. ) ;
#163 = DIRECTION ( 'NONE',  ( -0.000000000000000000, -1.000000000000000000, -0.000000000000000000 ) ) ;
#164 = CLOSED_SHELL ( 'NONE', ( #308, #138, #106, #303 ) ) ;
#165 =( GEOMETRIC_REPRESENTATION_CONTEXT ( 3 ) GLOBAL_UNCERTAINTY_ASSIGNED_CONTEXT ( ( #130 ) ) GLOBAL_UNIT_ASSIGNED_CONTEXT ( ( #117, #121, #46 ) ) REPRESENTATION_CONTEXT ( 'NONE', 'WORKASPACE' ) );
#166 = LENGTH_MEASURE_WITH_UNIT ( LENGTH_MEASURE( 0.02539999999999999897 ), #94 );
#167 = APPLICATION_CONTEXT ( 'automotive_design' ) ;
#168 = PRODUCT_RELATED_PRODUCT_CATEGORY ( 'part', '', ( #190 ) ) ;
#169 = SURFACE_SIDE_STYLE ('',( #2 ) ) ;
#170 = COLOUR_RGB ( '',1.000000000000000000, 0.000000000000000000, 0.000000000000000000 ) ;
#171 = SURFACE_SIDE_STYLE ('',( #126 ) ) ;
#172 = UNCERTAINTY_MEASURE_WITH_UNIT (LENGTH_MEASURE( 1.000000000000000082E-05 ), #226, 'distance_accuracy_value', 'NONE');
#173 = CARTESIAN_POINT ( 'NONE',  ( 0.09374999999999995837, 2.500000000000000000, 1.148106374200644017E-17 ) ) ;
#174 = DIMENSIONAL_EXPONENTS ( 1.000000000000000000, 0.000000000000000000, 0.000000000000000000, 0.000000000000000000, 0.000000000000000000, 0.000000000000000000, 0.000000000000000000 ) ;
#175 =( LENGTH_UNIT ( ) NAMED_UNIT ( * ) SI_UNIT ( $, .METRE. ) );
#176 = CARTESIAN_POINT ( 'NONE',  ( 7.811248868030507305E-35, 1.000000000000000000, 0.000000000000000000 ) ) ;
#177 = PRESENTATION_LAYER_ASSIGNMENT (  '', '', ( #67 ) ) ;
#178 = FACE_OUTER_BOUND ( 'NONE', #111, .T. ) ;
#179 = PRESENTATION_STYLE_ASSIGNMENT (( #83 ) ) ;
#180 = DIRECTION ( 'NONE',  ( 1.000000000000000000, 4.082155997157843818E-17, 0.000000000000000000 ) ) ;
#181 = CARTESIAN_POINT ( 'NONE',  ( 0.000000000000000000, 0.000000000000000000, -0.09375000000000001388 ) ) ;
#182 = AXIS2_PLACEMENT_3D ( 'NONE', #176, #254, #274 ) ;
#183 = CARTESIAN_POINT ( 'NONE',  ( -6.123233995736766036E-17, 2.500000000000000000, 0.000000000000000000 ) ) ;
#184 = DIRECTION ( 'NONE',  ( 0.000000000000000000, 0.000000000000000000, -1.000000000000000000 ) ) ;
#185 = ORIENTED_EDGE ( 'NONE', *, *, #50, .T. ) ;
#186 = LENGTH_MEASURE_WITH_UNIT ( LENGTH_MEASURE( 0.02539999999999999897 ), #13 );
#187 = ORIENTED_EDGE ( 'NONE', *, *, #14, .T. ) ;
#188 = PRODUCT_DEFINITION ( 'UNKNOWN', '', #242, #7 ) ;
#189 = CIRCLE ( 'NONE', #124, 0.09375000000000005551 ) ;
#190 = PRODUCT ( '81805', '81805', '', ( #88 ) ) ;
#191 = SURFACE_STYLE_FILL_AREA ( #93 ) ;
#192 = FILL_AREA_STYLE_COLOUR ( '', #198 ) ;
#193 =( CONVERSION_BASED_UNIT ( 'INCH', #166 ) LENGTH_UNIT ( ) NAMED_UNIT ( #142 ) );
#194 =( GEOMETRIC_REPRESENTATION_CONTEXT ( 3 ) GLOBAL_UNCERTAINTY_ASSIGNED_CONTEXT ( ( #172 ) ) GLOBAL_UNIT_ASSIGNED_CONTEXT ( ( #226, #271, #8 ) ) REPRESENTATION_CONTEXT ( 'NONE', 'WORKASPACE' ) );
#195 = EDGE_CURVE ( 'NONE', #216, #237, #227, .T. ) ;
#196 =( NAMED_UNIT ( * ) SI_UNIT ( $, .STERADIAN. ) SOLID_ANGLE_UNIT ( ) );
#197 = CARTESIAN_POINT ( 'NONE',  ( 0.000000000000000000, 0.000000000000000000, 0.000000000000000000 ) ) ;
#198 = COLOUR_RGB ( '',1.000000000000000000, 0.000000000000000000, 0.000000000000000000 ) ;
#199 = LINE ( 'NONE', #103, #151 ) ;
#200 = EDGE_CURVE ( 'NONE', #304, #57, #99, .T. ) ;
#201 = DIRECTION ( 'NONE',  ( 0.000000000000000000, -0.000000000000000000, 1.000000000000000000 ) ) ;
#202 = SURFACE_STYLE_USAGE ( .BOTH. , #171 ) ;
#203 = FACE_OUTER_BOUND ( 'NONE', #206, .T. ) ;
#204 = COLOUR_RGB ( '',1.000000000000000000, 0.000000000000000000, 0.000000000000000000 ) ;
#205 = DIRECTION ( 'NONE',  ( -4.082155997157843818E-17, 1.000000000000000000, -0.000000000000000000 ) ) ;
#206 = EDGE_LOOP ( 'NONE', ( #162, #107, #256, #36 ) ) ;
#207 = EDGE_CURVE ( 'NONE', #239, #236, #189, .T. ) ;
#208 = CIRCLE ( 'NONE', #275, 0.09375000000000005551 ) ;
#209 = DIRECTION ( 'NONE',  ( -1.000000000000000000, 0.000000000000000000, 0.000000000000000000 ) ) ;
#210 = STYLED_ITEM ( 'NONE', ( #4 ), #284 ) ;
#211 = DIRECTION ( 'NONE',  ( -4.082155997157843818E-17, 1.000000000000000000, -0.000000000000000000 ) ) ;
#212 = MANIFOLD_SOLID_BREP ( 'Revolve - Tool Body (Straight Shanked)', #164 ) ;
#213 = MANIFOLD_SOLID_BREP ( 'Revolve - Cutting Edge', #75 ) ;
#214 = ORIENTED_EDGE ( 'NONE', *, *, #76, .T. ) ;
#215 = DIRECTION ( 'NONE',  ( 4.082155997157843818E-17, -1.000000000000000000, 0.000000000000000000 ) ) ;
#216 = VERTEX_POINT ( 'NONE', #49 ) ;
#217 =( GEOMETRIC_REPRESENTATION_CONTEXT ( 3 ) GLOBAL_UNCERTAINTY_ASSIGNED_CONTEXT ( ( #113 ) ) GLOBAL_UNIT_ASSIGNED_CONTEXT ( ( #114, #68, #155 ) ) REPRESENTATION_CONTEXT ( 'NONE', 'WORKASPACE' ) );
#218 = CARTESIAN_POINT ( 'NONE',  ( 1.148106374200643555E-17, 0.000000000000000000, 0.09375000000000001388 ) ) ;
#219 = AXIS2_PLACEMENT_3D ( 'NONE', #132, #259, #234 ) ;
#220 = CARTESIAN_POINT ( 'NONE',  ( 0.000000000000000000, 1.000000000000000000, 0.000000000000000000 ) ) ;
#221 = LENGTH_MEASURE_WITH_UNIT ( LENGTH_MEASURE( 0.02539999999999999897 ), #74 );
#222 = CARTESIAN_POINT ( 'NONE',  ( -6.123233995736766036E-17, 2.500000000000000000, 0.000000000000000000 ) ) ;
#223 =( NAMED_UNIT ( * ) PLANE_ANGLE_UNIT ( ) SI_UNIT ( $, .RADIAN. ) );
#224 = PRESENTATION_LAYER_ASSIGNMENT (  '', '', ( #1 ) ) ;
#225 = FILL_AREA_STYLE ('',( #285 ) ) ;
#226 =( CONVERSION_BASED_UNIT ( 'INCH', #123 ) LENGTH_UNIT ( ) NAMED_UNIT ( #140 ) );
#227 = CIRCLE ( 'NONE', #137, 0.09374999999999998612 ) ;
#228 = FILL_AREA_STYLE ('',( #253 ) ) ;
#229 = DIRECTION ( 'NONE',  ( -4.082155997157843818E-17, 1.000000000000000000, -0.000000000000000000 ) ) ;
#230 = CARTESIAN_POINT ( 'NONE',  ( -6.123233995736766036E-17, 2.500000000000000000, 0.000000000000000000 ) ) ;
#231 = PLANE ( 'NONE',  #182 ) ;
#232 = SURFACE_SIDE_STYLE ('',( #56 ) ) ;
#233 = ORIENTED_EDGE ( 'NONE', *, *, #255, .F. ) ;
#234 = DIRECTION ( 'NONE',  ( 1.000000000000000000, 0.000000000000000000, 0.000000000000000000 ) ) ;
#235 = PRESENTATION_LAYER_ASSIGNMENT (  '', '', ( #54 ) ) ;
#236 = VERTEX_POINT ( 'NONE', #47 ) ;
#237 = VERTEX_POINT ( 'NONE', #23 ) ;
#238 = FACE_OUTER_BOUND ( 'NONE', #18, .T. ) ;
#239 = VERTEX_POINT ( 'NONE', #102 ) ;
#240 = UNCERTAINTY_MEASURE_WITH_UNIT (LENGTH_MEASURE( 1.000000000000000082E-05 ), #283, 'distance_accuracy_value', 'NONE');
#241 =( GEOMETRIC_REPRESENTATION_CONTEXT ( 3 ) GLOBAL_UNCERTAINTY_ASSIGNED_CONTEXT ( ( #108 ) ) GLOBAL_UNIT_ASSIGNED_CONTEXT ( ( #27, #291, #294 ) ) REPRESENTATION_CONTEXT ( 'NONE', 'WORKASPACE' ) );
#242 = PRODUCT_DEFINITION_FORMATION_WITH_SPECIFIED_SOURCE ( 'ANY', '', #190, .NOT_KNOWN. ) ;
#243 = DIRECTION ( 'NONE',  ( -0.000000000000000000, -1.000000000000000000, -0.000000000000000000 ) ) ;
#244 = DIRECTION ( 'NONE',  ( -0.000000000000000000, -1.000000000000000000, -0.000000000000000000 ) ) ;
#245 = COLOUR_RGB ( '',0.7921568627450980005, 0.8196078431372548767, 0.9333333333333333481 ) ;
#246 = AXIS2_PLACEMENT_3D ( 'NONE', #300, #86, #116 ) ;
#247 = MECHANICAL_DESIGN_GEOMETRIC_PRESENTATION_REPRESENTATION (  '', ( #210 ), #241 ) ;
#248 = FILL_AREA_STYLE_COLOUR ( '', #290 ) ;
#249 = ORIENTED_EDGE ( 'NONE', *, *, #195, .F. ) ;
#250 =( NAMED_UNIT ( * ) PLANE_ANGLE_UNIT ( ) SI_UNIT ( $, .RADIAN. ) );
#251 = EDGE_CURVE ( 'NONE', #280, #236, #252, .T. ) ;
#252 = LINE ( 'NONE', #173, #72 ) ;
#253 = FILL_AREA_STYLE_COLOUR ( '', #170 ) ;
#254 = DIRECTION ( 'NONE',  ( -4.082155997157843818E-17, 1.000000000000000000, 0.000000000000000000 ) ) ;
#255 = EDGE_CURVE ( 'NONE', #237, #57, #199, .T. ) ;
#256 = ORIENTED_EDGE ( 'NONE', *, *, #200, .F. ) ;
#257 = UNCERTAINTY_MEASURE_WITH_UNIT (LENGTH_MEASURE( 1.000000000000000082E-05 ), #33, 'distance_accuracy_value', 'NONE');
#258 = ORIENTED_EDGE ( 'NONE', *, *, #264, .T. ) ;
#259 = DIRECTION ( 'NONE',  ( 0.000000000000000000, 0.000000000000000000, 1.000000000000000000 ) ) ;
#260 = ORIENTED_EDGE ( 'NONE', *, *, #50, .F. ) ;
#261 = SURFACE_STYLE_USAGE ( .BOTH. , #281 ) ;
#262 = PRESENTATION_STYLE_ASSIGNMENT (( #22 ) ) ;
#263 = ORIENTED_EDGE ( 'NONE', *, *, #29, .F. ) ;
#264 = EDGE_CURVE ( 'NONE', #148, #239, #30, .T. ) ;
#265 =( GEOMETRIC_REPRESENTATION_CONTEXT ( 3 ) GLOBAL_UNCERTAINTY_ASSIGNED_CONTEXT ( ( #257 ) ) GLOBAL_UNIT_ASSIGNED_CONTEXT ( ( #33, #65, #98 ) ) REPRESENTATION_CONTEXT ( 'NONE', 'WORKASPACE' ) );
#266 = DIRECTION ( 'NONE',  ( 0.000000000000000000, 0.000000000000000000, -1.000000000000000000 ) ) ;
#267 =( LENGTH_UNIT ( ) NAMED_UNIT ( * ) SI_UNIT ( $, .METRE. ) );
#268 = PRODUCT_DEFINITION_SHAPE ( 'NONE', 'NONE',  #188 ) ;
#269 = DIRECTION ( 'NONE',  ( 0.000000000000000000, 0.000000000000000000, -1.000000000000000000 ) ) ;
#270 = VECTOR ( 'NONE', #205, 39.37007874015748143 ) ;
#271 =( NAMED_UNIT ( * ) PLANE_ANGLE_UNIT ( ) SI_UNIT ( $, .RADIAN. ) );
#272 = DIMENSIONAL_EXPONENTS ( 1.000000000000000000, 0.000000000000000000, 0.000000000000000000, 0.000000000000000000, 0.000000000000000000, 0.000000000000000000, 0.000000000000000000 ) ;
#273 = CARTESIAN_POINT ( 'NONE',  ( 0.000000000000000000, 0.000000000000000000, 0.000000000000000000 ) ) ;
#274 = DIRECTION ( 'NONE',  ( -1.000000000000000000, -4.082155997157843818E-17, 0.000000000000000000 ) ) ;
#275 = AXIS2_PLACEMENT_3D ( 'NONE', #183, #211, #133 ) ;
#276 = CARTESIAN_POINT ( 'NONE',  ( -0.09375000000000009714, 2.500000000000000000, 0.000000000000000000 ) ) ;
#277 = PRESENTATION_LAYER_ASSIGNMENT (  '', '', ( #37 ) ) ;
#278 = ORIENTED_EDGE ( 'NONE', *, *, #5, .T. ) ;
#279 = DIRECTION ( 'NONE',  ( -1.000000000000000000, 0.000000000000000000, 0.000000000000000000 ) ) ;
#280 = VERTEX_POINT ( 'NONE', #298 ) ;
#281 = SURFACE_SIDE_STYLE ('',( #191 ) ) ;
#282 = FACE_OUTER_BOUND ( 'NONE', #71, .T. ) ;
#283 =( CONVERSION_BASED_UNIT ( 'INCH', #221 ) LENGTH_UNIT ( ) NAMED_UNIT ( #286 ) );
#284 = ADVANCED_FACE ( 'NONE', ( #178 ), #52, .T. ) ;
#285 = FILL_AREA_STYLE_COLOUR ( '', #245 ) ;
#286 = DIMENSIONAL_EXPONENTS ( 1.000000000000000000, 0.000000000000000000, 0.000000000000000000, 0.000000000000000000, 0.000000000000000000, 0.000000000000000000, 0.000000000000000000 ) ;
#287 = DIRECTION ( 'NONE',  ( -0.000000000000000000, -1.000000000000000000, -0.000000000000000000 ) ) ;
#288 = AXIS2_PLACEMENT_3D ( 'NONE', #61, #66, #279 ) ;
#289 = PRESENTATION_LAYER_ASSIGNMENT (  '', '', ( #210 ) ) ;
#290 = COLOUR_RGB ( '',1.000000000000000000, 0.000000000000000000, 0.000000000000000000 ) ;
#291 =( NAMED_UNIT ( * ) PLANE_ANGLE_UNIT ( ) SI_UNIT ( $, .RADIAN. ) );
#292 = ORIENTED_EDGE ( 'NONE', *, *, #44, .T. ) ;
#293 = DIRECTION ( 'NONE',  ( -4.082155997157843818E-17, 1.000000000000000000, -0.000000000000000000 ) ) ;
#294 =( NAMED_UNIT ( * ) SI_UNIT ( $, .STERADIAN. ) SOLID_ANGLE_UNIT ( ) );
#295 = SURFACE_STYLE_FILL_AREA ( #143 ) ;
#296 = AXIS2_PLACEMENT_3D ( 'NONE', #115, #305, #90 ) ;
#297 = AXIS2_PLACEMENT_3D ( 'NONE', #273, #146, #184 ) ;
#298 = CARTESIAN_POINT ( 'NONE',  ( 0.09374999999999998612, 1.000000000000000000, 1.148106374200644171E-17 ) ) ;
#299 = SURFACE_SIDE_STYLE ('',( #295 ) ) ;
#300 = CARTESIAN_POINT ( 'NONE',  ( 0.000000000000000000, 1.000000000000000000, 0.000000000000000000 ) ) ;
#301 = ADVANCED_FACE ( 'NONE', ( #149 ), #51, .T. ) ;
#302 = EDGE_LOOP ( 'NONE', ( #292, #15, #87, #39 ) ) ;
#303 = ADVANCED_FACE ( 'NONE', ( #238 ), #35, .F. ) ;
#304 = VERTEX_POINT ( 'NONE', #181 ) ;
#305 = DIRECTION ( 'NONE',  ( -0.000000000000000000, -1.000000000000000000, -0.000000000000000000 ) ) ;
#306 = PLANE ( 'NONE',  #157 ) ;
#307 = PRESENTATION_STYLE_ASSIGNMENT (( #73 ) ) ;
#308 = ADVANCED_FACE ( 'NONE', ( #64 ), #153, .T. ) ;
#309 = FILL_AREA_STYLE_COLOUR ( '', #81 ) ;
ENDSEC;
END-ISO-10303-21;
