ISO-10303-21;
HEADER;
FILE_DESCRIPTION (( 'STEP AP214' ),
    '1' );
FILE_NAME ('81840.STEP',
    '2023-06-23T03:25:31',
    ( '' ),
    ( '' ),
    'SwSTEP 2.0',
    'SolidWorks 2023',
    '' );
FILE_SCHEMA (( 'AUTOMOTIVE_DESIGN' ));
ENDSEC;

DATA;
#1 = ORIENTED_EDGE ( 'NONE', *, *, #148, .T. ) ;
#2 = EDGE_LOOP ( 'NONE', ( #305, #89 ) ) ;
#3 = SHAPE_DEFINITION_REPRESENTATION ( #212, #219 ) ;
#4 = ORIENTED_EDGE ( 'NONE', *, *, #115, .T. ) ;
#5 = PRODUCT_DEFINITION_FORMATION_WITH_SPECIFIED_SOURCE ( 'ANY', '', #43, .NOT_KNOWN. ) ;
#6 =( NAMED_UNIT ( * ) PLANE_ANGLE_UNIT ( ) SI_UNIT ( $, .RADIAN. ) );
#7 = ORIENTED_EDGE ( 'NONE', *, *, #148, .F. ) ;
#8 = SURFACE_STYLE_FILL_AREA ( #296 ) ;
#9 = CARTESIAN_POINT ( 'NONE',  ( 3.061616997868383141E-16, 2.500000000000000000, 0.000000000000000000 ) ) ;
#10 =( CONVERSION_BASED_UNIT ( 'INCH', #57 ) LENGTH_UNIT ( ) NAMED_UNIT ( #254 ) );
#11 =( GEOMETRIC_REPRESENTATION_CONTEXT ( 3 ) GLOBAL_UNCERTAINTY_ASSIGNED_CONTEXT ( ( #74 ) ) GLOBAL_UNIT_ASSIGNED_CONTEXT ( ( #59, #186, #106 ) ) REPRESENTATION_CONTEXT ( 'NONE', 'WORKASPACE' ) );
#12 =( LENGTH_UNIT ( ) NAMED_UNIT ( * ) SI_UNIT ( $, .METRE. ) );
#13 = EDGE_LOOP ( 'NONE', ( #261, #113 ) ) ;
#14 = CIRCLE ( 'NONE', #208, 0.06249999999999970857 ) ;
#15 = FILL_AREA_STYLE ('',( #161 ) ) ;
#16 = CARTESIAN_POINT ( 'NONE',  ( -0.06249999999999955591, 2.500000000000000000, 0.000000000000000000 ) ) ;
#17 = VERTEX_POINT ( 'NONE', #175 ) ;
#18 = CIRCLE ( 'NONE', #203, 0.06250000000000001388 ) ;
#19 = COLOUR_RGB ( '',1.000000000000000000, 0.000000000000000000, 0.000000000000000000 ) ;
#20 = UNCERTAINTY_MEASURE_WITH_UNIT (LENGTH_MEASURE( 1.000000000000000082E-05 ), #10, 'distance_accuracy_value', 'NONE');
#21 = DIRECTION ( 'NONE',  ( -1.000000000000000000, 1.530808498934191571E-16, 0.000000000000000000 ) ) ;
#22 = FACE_OUTER_BOUND ( 'NONE', #265, .T. ) ;
#23 =( LENGTH_UNIT ( ) NAMED_UNIT ( * ) SI_UNIT ( $, .METRE. ) );
#24 = CIRCLE ( 'NONE', #196, 0.06250000000000001388 ) ;
#25 = DIRECTION ( 'NONE',  ( -1.530808498934191571E-16, -1.000000000000000000, 0.000000000000000000 ) ) ;
#26 = DIRECTION ( 'NONE',  ( -0.000000000000000000, -1.000000000000000000, -0.000000000000000000 ) ) ;
#27 = CARTESIAN_POINT ( 'NONE',  ( 0.06250000000000001388, 2.500000000000000000, 0.000000000000000000 ) ) ;
#28 = LINE ( 'NONE', #16, #61 ) ;
#29 = EDGE_CURVE ( 'NONE', #214, #157, #239, .T. ) ;
#30 = DIRECTION ( 'NONE',  ( -0.000000000000000000, -1.000000000000000000, -0.000000000000000000 ) ) ;
#31 = SURFACE_STYLE_USAGE ( .BOTH. , #111 ) ;
#32 = ADVANCED_FACE ( 'NONE', ( #117 ), #164, .T. ) ;
#33 = PRESENTATION_LAYER_ASSIGNMENT (  '', '', ( #110 ) ) ;
#34 = SURFACE_STYLE_FILL_AREA ( #137 ) ;
#35 = VERTEX_POINT ( 'NONE', #182 ) ;
#36 = SURFACE_SIDE_STYLE ('',( #282 ) ) ;
#37 = FILL_AREA_STYLE ('',( #84 ) ) ;
#38 = APPLICATION_PROTOCOL_DEFINITION ( 'draft international standard', 'automotive_design', 1998, #118 ) ;
#39 = EDGE_CURVE ( 'NONE', #35, #120, #66, .T. ) ;
#40 = PRESENTATION_LAYER_ASSIGNMENT (  '', '', ( #72 ) ) ;
#41 = MECHANICAL_DESIGN_GEOMETRIC_PRESENTATION_REPRESENTATION (  '', ( #110 ), #299 ) ;
#42 = EDGE_LOOP ( 'NONE', ( #281, #163 ) ) ;
#43 = PRODUCT ( '81840', '81840', '', ( #100 ) ) ;
#44 = PRESENTATION_STYLE_ASSIGNMENT (( #70 ) ) ;
#45 = VECTOR ( 'NONE', #228, 39.37007874015748143 ) ;
#46 =( GEOMETRIC_REPRESENTATION_CONTEXT ( 3 ) GLOBAL_UNCERTAINTY_ASSIGNED_CONTEXT ( ( #99 ) ) GLOBAL_UNIT_ASSIGNED_CONTEXT ( ( #288, #201, #50 ) ) REPRESENTATION_CONTEXT ( 'NONE', 'WORKASPACE' ) );
#47 = CARTESIAN_POINT ( 'NONE',  ( 0.000000000000000000, 0.000000000000000000, -0.06250000000000001388 ) ) ;
#48 = AXIS2_PLACEMENT_3D ( 'NONE', #220, #149, #21 ) ;
#49 = STYLED_ITEM ( 'NONE', ( #273 ), #309 ) ;
#50 =( NAMED_UNIT ( * ) SI_UNIT ( $, .STERADIAN. ) SOLID_ANGLE_UNIT ( ) );
#51 = EDGE_CURVE ( 'NONE', #157, #192, #18, .T. ) ;
#52 = DIRECTION ( 'NONE',  ( 0.000000000000000000, 0.000000000000000000, -1.000000000000000000 ) ) ;
#53 = CARTESIAN_POINT ( 'NONE',  ( 0.000000000000000000, 0.5000000000000001110, 0.000000000000000000 ) ) ;
#54 =( NAMED_UNIT ( * ) PLANE_ANGLE_UNIT ( ) SI_UNIT ( $, .RADIAN. ) );
#55 = DIRECTION ( 'NONE',  ( -1.000000000000000000, 0.000000000000000000, 0.000000000000000000 ) ) ;
#56 = PRESENTATION_LAYER_ASSIGNMENT (  '', '', ( #49 ) ) ;
#57 = LENGTH_MEASURE_WITH_UNIT ( LENGTH_MEASURE( 0.02539999999999999897 ), #176 );
#58 = DIMENSIONAL_EXPONENTS ( 1.000000000000000000, 0.000000000000000000, 0.000000000000000000, 0.000000000000000000, 0.000000000000000000, 0.000000000000000000, 0.000000000000000000 ) ;
#59 =( CONVERSION_BASED_UNIT ( 'INCH', #211 ) LENGTH_UNIT ( ) NAMED_UNIT ( #277 ) );
#60 = ORIENTED_EDGE ( 'NONE', *, *, #29, .T. ) ;
#61 = VECTOR ( 'NONE', #215, 39.37007874015748143 ) ;
#62 = ORIENTED_EDGE ( 'NONE', *, *, #39, .T. ) ;
#63 = DIRECTION ( 'NONE',  ( 0.000000000000000000, 0.000000000000000000, -1.000000000000000000 ) ) ;
#64 = EDGE_CURVE ( 'NONE', #120, #90, #127, .T. ) ;
#65 = EDGE_LOOP ( 'NONE', ( #266, #7 ) ) ;
#66 = LINE ( 'NONE', #242, #109 ) ;
#67 = SURFACE_SIDE_STYLE ('',( #213 ) ) ;
#68 = CLOSED_SHELL ( 'NONE', ( #174, #309, #272, #126 ) ) ;
#69 = MECHANICAL_DESIGN_GEOMETRIC_PRESENTATION_REPRESENTATION (  '', ( #94 ), #46 ) ;
#70 = SURFACE_STYLE_USAGE ( .BOTH. , #67 ) ;
#71 = DIRECTION ( 'NONE',  ( 1.530808498934191571E-16, 1.000000000000000000, -0.000000000000000000 ) ) ;
#72 = STYLED_ITEM ( 'NONE', ( #195 ), #126 ) ;
#73 = AXIS2_PLACEMENT_3D ( 'NONE', #224, #30, #222 ) ;
#74 = UNCERTAINTY_MEASURE_WITH_UNIT (LENGTH_MEASURE( 1.000000000000000082E-05 ), #59, 'distance_accuracy_value', 'NONE');
#75 = DIRECTION ( 'NONE',  ( 0.000000000000000000, 0.000000000000000000, -1.000000000000000000 ) ) ;
#76 = DIMENSIONAL_EXPONENTS ( 1.000000000000000000, 0.000000000000000000, 0.000000000000000000, 0.000000000000000000, 0.000000000000000000, 0.000000000000000000, 0.000000000000000000 ) ;
#77 =( CONVERSION_BASED_UNIT ( 'INCH', #202 ) LENGTH_UNIT ( ) NAMED_UNIT ( #250 ) );
#78 = COLOUR_RGB ( '',1.000000000000000000, 0.000000000000000000, 0.000000000000000000 ) ;
#79 = DIRECTION ( 'NONE',  ( 1.000000000000000000, -1.530808498934191571E-16, 0.000000000000000000 ) ) ;
#80 = CARTESIAN_POINT ( 'NONE',  ( -0.06249999999999940326, 2.500000000000000000, 0.000000000000000000 ) ) ;
#81 = DIRECTION ( 'NONE',  ( -0.000000000000000000, -1.000000000000000000, -0.000000000000000000 ) ) ;
#82 = DIRECTION ( 'NONE',  ( 1.530808498934191571E-16, 1.000000000000000000, -0.000000000000000000 ) ) ;
#83 = MECHANICAL_DESIGN_GEOMETRIC_PRESENTATION_REPRESENTATION (  '', ( #72 ), #193 ) ;
#84 = FILL_AREA_STYLE_COLOUR ( '', #78 ) ;
#85 = ORIENTED_EDGE ( 'NONE', *, *, #115, .F. ) ;
#86 = CARTESIAN_POINT ( 'NONE',  ( 7.654042494670959086E-18, 0.000000000000000000, 0.06250000000000001388 ) ) ;
#87 = DIRECTION ( 'NONE',  ( -1.000000000000000000, 0.000000000000000000, 0.000000000000000000 ) ) ;
#88 = PRESENTATION_LAYER_ASSIGNMENT (  '', '', ( #223 ) ) ;
#89 = ORIENTED_EDGE ( 'NONE', *, *, #291, .F. ) ;
#90 = VERTEX_POINT ( 'NONE', #80 ) ;
#91 = EDGE_CURVE ( 'NONE', #17, #90, #28, .T. ) ;
#92 =( LENGTH_UNIT ( ) NAMED_UNIT ( * ) SI_UNIT ( $, .METRE. ) );
#93 = AXIS2_PLACEMENT_3D ( 'NONE', #248, #169, #55 ) ;
#94 = STYLED_ITEM ( 'NONE', ( #44 ), #300 ) ;
#95 = DIRECTION ( 'NONE',  ( 0.000000000000000000, 1.000000000000000000, 0.000000000000000000 ) ) ;
#96 = DIRECTION ( 'NONE',  ( -1.000000000000000000, 0.000000000000000000, 0.000000000000000000 ) ) ;
#97 = DIRECTION ( 'NONE',  ( -0.000000000000000000, -1.000000000000000000, -0.000000000000000000 ) ) ;
#98 = SURFACE_SIDE_STYLE ('',( #8 ) ) ;
#99 = UNCERTAINTY_MEASURE_WITH_UNIT (LENGTH_MEASURE( 1.000000000000000082E-05 ), #288, 'distance_accuracy_value', 'NONE');
#100 = PRODUCT_CONTEXT ( 'NONE', #118, 'mechanical' ) ;
#101 = EDGE_CURVE ( 'NONE', #192, #157, #183, .T. ) ;
#102 = CYLINDRICAL_SURFACE ( 'NONE', #73, 0.06250000000000001388 ) ;
#103 = LINE ( 'NONE', #47, #104 ) ;
#104 = VECTOR ( 'NONE', #26, 39.37007874015748143 ) ;
#105 = EDGE_LOOP ( 'NONE', ( #159, #1, #116, #144 ) ) ;
#106 =( NAMED_UNIT ( * ) SI_UNIT ( $, .STERADIAN. ) SOLID_ANGLE_UNIT ( ) );
#107 = LENGTH_MEASURE_WITH_UNIT ( LENGTH_MEASURE( 0.02539999999999999897 ), #158 );
#108 = SURFACE_STYLE_USAGE ( .BOTH. , #160 ) ;
#109 = VECTOR ( 'NONE', #216, 39.37007874015748143 ) ;
#110 = STYLED_ITEM ( 'NONE', ( #133 ), #272 ) ;
#111 = SURFACE_SIDE_STYLE ('',( #34 ) ) ;
#112 = SURFACE_SIDE_STYLE ('',( #207 ) ) ;
#113 = ORIENTED_EDGE ( 'NONE', *, *, #64, .T. ) ;
#114 = CARTESIAN_POINT ( 'NONE',  ( 0.000000000000000000, 0.000000000000000000, -0.06250000000000001388 ) ) ;
#115 = EDGE_CURVE ( 'NONE', #170, #192, #103, .T. ) ;
#116 = ORIENTED_EDGE ( 'NONE', *, *, #91, .T. ) ;
#117 = FACE_OUTER_BOUND ( 'NONE', #105, .T. ) ;
#118 = APPLICATION_CONTEXT ( 'automotive_design' ) ;
#119 = AXIS2_PLACEMENT_3D ( 'NONE', #267, #262, #63 ) ;
#120 = VERTEX_POINT ( 'NONE', #155 ) ;
#121 = SURFACE_STYLE_USAGE ( .BOTH. , #98 ) ;
#122 = ORIENTED_EDGE ( 'NONE', *, *, #29, .F. ) ;
#123 = DIRECTION ( 'NONE',  ( -1.000000000000000000, 0.000000000000000000, 0.000000000000000000 ) ) ;
#124 = CARTESIAN_POINT ( 'NONE',  ( 0.000000000000000000, 0.5000000000000001110, 0.000000000000000000 ) ) ;
#125 = PRODUCT_DEFINITION_CONTEXT ( 'detailed design', #276, 'design' ) ;
#126 = ADVANCED_FACE ( 'NONE', ( #200 ), #140, .T. ) ;
#127 = CIRCLE ( 'NONE', #93, 0.06249999999999970857 ) ;
#128 = UNCERTAINTY_MEASURE_WITH_UNIT (LENGTH_MEASURE( 1.000000000000000082E-05 ), #227, 'distance_accuracy_value', 'NONE');
#129 = DIRECTION ( 'NONE',  ( -1.000000000000000000, 0.000000000000000000, 0.000000000000000000 ) ) ;
#130 = COLOUR_RGB ( '',1.000000000000000000, 0.000000000000000000, 0.000000000000000000 ) ;
#131 = CARTESIAN_POINT ( 'NONE',  ( 7.654042494670959086E-18, 0.5000000000000001110, 0.06250000000000001388 ) ) ;
#132 =( NAMED_UNIT ( * ) SI_UNIT ( $, .STERADIAN. ) SOLID_ANGLE_UNIT ( ) );
#133 = PRESENTATION_STYLE_ASSIGNMENT (( #260 ) ) ;
#134 = FILL_AREA_STYLE ('',( #255 ) ) ;
#135 = DIMENSIONAL_EXPONENTS ( 1.000000000000000000, 0.000000000000000000, 0.000000000000000000, 0.000000000000000000, 0.000000000000000000, 0.000000000000000000, 0.000000000000000000 ) ;
#136 = CLOSED_SHELL ( 'NONE', ( #217, #156, #32, #209 ) ) ;
#137 = FILL_AREA_STYLE ('',( #259 ) ) ;
#138 =( NAMED_UNIT ( * ) SI_UNIT ( $, .STERADIAN. ) SOLID_ANGLE_UNIT ( ) );
#139 = SURFACE_STYLE_USAGE ( .BOTH. , #36 ) ;
#140 = PLANE ( 'NONE',  #119 ) ;
#141 =( NAMED_UNIT ( * ) PLANE_ANGLE_UNIT ( ) SI_UNIT ( $, .RADIAN. ) );
#142 = AXIS2_PLACEMENT_3D ( 'NONE', #9, #185, #87 ) ;
#143 = AXIS2_PLACEMENT_3D ( 'NONE', #298, #81, #75 ) ;
#144 = ORIENTED_EDGE ( 'NONE', *, *, #64, .F. ) ;
#145 = FACE_OUTER_BOUND ( 'NONE', #13, .T. ) ;
#146 = AXIS2_PLACEMENT_3D ( 'NONE', #234, #71, #123 ) ;
#147 = AXIS2_PLACEMENT_3D ( 'NONE', #27, #25, #79 ) ;
#148 = EDGE_CURVE ( 'NONE', #35, #17, #285, .T. ) ;
#149 = DIRECTION ( 'NONE',  ( 1.530808498934191571E-16, 1.000000000000000000, -0.000000000000000000 ) ) ;
#150 = LENGTH_MEASURE_WITH_UNIT ( LENGTH_MEASURE( 0.02539999999999999897 ), #92 );
#151 = DIRECTION ( 'NONE',  ( 0.000000000000000000, 0.000000000000000000, -1.000000000000000000 ) ) ;
#152 = UNCERTAINTY_MEASURE_WITH_UNIT (LENGTH_MEASURE( 1.000000000000000082E-05 ), #77, 'distance_accuracy_value', 'NONE');
#153 = EDGE_CURVE ( 'NONE', #90, #120, #14, .T. ) ;
#154 = COLOUR_RGB ( '',0.7921568627450980005, 0.8196078431372548767, 0.9333333333333333481 ) ;
#155 = CARTESIAN_POINT ( 'NONE',  ( 0.06250000000000002776, 2.500000000000000000, 7.654042494670951382E-18 ) ) ;
#156 = ADVANCED_FACE ( 'NONE', ( #237 ), #283, .F. ) ;
#157 = VERTEX_POINT ( 'NONE', #86 ) ;
#158 =( LENGTH_UNIT ( ) NAMED_UNIT ( * ) SI_UNIT ( $, .METRE. ) );
#159 = ORIENTED_EDGE ( 'NONE', *, *, #39, .F. ) ;
#160 = SURFACE_SIDE_STYLE ('',( #229 ) ) ;
#161 = FILL_AREA_STYLE_COLOUR ( '', #231 ) ;
#162 = FILL_AREA_STYLE ('',( #278 ) ) ;
#163 = ORIENTED_EDGE ( 'NONE', *, *, #51, .T. ) ;
#164 = CYLINDRICAL_SURFACE ( 'NONE', #142, 0.06249999999999986122 ) ;
#165 = CYLINDRICAL_SURFACE ( 'NONE', #249, 0.06250000000000001388 ) ;
#166 = FACE_OUTER_BOUND ( 'NONE', #2, .T. ) ;
#167 = ORIENTED_EDGE ( 'NONE', *, *, #297, .T. ) ;
#168 =( LENGTH_UNIT ( ) NAMED_UNIT ( * ) SI_UNIT ( $, .METRE. ) );
#169 = DIRECTION ( 'NONE',  ( 1.530808498934191571E-16, 1.000000000000000000, -0.000000000000000000 ) ) ;
#170 = VERTEX_POINT ( 'NONE', #187 ) ;
#171 = DIRECTION ( 'NONE',  ( 1.000000000000000000, 0.000000000000000000, 0.000000000000000000 ) ) ;
#172 = COLOUR_RGB ( '',1.000000000000000000, 0.000000000000000000, 0.000000000000000000 ) ;
#173 = AXIS2_PLACEMENT_3D ( 'NONE', #205, #181, #241 ) ;
#174 = ADVANCED_FACE ( 'NONE', ( #284 ), #102, .T. ) ;
#175 = CARTESIAN_POINT ( 'NONE',  ( -0.06250000000000001388, 0.5000000000000001110, 0.000000000000000000 ) ) ;
#176 =( LENGTH_UNIT ( ) NAMED_UNIT ( * ) SI_UNIT ( $, .METRE. ) );
#177 = STYLED_ITEM ( 'NONE', ( #235 ), #304 ) ;
#178 = APPLICATION_PROTOCOL_DEFINITION ( 'draft international standard', 'automotive_design', 1998, #276 ) ;
#179 = EDGE_CURVE ( 'NONE', #170, #214, #238, .T. ) ;
#180 = PLANE ( 'NONE',  #147 ) ;
#181 = DIRECTION ( 'NONE',  ( -0.000000000000000000, -1.000000000000000000, -0.000000000000000000 ) ) ;
#182 = CARTESIAN_POINT ( 'NONE',  ( 0.06250000000000002776, 0.5000000000000001110, 7.654042494670951382E-18 ) ) ;
#183 = CIRCLE ( 'NONE', #287, 0.06250000000000001388 ) ;
#184 = AXIS2_PLACEMENT_3D ( 'NONE', #199, #268, #129 ) ;
#185 = DIRECTION ( 'NONE',  ( 1.530808498934191571E-16, 1.000000000000000000, -0.000000000000000000 ) ) ;
#186 =( NAMED_UNIT ( * ) PLANE_ANGLE_UNIT ( ) SI_UNIT ( $, .RADIAN. ) );
#187 = CARTESIAN_POINT ( 'NONE',  ( 0.000000000000000000, 0.5000000000000001110, -0.06250000000000001388 ) ) ;
#188 = ORIENTED_EDGE ( 'NONE', *, *, #101, .F. ) ;
#189 = AXIS2_PLACEMENT_3D ( 'NONE', #256, #230, #171 ) ;
#190 = ORIENTED_EDGE ( 'NONE', *, *, #153, .F. ) ;
#191 = ORIENTED_EDGE ( 'NONE', *, *, #291, .T. ) ;
#192 = VERTEX_POINT ( 'NONE', #114 ) ;
#193 =( GEOMETRIC_REPRESENTATION_CONTEXT ( 3 ) GLOBAL_UNCERTAINTY_ASSIGNED_CONTEXT ( ( #271 ) ) GLOBAL_UNIT_ASSIGNED_CONTEXT ( ( #197, #247, #286 ) ) REPRESENTATION_CONTEXT ( 'NONE', 'WORKASPACE' ) );
#194 = PRESENTATION_LAYER_ASSIGNMENT (  '', '', ( #94 ) ) ;
#195 = PRESENTATION_STYLE_ASSIGNMENT (( #121 ) ) ;
#196 = AXIS2_PLACEMENT_3D ( 'NONE', #53, #82, #280 ) ;
#197 =( CONVERSION_BASED_UNIT ( 'INCH', #150 ) LENGTH_UNIT ( ) NAMED_UNIT ( #76 ) );
#198 = UNCERTAINTY_MEASURE_WITH_UNIT (LENGTH_MEASURE( 1.000000000000000082E-05 ), #257, 'distance_accuracy_value', 'NONE');
#199 = CARTESIAN_POINT ( 'NONE',  ( 3.061616997868383141E-16, 2.500000000000000000, 0.000000000000000000 ) ) ;
#200 = FACE_OUTER_BOUND ( 'NONE', #42, .T. ) ;
#201 =( NAMED_UNIT ( * ) PLANE_ANGLE_UNIT ( ) SI_UNIT ( $, .RADIAN. ) );
#202 = LENGTH_MEASURE_WITH_UNIT ( LENGTH_MEASURE( 0.02539999999999999897 ), #23 );
#203 = AXIS2_PLACEMENT_3D ( 'NONE', #264, #274, #151 ) ;
#204 =( GEOMETRIC_REPRESENTATION_CONTEXT ( 3 ) GLOBAL_UNCERTAINTY_ASSIGNED_CONTEXT ( ( #152 ) ) GLOBAL_UNIT_ASSIGNED_CONTEXT ( ( #77, #141, #306 ) ) REPRESENTATION_CONTEXT ( 'NONE', 'WORKASPACE' ) );
#205 = CARTESIAN_POINT ( 'NONE',  ( 0.000000000000000000, 0.5000000000000001110, 0.000000000000000000 ) ) ;
#206 = DIRECTION ( 'NONE',  ( -0.000000000000000000, -1.000000000000000000, -0.000000000000000000 ) ) ;
#207 = SURFACE_STYLE_FILL_AREA ( #37 ) ;
#208 = AXIS2_PLACEMENT_3D ( 'NONE', #246, #245, #96 ) ;
#209 = ADVANCED_FACE ( 'NONE', ( #145 ), #180, .F. ) ;
#210 = MECHANICAL_DESIGN_GEOMETRIC_PRESENTATION_REPRESENTATION (  '', ( #177 ), #11 ) ;
#211 = LENGTH_MEASURE_WITH_UNIT ( LENGTH_MEASURE( 0.02539999999999999897 ), #168 );
#212 = PRODUCT_DEFINITION_SHAPE ( 'NONE', 'NONE',  #233 ) ;
#213 = SURFACE_STYLE_FILL_AREA ( #15 ) ;
#214 = VERTEX_POINT ( 'NONE', #131 ) ;
#215 = DIRECTION ( 'NONE',  ( 1.530808498934191571E-16, 1.000000000000000000, -0.000000000000000000 ) ) ;
#216 = DIRECTION ( 'NONE',  ( 1.530808498934191571E-16, 1.000000000000000000, -0.000000000000000000 ) ) ;
#217 = ADVANCED_FACE ( 'NONE', ( #22 ), #292, .T. ) ;
#218 = PRESENTATION_LAYER_ASSIGNMENT (  '', '', ( #177 ) ) ;
#219 = ADVANCED_BREP_SHAPE_REPRESENTATION ( '81840', ( #300, #304, #189 ), #253 ) ;
#220 = CARTESIAN_POINT ( 'NONE',  ( 7.323045813778604594E-34, 0.5000000000000001110, 0.000000000000000000 ) ) ;
#221 = FACE_OUTER_BOUND ( 'NONE', #236, .T. ) ;
#222 = DIRECTION ( 'NONE',  ( 0.000000000000000000, 0.000000000000000000, -1.000000000000000000 ) ) ;
#223 = STYLED_ITEM ( 'NONE', ( #226 ), #174 ) ;
#224 = CARTESIAN_POINT ( 'NONE',  ( 0.000000000000000000, 0.000000000000000000, 0.000000000000000000 ) ) ;
#225 = FILL_AREA_STYLE_COLOUR ( '', #172 ) ;
#226 = PRESENTATION_STYLE_ASSIGNMENT (( #31 ) ) ;
#227 =( CONVERSION_BASED_UNIT ( 'INCH', #232 ) LENGTH_UNIT ( ) NAMED_UNIT ( #279 ) );
#228 = DIRECTION ( 'NONE',  ( -0.000000000000000000, -1.000000000000000000, -0.000000000000000000 ) ) ;
#229 = SURFACE_STYLE_FILL_AREA ( #134 ) ;
#230 = DIRECTION ( 'NONE',  ( 0.000000000000000000, 0.000000000000000000, 1.000000000000000000 ) ) ;
#231 = COLOUR_RGB ( '',0.7921568627450980005, 0.8196078431372548767, 0.9333333333333333481 ) ;
#232 = LENGTH_MEASURE_WITH_UNIT ( LENGTH_MEASURE( 0.02539999999999999897 ), #290 );
#233 = PRODUCT_DEFINITION ( 'UNKNOWN', '', #5, #125 ) ;
#234 = CARTESIAN_POINT ( 'NONE',  ( 0.000000000000000000, 0.5000000000000001110, 0.000000000000000000 ) ) ;
#235 = PRESENTATION_STYLE_ASSIGNMENT (( #139 ) ) ;
#236 = EDGE_LOOP ( 'NONE', ( #122, #191, #4, #302 ) ) ;
#237 = FACE_OUTER_BOUND ( 'NONE', #65, .T. ) ;
#238 = CIRCLE ( 'NONE', #173, 0.06250000000000001388 ) ;
#239 = LINE ( 'NONE', #244, #45 ) ;
#240 = ORIENTED_EDGE ( 'NONE', *, *, #91, .F. ) ;
#241 = DIRECTION ( 'NONE',  ( 0.000000000000000000, 0.000000000000000000, -1.000000000000000000 ) ) ;
#242 = CARTESIAN_POINT ( 'NONE',  ( 0.06250000000000016653, 2.500000000000000000, 7.654042494670940597E-18 ) ) ;
#243 = AXIS2_PLACEMENT_3D ( 'NONE', #124, #95, #270 ) ;
#244 = CARTESIAN_POINT ( 'NONE',  ( 7.654042494670959086E-18, 0.000000000000000000, 0.06250000000000001388 ) ) ;
#245 = DIRECTION ( 'NONE',  ( 1.530808498934191571E-16, 1.000000000000000000, -0.000000000000000000 ) ) ;
#246 = CARTESIAN_POINT ( 'NONE',  ( 3.061616997868383141E-16, 2.500000000000000000, 0.000000000000000000 ) ) ;
#247 =( NAMED_UNIT ( * ) PLANE_ANGLE_UNIT ( ) SI_UNIT ( $, .RADIAN. ) );
#248 = CARTESIAN_POINT ( 'NONE',  ( 3.061616997868383141E-16, 2.500000000000000000, 0.000000000000000000 ) ) ;
#249 = AXIS2_PLACEMENT_3D ( 'NONE', #252, #206, #52 ) ;
#250 = DIMENSIONAL_EXPONENTS ( 1.000000000000000000, 0.000000000000000000, 0.000000000000000000, 0.000000000000000000, 0.000000000000000000, 0.000000000000000000, 0.000000000000000000 ) ;
#251 = MECHANICAL_DESIGN_GEOMETRIC_PRESENTATION_REPRESENTATION (  '', ( #223 ), #307 ) ;
#252 = CARTESIAN_POINT ( 'NONE',  ( 0.000000000000000000, 0.000000000000000000, 0.000000000000000000 ) ) ;
#253 =( GEOMETRIC_REPRESENTATION_CONTEXT ( 3 ) GLOBAL_UNCERTAINTY_ASSIGNED_CONTEXT ( ( #128 ) ) GLOBAL_UNIT_ASSIGNED_CONTEXT ( ( #227, #263, #138 ) ) REPRESENTATION_CONTEXT ( 'NONE', 'WORKASPACE' ) );
#254 = DIMENSIONAL_EXPONENTS ( 1.000000000000000000, 0.000000000000000000, 0.000000000000000000, 0.000000000000000000, 0.000000000000000000, 0.000000000000000000, 0.000000000000000000 ) ;
#255 = FILL_AREA_STYLE_COLOUR ( '', #19 ) ;
#256 = CARTESIAN_POINT ( 'NONE',  ( 0.000000000000000000, 0.000000000000000000, 0.000000000000000000 ) ) ;
#257 =( CONVERSION_BASED_UNIT ( 'INCH', #107 ) LENGTH_UNIT ( ) NAMED_UNIT ( #135 ) );
#258 =( NAMED_UNIT ( * ) SI_UNIT ( $, .STERADIAN. ) SOLID_ANGLE_UNIT ( ) );
#259 = FILL_AREA_STYLE_COLOUR ( '', #130 ) ;
#260 = SURFACE_STYLE_USAGE ( .BOTH. , #112 ) ;
#261 = ORIENTED_EDGE ( 'NONE', *, *, #153, .T. ) ;
#262 = DIRECTION ( 'NONE',  ( 0.000000000000000000, -1.000000000000000000, -0.000000000000000000 ) ) ;
#263 =( NAMED_UNIT ( * ) PLANE_ANGLE_UNIT ( ) SI_UNIT ( $, .RADIAN. ) );
#264 = CARTESIAN_POINT ( 'NONE',  ( 0.000000000000000000, 0.000000000000000000, 0.000000000000000000 ) ) ;
#265 = EDGE_LOOP ( 'NONE', ( #167, #62, #190, #240 ) ) ;
#266 = ORIENTED_EDGE ( 'NONE', *, *, #297, .F. ) ;
#267 = CARTESIAN_POINT ( 'NONE',  ( 0.000000000000000000, 0.000000000000000000, 0.000000000000000000 ) ) ;
#268 = DIRECTION ( 'NONE',  ( 1.530808498934191571E-16, 1.000000000000000000, -0.000000000000000000 ) ) ;
#269 = PLANE ( 'NONE',  #243 ) ;
#270 = DIRECTION ( 'NONE',  ( 0.000000000000000000, -0.000000000000000000, 1.000000000000000000 ) ) ;
#271 = UNCERTAINTY_MEASURE_WITH_UNIT (LENGTH_MEASURE( 1.000000000000000082E-05 ), #197, 'distance_accuracy_value', 'NONE');
#272 = ADVANCED_FACE ( 'NONE', ( #221 ), #165, .T. ) ;
#273 = PRESENTATION_STYLE_ASSIGNMENT (( #108 ) ) ;
#274 = DIRECTION ( 'NONE',  ( -0.000000000000000000, -1.000000000000000000, -0.000000000000000000 ) ) ;
#275 = MECHANICAL_DESIGN_GEOMETRIC_PRESENTATION_REPRESENTATION (  '', ( #49 ), #204 ) ;
#276 = APPLICATION_CONTEXT ( 'automotive_design' ) ;
#277 = DIMENSIONAL_EXPONENTS ( 1.000000000000000000, 0.000000000000000000, 0.000000000000000000, 0.000000000000000000, 0.000000000000000000, 0.000000000000000000, 0.000000000000000000 ) ;
#278 = FILL_AREA_STYLE_COLOUR ( '', #154 ) ;
#279 = DIMENSIONAL_EXPONENTS ( 1.000000000000000000, 0.000000000000000000, 0.000000000000000000, 0.000000000000000000, 0.000000000000000000, 0.000000000000000000, 0.000000000000000000 ) ;
#280 = DIRECTION ( 'NONE',  ( -1.000000000000000000, 0.000000000000000000, 0.000000000000000000 ) ) ;
#281 = ORIENTED_EDGE ( 'NONE', *, *, #101, .T. ) ;
#282 = SURFACE_STYLE_FILL_AREA ( #162 ) ;
#283 = PLANE ( 'NONE',  #48 ) ;
#284 = FACE_OUTER_BOUND ( 'NONE', #295, .T. ) ;
#285 = CIRCLE ( 'NONE', #146, 0.06250000000000001388 ) ;
#286 =( NAMED_UNIT ( * ) SI_UNIT ( $, .STERADIAN. ) SOLID_ANGLE_UNIT ( ) );
#287 = AXIS2_PLACEMENT_3D ( 'NONE', #303, #97, #301 ) ;
#288 =( CONVERSION_BASED_UNIT ( 'INCH', #289 ) LENGTH_UNIT ( ) NAMED_UNIT ( #58 ) );
#289 = LENGTH_MEASURE_WITH_UNIT ( LENGTH_MEASURE( 0.02539999999999999897 ), #12 );
#290 =( LENGTH_UNIT ( ) NAMED_UNIT ( * ) SI_UNIT ( $, .METRE. ) );
#291 = EDGE_CURVE ( 'NONE', #214, #170, #294, .T. ) ;
#292 = CYLINDRICAL_SURFACE ( 'NONE', #184, 0.06249999999999986122 ) ;
#293 = PRODUCT_RELATED_PRODUCT_CATEGORY ( 'part', '', ( #43 ) ) ;
#294 = CIRCLE ( 'NONE', #143, 0.06250000000000001388 ) ;
#295 = EDGE_LOOP ( 'NONE', ( #308, #60, #188, #85 ) ) ;
#296 = FILL_AREA_STYLE ('',( #225 ) ) ;
#297 = EDGE_CURVE ( 'NONE', #17, #35, #24, .T. ) ;
#298 = CARTESIAN_POINT ( 'NONE',  ( 0.000000000000000000, 0.5000000000000001110, 0.000000000000000000 ) ) ;
#299 =( GEOMETRIC_REPRESENTATION_CONTEXT ( 3 ) GLOBAL_UNCERTAINTY_ASSIGNED_CONTEXT ( ( #198 ) ) GLOBAL_UNIT_ASSIGNED_CONTEXT ( ( #257, #6, #258 ) ) REPRESENTATION_CONTEXT ( 'NONE', 'WORKASPACE' ) );
#300 = MANIFOLD_SOLID_BREP ( 'Revolve - Cutting Edge', #68 ) ;
#301 = DIRECTION ( 'NONE',  ( 0.000000000000000000, 0.000000000000000000, -1.000000000000000000 ) ) ;
#302 = ORIENTED_EDGE ( 'NONE', *, *, #51, .F. ) ;
#303 = CARTESIAN_POINT ( 'NONE',  ( 0.000000000000000000, 0.000000000000000000, 0.000000000000000000 ) ) ;
#304 = MANIFOLD_SOLID_BREP ( 'Revolve - Tool Body (Straight Shanked)', #136 ) ;
#305 = ORIENTED_EDGE ( 'NONE', *, *, #179, .F. ) ;
#306 =( NAMED_UNIT ( * ) SI_UNIT ( $, .STERADIAN. ) SOLID_ANGLE_UNIT ( ) );
#307 =( GEOMETRIC_REPRESENTATION_CONTEXT ( 3 ) GLOBAL_UNCERTAINTY_ASSIGNED_CONTEXT ( ( #20 ) ) GLOBAL_UNIT_ASSIGNED_CONTEXT ( ( #10, #54, #132 ) ) REPRESENTATION_CONTEXT ( 'NONE', 'WORKASPACE' ) );
#308 = ORIENTED_EDGE ( 'NONE', *, *, #179, .T. ) ;
#309 = ADVANCED_FACE ( 'NONE', ( #166 ), #269, .T. ) ;
ENDSEC;
END-ISO-10303-21;
