ISO-10303-21;
HEADER;
FILE_DESCRIPTION (( 'STEP AP214' ),
    '1' );
FILE_NAME ('83196.STEP',
    '2023-06-23T08:20:52',
    ( '' ),
    ( '' ),
    'SwSTEP 2.0',
    'SolidWorks 2023',
    '' );
FILE_SCHEMA (( 'AUTOMOTIVE_DESIGN' ));
ENDSEC;

DATA;
#1 =( CONVERSION_BASED_UNIT ( 'INCH', #186 ) LENGTH_UNIT ( ) NAMED_UNIT ( #81 ) );
#2 =( CONVERSION_BASED_UNIT ( 'INCH', #7 ) LENGTH_UNIT ( ) NAMED_UNIT ( #153 ) );
#3 = VERTEX_POINT ( 'NONE', #247 ) ;
#4 = ORIENTED_EDGE ( 'NONE', *, *, #286, .F. ) ;
#5 = PRODUCT_RELATED_PRODUCT_CATEGORY ( 'part', '', ( #198 ) ) ;
#6 = ORIENTED_EDGE ( 'NONE', *, *, #295, .F. ) ;
#7 = LENGTH_MEASURE_WITH_UNIT ( LENGTH_MEASURE( 0.02539999999999999897 ), #65 );
#8 = ORIENTED_EDGE ( 'NONE', *, *, #302, .F. ) ;
#9 = SURFACE_STYLE_FILL_AREA ( #251 ) ;
#10 = MECHANICAL_DESIGN_GEOMETRIC_PRESENTATION_REPRESENTATION (  '', ( #274 ), #87 ) ;
#11 = CYLINDRICAL_SURFACE ( 'NONE', #26, 0.1250000000000000278 ) ;
#12 =( LENGTH_UNIT ( ) NAMED_UNIT ( * ) SI_UNIT ( $, .METRE. ) );
#13 = CARTESIAN_POINT ( 'NONE',  ( 0.000000000000000000, 0.000000000000000000, 0.000000000000000000 ) ) ;
#14 = CARTESIAN_POINT ( 'NONE',  ( -6.123233995736772199E-17, 3.000000000000000444, 0.000000000000000000 ) ) ;
#15 = DIRECTION ( 'NONE',  ( 0.000000000000000000, -0.000000000000000000, 1.000000000000000000 ) ) ;
#16 = AXIS2_PLACEMENT_3D ( 'NONE', #79, #116, #264 ) ;
#17 = SURFACE_SIDE_STYLE ('',( #70 ) ) ;
#18 = FILL_AREA_STYLE_COLOUR ( '', #140 ) ;
#19 = CARTESIAN_POINT ( 'NONE',  ( 0.000000000000000000, 1.500000000000000222, -0.1250000000000000000 ) ) ;
#20 = ADVANCED_FACE ( 'NONE', ( #240 ), #218, .T. ) ;
#21 = VECTOR ( 'NONE', #216, 39.37007874015748143 ) ;
#22 = DIRECTION ( 'NONE',  ( -1.000000000000000000, 0.000000000000000000, 0.000000000000000000 ) ) ;
#23 = DIRECTION ( 'NONE',  ( 0.000000000000000000, 0.000000000000000000, -1.000000000000000000 ) ) ;
#24 = PRODUCT_DEFINITION_SHAPE ( 'NONE', 'NONE',  #227 ) ;
#25 = CARTESIAN_POINT ( 'NONE',  ( 1.041499849070736517E-34, 1.500000000000000222, 0.000000000000000000 ) ) ;
#26 = AXIS2_PLACEMENT_3D ( 'NONE', #154, #91, #63 ) ;
#27 = EDGE_LOOP ( 'NONE', ( #167, #117 ) ) ;
#28 = DIRECTION ( 'NONE',  ( -4.082155997157848133E-17, 1.000000000000000000, -0.000000000000000000 ) ) ;
#29 = DIRECTION ( 'NONE',  ( 0.000000000000000000, 0.000000000000000000, -1.000000000000000000 ) ) ;
#30 = UNCERTAINTY_MEASURE_WITH_UNIT (LENGTH_MEASURE( 1.000000000000000082E-05 ), #208, 'distance_accuracy_value', 'NONE');
#31 = PRESENTATION_LAYER_ASSIGNMENT (  '', '', ( #274 ) ) ;
#32 = ORIENTED_EDGE ( 'NONE', *, *, #182, .T. ) ;
#33 = AXIS2_PLACEMENT_3D ( 'NONE', #137, #235, #44 ) ;
#34 = EDGE_LOOP ( 'NONE', ( #88, #85, #226, #194 ) ) ;
#35 = CARTESIAN_POINT ( 'NONE',  ( 0.000000000000000000, 1.500000000000000222, 0.000000000000000000 ) ) ;
#36 = PRESENTATION_STYLE_ASSIGNMENT (( #62 ) ) ;
#37 = CYLINDRICAL_SURFACE ( 'NONE', #150, 0.1250000000000000000 ) ;
#38 =( NAMED_UNIT ( * ) PLANE_ANGLE_UNIT ( ) SI_UNIT ( $, .RADIAN. ) );
#39 = PRESENTATION_LAYER_ASSIGNMENT (  '', '', ( #268 ) ) ;
#40 = APPLICATION_PROTOCOL_DEFINITION ( 'draft international standard', 'automotive_design', 1998, #90 ) ;
#41 = CIRCLE ( 'NONE', #238, 0.1250000000000000000 ) ;
#42 =( LENGTH_UNIT ( ) NAMED_UNIT ( * ) SI_UNIT ( $, .METRE. ) );
#43 = EDGE_CURVE ( 'NONE', #271, #151, #237, .T. ) ;
#44 = DIRECTION ( 'NONE',  ( 1.000000000000000000, 0.000000000000000000, 0.000000000000000000 ) ) ;
#45 = CARTESIAN_POINT ( 'NONE',  ( 0.000000000000000000, 0.000000000000000000, 0.000000000000000000 ) ) ;
#46 = PRESENTATION_LAYER_ASSIGNMENT (  '', '', ( #280 ) ) ;
#47 = LINE ( 'NONE', #287, #141 ) ;
#48 = CARTESIAN_POINT ( 'NONE',  ( 0.1250000000000000278, 1.500000000000000222, 1.530808498934192125E-17 ) ) ;
#49 = ORIENTED_EDGE ( 'NONE', *, *, #92, .T. ) ;
#50 = CARTESIAN_POINT ( 'NONE',  ( -0.1250000000000001388, 3.000000000000000444, 0.000000000000000000 ) ) ;
#51 = MANIFOLD_SOLID_BREP ( 'Revolve - Cutting Edge', #253 ) ;
#52 = CARTESIAN_POINT ( 'NONE',  ( -6.123233995736772199E-17, 3.000000000000000444, 0.000000000000000000 ) ) ;
#53 = MANIFOLD_SOLID_BREP ( 'Revolve - Tool Body (Straight Shanked)', #149 ) ;
#54 = ADVANCED_FACE ( 'NONE', ( #163 ), #123, .T. ) ;
#55 = DIRECTION ( 'NONE',  ( -4.082155997157848133E-17, 1.000000000000000000, 0.000000000000000000 ) ) ;
#56 = ORIENTED_EDGE ( 'NONE', *, *, #78, .T. ) ;
#57 = FACE_OUTER_BOUND ( 'NONE', #113, .T. ) ;
#58 = EDGE_CURVE ( 'NONE', #192, #224, #223, .T. ) ;
#59 =( GEOMETRIC_REPRESENTATION_CONTEXT ( 3 ) GLOBAL_UNCERTAINTY_ASSIGNED_CONTEXT ( ( #244 ) ) GLOBAL_UNIT_ASSIGNED_CONTEXT ( ( #1, #180, #308 ) ) REPRESENTATION_CONTEXT ( 'NONE', 'WORKASPACE' ) );
#60 = AXIS2_PLACEMENT_3D ( 'NONE', #303, #262, #22 ) ;
#61 = FILL_AREA_STYLE_COLOUR ( '', #241 ) ;
#62 = SURFACE_STYLE_USAGE ( .BOTH. , #106 ) ;
#63 = DIRECTION ( 'NONE',  ( -1.000000000000000000, 0.000000000000000000, 0.000000000000000000 ) ) ;
#64 = LENGTH_MEASURE_WITH_UNIT ( LENGTH_MEASURE( 0.02539999999999999897 ), #283 );
#65 =( LENGTH_UNIT ( ) NAMED_UNIT ( * ) SI_UNIT ( $, .METRE. ) );
#66 = AXIS2_PLACEMENT_3D ( 'NONE', #13, #164, #304 ) ;
#67 = FACE_OUTER_BOUND ( 'NONE', #27, .T. ) ;
#68 = ADVANCED_FACE ( 'NONE', ( #305 ), #184, .F. ) ;
#69 = FILL_AREA_STYLE_COLOUR ( '', #204 ) ;
#70 = SURFACE_STYLE_FILL_AREA ( #203 ) ;
#71 = CARTESIAN_POINT ( 'NONE',  ( 0.1250000000000000278, 3.000000000000000444, 1.530808498934192125E-17 ) ) ;
#72 =( NAMED_UNIT ( * ) SI_UNIT ( $, .STERADIAN. ) SOLID_ANGLE_UNIT ( ) );
#73 = CIRCLE ( 'NONE', #275, 0.1250000000000000000 ) ;
#74 = MECHANICAL_DESIGN_GEOMETRIC_PRESENTATION_REPRESENTATION (  '', ( #119 ), #136 ) ;
#75 = DIRECTION ( 'NONE',  ( -1.000000000000000000, -4.082155997157848133E-17, 0.000000000000000000 ) ) ;
#76 = DIRECTION ( 'NONE',  ( -0.000000000000000000, -1.000000000000000000, -0.000000000000000000 ) ) ;
#77 = CARTESIAN_POINT ( 'NONE',  ( -0.1250000000000000000, 1.500000000000000222, 0.000000000000000000 ) ) ;
#78 = EDGE_CURVE ( 'NONE', #122, #151, #143, .T. ) ;
#79 = CARTESIAN_POINT ( 'NONE',  ( 0.000000000000000000, 0.000000000000000000, 0.000000000000000000 ) ) ;
#80 = AXIS2_PLACEMENT_3D ( 'NONE', #14, #108, #258 ) ;
#81 = DIMENSIONAL_EXPONENTS ( 1.000000000000000000, 0.000000000000000000, 0.000000000000000000, 0.000000000000000000, 0.000000000000000000, 0.000000000000000000, 0.000000000000000000 ) ;
#82 = FILL_AREA_STYLE_COLOUR ( '', #254 ) ;
#83 = EDGE_LOOP ( 'NONE', ( #292, #6 ) ) ;
#84 = CARTESIAN_POINT ( 'NONE',  ( 7.582401355855259480E-33, 1.500000000000000222, 0.000000000000000000 ) ) ;
#85 = ORIENTED_EDGE ( 'NONE', *, *, #302, .T. ) ;
#86 = DIMENSIONAL_EXPONENTS ( 1.000000000000000000, 0.000000000000000000, 0.000000000000000000, 0.000000000000000000, 0.000000000000000000, 0.000000000000000000, 0.000000000000000000 ) ;
#87 =( GEOMETRIC_REPRESENTATION_CONTEXT ( 3 ) GLOBAL_UNCERTAINTY_ASSIGNED_CONTEXT ( ( #190 ) ) GLOBAL_UNIT_ASSIGNED_CONTEXT ( ( #281, #107, #202 ) ) REPRESENTATION_CONTEXT ( 'NONE', 'WORKASPACE' ) );
#88 = ORIENTED_EDGE ( 'NONE', *, *, #78, .F. ) ;
#89 = AXIS2_PLACEMENT_3D ( 'NONE', #261, #127, #229 ) ;
#90 = APPLICATION_CONTEXT ( 'automotive_design' ) ;
#91 = DIRECTION ( 'NONE',  ( -4.082155997157848133E-17, 1.000000000000000000, -0.000000000000000000 ) ) ;
#92 = EDGE_CURVE ( 'NONE', #151, #271, #294, .T. ) ;
#93 = DIRECTION ( 'NONE',  ( -0.000000000000000000, -1.000000000000000000, -0.000000000000000000 ) ) ;
#94 = AXIS2_PLACEMENT_3D ( 'NONE', #234, #96, #239 ) ;
#95 =( LENGTH_UNIT ( ) NAMED_UNIT ( * ) SI_UNIT ( $, .METRE. ) );
#96 = DIRECTION ( 'NONE',  ( 4.082155997157848133E-17, -1.000000000000000000, 0.000000000000000000 ) ) ;
#97 = AXIS2_PLACEMENT_3D ( 'NONE', #35, #297, #15 ) ;
#98 = DIRECTION ( 'NONE',  ( -0.000000000000000000, -1.000000000000000000, -0.000000000000000000 ) ) ;
#99 = EDGE_LOOP ( 'NONE', ( #146, #49 ) ) ;
#100 = ORIENTED_EDGE ( 'NONE', *, *, #182, .F. ) ;
#101 = ORIENTED_EDGE ( 'NONE', *, *, #295, .T. ) ;
#102 = UNCERTAINTY_MEASURE_WITH_UNIT (LENGTH_MEASURE( 1.000000000000000082E-05 ), #2, 'distance_accuracy_value', 'NONE');
#103 = SURFACE_STYLE_USAGE ( .BOTH. , #300 ) ;
#104 = CIRCLE ( 'NONE', #306, 0.1250000000000000000 ) ;
#105 = DIMENSIONAL_EXPONENTS ( 1.000000000000000000, 0.000000000000000000, 0.000000000000000000, 0.000000000000000000, 0.000000000000000000, 0.000000000000000000, 0.000000000000000000 ) ;
#106 = SURFACE_SIDE_STYLE ('',( #277 ) ) ;
#107 =( NAMED_UNIT ( * ) PLANE_ANGLE_UNIT ( ) SI_UNIT ( $, .RADIAN. ) );
#108 = DIRECTION ( 'NONE',  ( -4.082155997157848133E-17, 1.000000000000000000, -0.000000000000000000 ) ) ;
#109 =( GEOMETRIC_REPRESENTATION_CONTEXT ( 3 ) GLOBAL_UNCERTAINTY_ASSIGNED_CONTEXT ( ( #199 ) ) GLOBAL_UNIT_ASSIGNED_CONTEXT ( ( #129, #176, #200 ) ) REPRESENTATION_CONTEXT ( 'NONE', 'WORKASPACE' ) );
#110 =( GEOMETRIC_REPRESENTATION_CONTEXT ( 3 ) GLOBAL_UNCERTAINTY_ASSIGNED_CONTEXT ( ( #30 ) ) GLOBAL_UNIT_ASSIGNED_CONTEXT ( ( #208, #301, #72 ) ) REPRESENTATION_CONTEXT ( 'NONE', 'WORKASPACE' ) );
#111 = CARTESIAN_POINT ( 'NONE',  ( 1.530808498934191509E-17, 0.000000000000000000, 0.1250000000000000000 ) ) ;
#112 = STYLED_ITEM ( 'NONE', ( #196 ), #189 ) ;
#113 = EDGE_LOOP ( 'NONE', ( #162, #220, #270, #197 ) ) ;
#114 = AXIS2_PLACEMENT_3D ( 'NONE', #212, #243, #23 ) ;
#115 = VERTEX_POINT ( 'NONE', #19 ) ;
#116 = DIRECTION ( 'NONE',  ( -0.000000000000000000, -1.000000000000000000, -0.000000000000000000 ) ) ;
#117 = ORIENTED_EDGE ( 'NONE', *, *, #266, .T. ) ;
#118 = SURFACE_SIDE_STYLE ('',( #144 ) ) ;
#119 = STYLED_ITEM ( 'NONE', ( #158 ), #54 ) ;
#120 = PRODUCT_DEFINITION_FORMATION_WITH_SPECIFIED_SOURCE ( 'ANY', '', #198, .NOT_KNOWN. ) ;
#121 = SHAPE_DEFINITION_REPRESENTATION ( #24, #142 ) ;
#122 = VERTEX_POINT ( 'NONE', #48 ) ;
#123 = CYLINDRICAL_SURFACE ( 'NONE', #16, 0.1250000000000000000 ) ;
#124 = EDGE_CURVE ( 'NONE', #115, #3, #248, .T. ) ;
#125 = DIMENSIONAL_EXPONENTS ( 1.000000000000000000, 0.000000000000000000, 0.000000000000000000, 0.000000000000000000, 0.000000000000000000, 0.000000000000000000, 0.000000000000000000 ) ;
#126 = LENGTH_MEASURE_WITH_UNIT ( LENGTH_MEASURE( 0.02539999999999999897 ), #95 );
#127 = DIRECTION ( 'NONE',  ( -4.082155997157848133E-17, 1.000000000000000000, -0.000000000000000000 ) ) ;
#128 = FILL_AREA_STYLE_COLOUR ( '', #232 ) ;
#129 =( CONVERSION_BASED_UNIT ( 'INCH', #126 ) LENGTH_UNIT ( ) NAMED_UNIT ( #105 ) );
#130 = AXIS2_PLACEMENT_3D ( 'NONE', #25, #55, #75 ) ;
#131 = VECTOR ( 'NONE', #255, 39.37007874015748143 ) ;
#132 = LENGTH_MEASURE_WITH_UNIT ( LENGTH_MEASURE( 0.02539999999999999897 ), #206 );
#133 = DIRECTION ( 'NONE',  ( 0.000000000000000000, 0.000000000000000000, -1.000000000000000000 ) ) ;
#134 =( NAMED_UNIT ( * ) SI_UNIT ( $, .STERADIAN. ) SOLID_ANGLE_UNIT ( ) );
#135 = ADVANCED_FACE ( 'NONE', ( #169 ), #221, .F. ) ;
#136 =( GEOMETRIC_REPRESENTATION_CONTEXT ( 3 ) GLOBAL_UNCERTAINTY_ASSIGNED_CONTEXT ( ( #171 ) ) GLOBAL_UNIT_ASSIGNED_CONTEXT ( ( #165, #166, #134 ) ) REPRESENTATION_CONTEXT ( 'NONE', 'WORKASPACE' ) );
#137 = CARTESIAN_POINT ( 'NONE',  ( 0.000000000000000000, 0.000000000000000000, 0.000000000000000000 ) ) ;
#138 = SURFACE_SIDE_STYLE ('',( #260 ) ) ;
#139 = FACE_OUTER_BOUND ( 'NONE', #170, .T. ) ;
#140 = COLOUR_RGB ( '',1.000000000000000000, 0.000000000000000000, 0.000000000000000000 ) ;
#141 = VECTOR ( 'NONE', #236, 39.37007874015748143 ) ;
#142 = ADVANCED_BREP_SHAPE_REPRESENTATION ( '83196', ( #51, #53, #33 ), #183 ) ;
#143 = LINE ( 'NONE', #185, #21 ) ;
#144 = SURFACE_STYLE_FILL_AREA ( #193 ) ;
#145 = EDGE_CURVE ( 'NONE', #115, #192, #288, .T. ) ;
#146 = ORIENTED_EDGE ( 'NONE', *, *, #43, .T. ) ;
#147 = DIMENSIONAL_EXPONENTS ( 1.000000000000000000, 0.000000000000000000, 0.000000000000000000, 0.000000000000000000, 0.000000000000000000, 0.000000000000000000, 0.000000000000000000 ) ;
#148 = SURFACE_STYLE_USAGE ( .BOTH. , #118 ) ;
#149 = CLOSED_SHELL ( 'NONE', ( #276, #68, #174, #135 ) ) ;
#150 = AXIS2_PLACEMENT_3D ( 'NONE', #45, #93, #181 ) ;
#151 = VERTEX_POINT ( 'NONE', #71 ) ;
#152 = FILL_AREA_STYLE_COLOUR ( '', #172 ) ;
#153 = DIMENSIONAL_EXPONENTS ( 1.000000000000000000, 0.000000000000000000, 0.000000000000000000, 0.000000000000000000, 0.000000000000000000, 0.000000000000000000, 0.000000000000000000 ) ;
#154 = CARTESIAN_POINT ( 'NONE',  ( -6.123233995736772199E-17, 3.000000000000000444, 0.000000000000000000 ) ) ;
#155 = DIRECTION ( 'NONE',  ( -0.000000000000000000, -1.000000000000000000, -0.000000000000000000 ) ) ;
#156 = SURFACE_STYLE_USAGE ( .BOTH. , #278 ) ;
#157 = PRESENTATION_STYLE_ASSIGNMENT (( #298 ) ) ;
#158 = PRESENTATION_STYLE_ASSIGNMENT (( #245 ) ) ;
#159 = MECHANICAL_DESIGN_GEOMETRIC_PRESENTATION_REPRESENTATION (  '', ( #112 ), #179 ) ;
#160 = CARTESIAN_POINT ( 'NONE',  ( 0.000000000000000000, 1.500000000000000222, 0.000000000000000000 ) ) ;
#161 = CARTESIAN_POINT ( 'NONE',  ( 0.000000000000000000, 0.000000000000000000, -0.1250000000000000000 ) ) ;
#162 = ORIENTED_EDGE ( 'NONE', *, *, #124, .T. ) ;
#163 = FACE_OUTER_BOUND ( 'NONE', #222, .T. ) ;
#164 = DIRECTION ( 'NONE',  ( 0.000000000000000000, -1.000000000000000000, -0.000000000000000000 ) ) ;
#165 =( CONVERSION_BASED_UNIT ( 'INCH', #211 ) LENGTH_UNIT ( ) NAMED_UNIT ( #225 ) );
#166 =( NAMED_UNIT ( * ) PLANE_ANGLE_UNIT ( ) SI_UNIT ( $, .RADIAN. ) );
#167 = ORIENTED_EDGE ( 'NONE', *, *, #58, .T. ) ;
#168 = CARTESIAN_POINT ( 'NONE',  ( 1.530808498934191509E-17, 0.000000000000000000, 0.1250000000000000000 ) ) ;
#169 = FACE_OUTER_BOUND ( 'NONE', #99, .T. ) ;
#170 = EDGE_LOOP ( 'NONE', ( #32, #56, #187, #246 ) ) ;
#171 = UNCERTAINTY_MEASURE_WITH_UNIT (LENGTH_MEASURE( 1.000000000000000082E-05 ), #165, 'distance_accuracy_value', 'NONE');
#172 = COLOUR_RGB ( '',0.7921568627450980005, 0.8196078431372548767, 0.9333333333333333481 ) ;
#173 = CIRCLE ( 'NONE', #89, 0.1250000000000000000 ) ;
#174 = ADVANCED_FACE ( 'NONE', ( #175 ), #11, .T. ) ;
#175 = FACE_OUTER_BOUND ( 'NONE', #34, .T. ) ;
#176 =( NAMED_UNIT ( * ) PLANE_ANGLE_UNIT ( ) SI_UNIT ( $, .RADIAN. ) );
#177 = DIRECTION ( 'NONE',  ( -4.082155997157848133E-17, 1.000000000000000000, -0.000000000000000000 ) ) ;
#178 = AXIS2_PLACEMENT_3D ( 'NONE', #290, #98, #29 ) ;
#179 =( GEOMETRIC_REPRESENTATION_CONTEXT ( 3 ) GLOBAL_UNCERTAINTY_ASSIGNED_CONTEXT ( ( #195 ) ) GLOBAL_UNIT_ASSIGNED_CONTEXT ( ( #282, #38, #201 ) ) REPRESENTATION_CONTEXT ( 'NONE', 'WORKASPACE' ) );
#180 =( NAMED_UNIT ( * ) PLANE_ANGLE_UNIT ( ) SI_UNIT ( $, .RADIAN. ) );
#181 = DIRECTION ( 'NONE',  ( 0.000000000000000000, 0.000000000000000000, -1.000000000000000000 ) ) ;
#182 = EDGE_CURVE ( 'NONE', #265, #122, #41, .T. ) ;
#183 =( GEOMETRIC_REPRESENTATION_CONTEXT ( 3 ) GLOBAL_UNCERTAINTY_ASSIGNED_CONTEXT ( ( #102 ) ) GLOBAL_UNIT_ASSIGNED_CONTEXT ( ( #2, #217, #289 ) ) REPRESENTATION_CONTEXT ( 'NONE', 'WORKASPACE' ) );
#184 = PLANE ( 'NONE',  #130 ) ;
#185 = CARTESIAN_POINT ( 'NONE',  ( 0.1249999999999999584, 3.000000000000000444, 1.530808498934191817E-17 ) ) ;
#186 = LENGTH_MEASURE_WITH_UNIT ( LENGTH_MEASURE( 0.02539999999999999897 ), #12 );
#187 = ORIENTED_EDGE ( 'NONE', *, *, #43, .F. ) ;
#188 = DIRECTION ( 'NONE',  ( -1.000000000000000000, 0.000000000000000000, 0.000000000000000000 ) ) ;
#189 = ADVANCED_FACE ( 'NONE', ( #57 ), #37, .T. ) ;
#190 = UNCERTAINTY_MEASURE_WITH_UNIT (LENGTH_MEASURE( 1.000000000000000082E-05 ), #281, 'distance_accuracy_value', 'NONE');
#191 = PRESENTATION_LAYER_ASSIGNMENT (  '', '', ( #112 ) ) ;
#192 = VERTEX_POINT ( 'NONE', #161 ) ;
#193 = FILL_AREA_STYLE ('',( #82 ) ) ;
#194 = ORIENTED_EDGE ( 'NONE', *, *, #92, .F. ) ;
#195 = UNCERTAINTY_MEASURE_WITH_UNIT (LENGTH_MEASURE( 1.000000000000000082E-05 ), #282, 'distance_accuracy_value', 'NONE');
#196 = PRESENTATION_STYLE_ASSIGNMENT (( #148 ) ) ;
#197 = ORIENTED_EDGE ( 'NONE', *, *, #145, .F. ) ;
#198 = PRODUCT ( '83196', '83196', '', ( #256 ) ) ;
#199 = UNCERTAINTY_MEASURE_WITH_UNIT (LENGTH_MEASURE( 1.000000000000000082E-05 ), #129, 'distance_accuracy_value', 'NONE');
#200 =( NAMED_UNIT ( * ) SI_UNIT ( $, .STERADIAN. ) SOLID_ANGLE_UNIT ( ) );
#201 =( NAMED_UNIT ( * ) SI_UNIT ( $, .STERADIAN. ) SOLID_ANGLE_UNIT ( ) );
#202 =( NAMED_UNIT ( * ) SI_UNIT ( $, .STERADIAN. ) SOLID_ANGLE_UNIT ( ) );
#203 = FILL_AREA_STYLE ('',( #69 ) ) ;
#204 = COLOUR_RGB ( '',1.000000000000000000, 0.000000000000000000, 0.000000000000000000 ) ;
#205 = PRESENTATION_STYLE_ASSIGNMENT (( #156 ) ) ;
#206 =( LENGTH_UNIT ( ) NAMED_UNIT ( * ) SI_UNIT ( $, .METRE. ) );
#207 = SURFACE_STYLE_FILL_AREA ( #230 ) ;
#208 =( CONVERSION_BASED_UNIT ( 'INCH', #132 ) LENGTH_UNIT ( ) NAMED_UNIT ( #125 ) );
#209 = MECHANICAL_DESIGN_GEOMETRIC_PRESENTATION_REPRESENTATION (  '', ( #280 ), #109 ) ;
#210 = CARTESIAN_POINT ( 'NONE',  ( 0.000000000000000000, 0.000000000000000000, 0.000000000000000000 ) ) ;
#211 = LENGTH_MEASURE_WITH_UNIT ( LENGTH_MEASURE( 0.02539999999999999897 ), #42 );
#212 = CARTESIAN_POINT ( 'NONE',  ( 0.000000000000000000, 0.000000000000000000, 0.000000000000000000 ) ) ;
#213 = PRESENTATION_LAYER_ASSIGNMENT (  '', '', ( #119 ) ) ;
#214 = PRESENTATION_LAYER_ASSIGNMENT (  '', '', ( #242 ) ) ;
#215 = DIRECTION ( 'NONE',  ( -0.000000000000000000, -1.000000000000000000, -0.000000000000000000 ) ) ;
#216 = DIRECTION ( 'NONE',  ( -4.082155997157848133E-17, 1.000000000000000000, -0.000000000000000000 ) ) ;
#217 =( NAMED_UNIT ( * ) PLANE_ANGLE_UNIT ( ) SI_UNIT ( $, .RADIAN. ) );
#218 = PLANE ( 'NONE',  #97 ) ;
#219 = ADVANCED_FACE ( 'NONE', ( #67 ), #231, .T. ) ;
#220 = ORIENTED_EDGE ( 'NONE', *, *, #286, .T. ) ;
#221 = PLANE ( 'NONE',  #94 ) ;
#222 = EDGE_LOOP ( 'NONE', ( #4, #101, #250, #291 ) ) ;
#223 = CIRCLE ( 'NONE', #114, 0.1250000000000000000 ) ;
#224 = VERTEX_POINT ( 'NONE', #111 ) ;
#225 = DIMENSIONAL_EXPONENTS ( 1.000000000000000000, 0.000000000000000000, 0.000000000000000000, 0.000000000000000000, 0.000000000000000000, 0.000000000000000000, 0.000000000000000000 ) ;
#226 = ORIENTED_EDGE ( 'NONE', *, *, #233, .T. ) ;
#227 = PRODUCT_DEFINITION ( 'UNKNOWN', '', #120, #249 ) ;
#228 = PRESENTATION_STYLE_ASSIGNMENT (( #103 ) ) ;
#229 = DIRECTION ( 'NONE',  ( -1.000000000000000000, 0.000000000000000000, 0.000000000000000000 ) ) ;
#230 = FILL_AREA_STYLE ('',( #128 ) ) ;
#231 = PLANE ( 'NONE',  #66 ) ;
#232 = COLOUR_RGB ( '',0.7921568627450980005, 0.8196078431372548767, 0.9333333333333333481 ) ;
#233 = EDGE_CURVE ( 'NONE', #265, #271, #47, .T. ) ;
#234 = CARTESIAN_POINT ( 'NONE',  ( 0.1250000000000000000, 3.000000000000000444, 0.000000000000000000 ) ) ;
#235 = DIRECTION ( 'NONE',  ( 0.000000000000000000, 0.000000000000000000, 1.000000000000000000 ) ) ;
#236 = DIRECTION ( 'NONE',  ( -4.082155997157848133E-17, 1.000000000000000000, -0.000000000000000000 ) ) ;
#237 = CIRCLE ( 'NONE', #80, 0.1250000000000000555 ) ;
#238 = AXIS2_PLACEMENT_3D ( 'NONE', #84, #177, #252 ) ;
#239 = DIRECTION ( 'NONE',  ( 1.000000000000000000, 4.082155997157848133E-17, 0.000000000000000000 ) ) ;
#240 = FACE_OUTER_BOUND ( 'NONE', #83, .T. ) ;
#241 = COLOUR_RGB ( '',1.000000000000000000, 0.000000000000000000, 0.000000000000000000 ) ;
#242 = STYLED_ITEM ( 'NONE', ( #157 ), #219 ) ;
#243 = DIRECTION ( 'NONE',  ( -0.000000000000000000, -1.000000000000000000, -0.000000000000000000 ) ) ;
#244 = UNCERTAINTY_MEASURE_WITH_UNIT (LENGTH_MEASURE( 1.000000000000000082E-05 ), #1, 'distance_accuracy_value', 'NONE');
#245 = SURFACE_STYLE_USAGE ( .BOTH. , #138 ) ;
#246 = ORIENTED_EDGE ( 'NONE', *, *, #233, .F. ) ;
#247 = CARTESIAN_POINT ( 'NONE',  ( 1.530808498934191509E-17, 1.500000000000000222, 0.1250000000000000000 ) ) ;
#248 = CIRCLE ( 'NONE', #178, 0.1250000000000000000 ) ;
#249 = PRODUCT_DEFINITION_CONTEXT ( 'detailed design', #90, 'design' ) ;
#250 = ORIENTED_EDGE ( 'NONE', *, *, #145, .T. ) ;
#251 = FILL_AREA_STYLE ('',( #18 ) ) ;
#252 = DIRECTION ( 'NONE',  ( -1.000000000000000000, 0.000000000000000000, 0.000000000000000000 ) ) ;
#253 = CLOSED_SHELL ( 'NONE', ( #189, #20, #54, #219 ) ) ;
#254 = COLOUR_RGB ( '',1.000000000000000000, 0.000000000000000000, 0.000000000000000000 ) ;
#255 = DIRECTION ( 'NONE',  ( -0.000000000000000000, -1.000000000000000000, -0.000000000000000000 ) ) ;
#256 = PRODUCT_CONTEXT ( 'NONE', #272, 'mechanical' ) ;
#257 = LENGTH_MEASURE_WITH_UNIT ( LENGTH_MEASURE( 0.02539999999999999897 ), #285 );
#258 = DIRECTION ( 'NONE',  ( -1.000000000000000000, 0.000000000000000000, 0.000000000000000000 ) ) ;
#259 = MECHANICAL_DESIGN_GEOMETRIC_PRESENTATION_REPRESENTATION (  '', ( #268 ), #59 ) ;
#260 = SURFACE_STYLE_FILL_AREA ( #267 ) ;
#261 = CARTESIAN_POINT ( 'NONE',  ( 7.582401355855259480E-33, 1.500000000000000222, 0.000000000000000000 ) ) ;
#262 = DIRECTION ( 'NONE',  ( -4.082155997157848133E-17, 1.000000000000000000, -0.000000000000000000 ) ) ;
#263 = LINE ( 'NONE', #168, #131 ) ;
#264 = DIRECTION ( 'NONE',  ( 0.000000000000000000, 0.000000000000000000, -1.000000000000000000 ) ) ;
#265 = VERTEX_POINT ( 'NONE', #77 ) ;
#266 = EDGE_CURVE ( 'NONE', #224, #192, #73, .T. ) ;
#267 = FILL_AREA_STYLE ('',( #61 ) ) ;
#268 = STYLED_ITEM ( 'NONE', ( #36 ), #53 ) ;
#269 = MECHANICAL_DESIGN_GEOMETRIC_PRESENTATION_REPRESENTATION (  '', ( #242 ), #110 ) ;
#270 = ORIENTED_EDGE ( 'NONE', *, *, #58, .F. ) ;
#271 = VERTEX_POINT ( 'NONE', #50 ) ;
#272 = APPLICATION_CONTEXT ( 'automotive_design' ) ;
#273 = EDGE_LOOP ( 'NONE', ( #100, #8 ) ) ;
#274 = STYLED_ITEM ( 'NONE', ( #205 ), #20 ) ;
#275 = AXIS2_PLACEMENT_3D ( 'NONE', #210, #215, #307 ) ;
#276 = ADVANCED_FACE ( 'NONE', ( #139 ), #309, .T. ) ;
#277 = SURFACE_STYLE_FILL_AREA ( #296 ) ;
#278 = SURFACE_SIDE_STYLE ('',( #9 ) ) ;
#279 = AXIS2_PLACEMENT_3D ( 'NONE', #52, #28, #188 ) ;
#280 = STYLED_ITEM ( 'NONE', ( #228 ), #51 ) ;
#281 =( CONVERSION_BASED_UNIT ( 'INCH', #64 ) LENGTH_UNIT ( ) NAMED_UNIT ( #147 ) );
#282 =( CONVERSION_BASED_UNIT ( 'INCH', #257 ) LENGTH_UNIT ( ) NAMED_UNIT ( #86 ) );
#283 =( LENGTH_UNIT ( ) NAMED_UNIT ( * ) SI_UNIT ( $, .METRE. ) );
#284 = CARTESIAN_POINT ( 'NONE',  ( 0.000000000000000000, 0.000000000000000000, -0.1250000000000000000 ) ) ;
#285 =( LENGTH_UNIT ( ) NAMED_UNIT ( * ) SI_UNIT ( $, .METRE. ) );
#286 = EDGE_CURVE ( 'NONE', #3, #224, #263, .T. ) ;
#287 = CARTESIAN_POINT ( 'NONE',  ( -0.1250000000000001110, 3.000000000000000444, 0.000000000000000000 ) ) ;
#288 = LINE ( 'NONE', #284, #299 ) ;
#289 =( NAMED_UNIT ( * ) SI_UNIT ( $, .STERADIAN. ) SOLID_ANGLE_UNIT ( ) );
#290 = CARTESIAN_POINT ( 'NONE',  ( 0.000000000000000000, 1.500000000000000222, 0.000000000000000000 ) ) ;
#291 = ORIENTED_EDGE ( 'NONE', *, *, #266, .F. ) ;
#292 = ORIENTED_EDGE ( 'NONE', *, *, #124, .F. ) ;
#293 = APPLICATION_PROTOCOL_DEFINITION ( 'draft international standard', 'automotive_design', 1998, #272 ) ;
#294 = CIRCLE ( 'NONE', #279, 0.1250000000000000555 ) ;
#295 = EDGE_CURVE ( 'NONE', #3, #115, #104, .T. ) ;
#296 = FILL_AREA_STYLE ('',( #152 ) ) ;
#297 = DIRECTION ( 'NONE',  ( 0.000000000000000000, 1.000000000000000000, 0.000000000000000000 ) ) ;
#298 = SURFACE_STYLE_USAGE ( .BOTH. , #17 ) ;
#299 = VECTOR ( 'NONE', #76, 39.37007874015748143 ) ;
#300 = SURFACE_SIDE_STYLE ('',( #207 ) ) ;
#301 =( NAMED_UNIT ( * ) PLANE_ANGLE_UNIT ( ) SI_UNIT ( $, .RADIAN. ) );
#302 = EDGE_CURVE ( 'NONE', #122, #265, #173, .T. ) ;
#303 = CARTESIAN_POINT ( 'NONE',  ( -6.123233995736772199E-17, 3.000000000000000444, 0.000000000000000000 ) ) ;
#304 = DIRECTION ( 'NONE',  ( 0.000000000000000000, 0.000000000000000000, -1.000000000000000000 ) ) ;
#305 = FACE_OUTER_BOUND ( 'NONE', #273, .T. ) ;
#306 = AXIS2_PLACEMENT_3D ( 'NONE', #160, #155, #133 ) ;
#307 = DIRECTION ( 'NONE',  ( 0.000000000000000000, 0.000000000000000000, -1.000000000000000000 ) ) ;
#308 =( NAMED_UNIT ( * ) SI_UNIT ( $, .STERADIAN. ) SOLID_ANGLE_UNIT ( ) );
#309 = CYLINDRICAL_SURFACE ( 'NONE', #60, 0.1250000000000000278 ) ;
ENDSEC;
END-ISO-10303-21;
