ISO-10303-21;
HEADER;
FILE_DESCRIPTION (( 'STEP AP214' ),
    '1' );
FILE_NAME ('49196.STEP',
    '2023-06-30T21:58:15',
    ( '' ),
    ( '' ),
    'SwSTEP 2.0',
    'SolidWorks 2023',
    '' );
FILE_SCHEMA (( 'AUTOMOTIVE_DESIGN' ));
ENDSEC;

DATA;
#1 = VERTEX_POINT ( 'NONE', #334 ) ;
#2 =( LENGTH_UNIT ( ) NAMED_UNIT ( * ) SI_UNIT ( $, .METRE. ) );
#3 = AXIS2_PLACEMENT_3D ( 'NONE', #9, #98, #338 ) ;
#4 = DIRECTION ( 'NONE',  ( -0.000000000000000000, -1.000000000000000000, -0.000000000000000000 ) ) ;
#5 = LENGTH_MEASURE_WITH_UNIT ( LENGTH_MEASURE( 0.02539999999999999897 ), #148 );
#6 = SURFACE_SIDE_STYLE ('',( #279 ) ) ;
#7 = EDGE_CURVE ( 'NONE', #295, #58, #286, .T. ) ;
#8 = VECTOR ( 'NONE', #118, 39.37007874015748143 ) ;
#9 = CARTESIAN_POINT ( 'NONE',  ( 1.224646799147353700E-16, 2.000000000000000000, 0.000000000000000000 ) ) ;
#10 = DIRECTION ( 'NONE',  ( 1.205004597867861339E-16, -1.000000000000000000, 0.000000000000000000 ) ) ;
#11 = SURFACE_STYLE_FILL_AREA ( #325 ) ;
#12 = CYLINDRICAL_SURFACE ( 'NONE', #55, 0.1874999999999997780 ) ;
#13 = DIRECTION ( 'NONE',  ( -1.000000000000000000, 0.000000000000000000, 0.000000000000000000 ) ) ;
#14 = CIRCLE ( 'NONE', #3, 0.1874999999999998335 ) ;
#15 =( GEOMETRIC_REPRESENTATION_CONTEXT ( 3 ) GLOBAL_UNCERTAINTY_ASSIGNED_CONTEXT ( ( #181 ) ) GLOBAL_UNIT_ASSIGNED_CONTEXT ( ( #217, #324, #327 ) ) REPRESENTATION_CONTEXT ( 'NONE', 'WORKASPACE' ) );
#16 = LENGTH_MEASURE_WITH_UNIT ( LENGTH_MEASURE( 0.02539999999999999897 ), #21 );
#17 = CARTESIAN_POINT ( 'NONE',  ( -2.296212748401288034E-17, 0.1875000000000000555, 0.000000000000000000 ) ) ;
#18 = MECHANICAL_DESIGN_GEOMETRIC_PRESENTATION_REPRESENTATION (  '', ( #265 ), #319 ) ;
#19 = CYLINDRICAL_SURFACE ( 'NONE', #225, 0.1874999999999999722 ) ;
#20 = SURFACE_STYLE_USAGE ( .BOTH. , #6 ) ;
#21 =( LENGTH_UNIT ( ) NAMED_UNIT ( * ) SI_UNIT ( $, .METRE. ) );
#22 = FILL_AREA_STYLE_COLOUR ( '', #128 ) ;
#23 = CYLINDRICAL_SURFACE ( 'NONE', #244, 0.1874999999999997780 ) ;
#24 = APPLICATION_CONTEXT ( 'automotive_design' ) ;
#25 =( CONVERSION_BASED_UNIT ( 'INCH', #260 ) LENGTH_UNIT ( ) NAMED_UNIT ( #309 ) );
#26 = ORIENTED_EDGE ( 'NONE', *, *, #103, .T. ) ;
#27 = PRESENTATION_LAYER_ASSIGNMENT (  '', '', ( #252 ) ) ;
#28 = CARTESIAN_POINT ( 'NONE',  ( 0.1874999999999999722, 0.1875000000000000833, 0.000000000000000000 ) ) ;
#29 = ADVANCED_BREP_SHAPE_REPRESENTATION ( '49196', ( #136, #272, #353 ), #130 ) ;
#30 = APPLICATION_CONTEXT ( 'automotive_design' ) ;
#31 = DIMENSIONAL_EXPONENTS ( 1.000000000000000000, 0.000000000000000000, 0.000000000000000000, 0.000000000000000000, 0.000000000000000000, 0.000000000000000000, 0.000000000000000000 ) ;
#32 = ADVANCED_FACE ( 'NONE', ( #222 ), #76, .T. ) ;
#33 = VERTEX_POINT ( 'NONE', #290 ) ;
#34 = CARTESIAN_POINT ( 'NONE',  ( 0.000000000000000000, 0.5000000000000000000, 0.000000000000000000 ) ) ;
#35 = CARTESIAN_POINT ( 'NONE',  ( 1.224646799147353700E-16, 2.000000000000000000, 0.000000000000000000 ) ) ;
#36 = SURFACE_SIDE_STYLE ('',( #304 ) ) ;
#37 = LENGTH_MEASURE_WITH_UNIT ( LENGTH_MEASURE( 0.02539999999999999897 ), #188 );
#38 = EDGE_CURVE ( 'NONE', #33, #295, #228, .T. ) ;
#39 = FILL_AREA_STYLE_COLOUR ( '', #246 ) ;
#40 = CIRCLE ( 'NONE', #208, 0.1874999999999999722 ) ;
#41 = SURFACE_STYLE_FILL_AREA ( #307 ) ;
#42 =( NAMED_UNIT ( * ) SI_UNIT ( $, .STERADIAN. ) SOLID_ANGLE_UNIT ( ) );
#43 = CARTESIAN_POINT ( 'NONE',  ( 0.000000000000000000, 0.000000000000000000, -0.1874999999999999722 ) ) ;
#44 = DIRECTION ( 'NONE',  ( 0.000000000000000000, 0.000000000000000000, 1.000000000000000000 ) ) ;
#45 = VECTOR ( 'NONE', #83, 39.37007874015748143 ) ;
#46 = PRODUCT_DEFINITION_CONTEXT ( 'detailed design', #30, 'design' ) ;
#47 = DIRECTION ( 'NONE',  ( 1.000000000000000000, 0.000000000000000000, 0.000000000000000000 ) ) ;
#48 = ORIENTED_EDGE ( 'NONE', *, *, #7, .F. ) ;
#49 = DIRECTION ( 'NONE',  ( -1.205004597867861339E-16, 1.000000000000000000, -0.000000000000000000 ) ) ;
#50 = ORIENTED_EDGE ( 'NONE', *, *, #318, .F. ) ;
#51 = MECHANICAL_DESIGN_GEOMETRIC_PRESENTATION_REPRESENTATION (  '', ( #235 ), #111 ) ;
#52 = CARTESIAN_POINT ( 'NONE',  ( 0.000000000000000000, 0.000000000000000000, 0.000000000000000000 ) ) ;
#53 = CARTESIAN_POINT ( 'NONE',  ( 3.032153695949145708E-16, 0.5000000000000000000, 0.000000000000000000 ) ) ;
#54 = EDGE_LOOP ( 'NONE', ( #195, #72 ) ) ;
#55 = AXIS2_PLACEMENT_3D ( 'NONE', #35, #359, #13 ) ;
#56 = DIRECTION ( 'NONE',  ( 0.000000000000000000, 0.000000000000000000, -1.000000000000000000 ) ) ;
#57 = FILL_AREA_STYLE_COLOUR ( '', #255 ) ;
#58 = VERTEX_POINT ( 'NONE', #201 ) ;
#59 = CARTESIAN_POINT ( 'NONE',  ( -1.148106374200644017E-17, 0.000000000000000000, 0.000000000000000000 ) ) ;
#60 = CARTESIAN_POINT ( 'NONE',  ( -0.1874999999999993616, 0.5000000000000001110, 0.000000000000000000 ) ) ;
#61 = SURFACE_SIDE_STYLE ('',( #11 ) ) ;
#62 = DIMENSIONAL_EXPONENTS ( 1.000000000000000000, 0.000000000000000000, 0.000000000000000000, 0.000000000000000000, 0.000000000000000000, 0.000000000000000000, 0.000000000000000000 ) ;
#63 = AXIS2_PLACEMENT_3D ( 'NONE', #268, #49, #227 ) ;
#64 = DIRECTION ( 'NONE',  ( -1.000000000000000000, 0.000000000000000000, 0.000000000000000000 ) ) ;
#65 = FACE_OUTER_BOUND ( 'NONE', #294, .T. ) ;
#66 = EDGE_LOOP ( 'NONE', ( #110, #232, #135, #168 ) ) ;
#67 = MECHANICAL_DESIGN_GEOMETRIC_PRESENTATION_REPRESENTATION (  '', ( #74 ), #284 ) ;
#68 =( LENGTH_UNIT ( ) NAMED_UNIT ( * ) SI_UNIT ( $, .METRE. ) );
#69 = FILL_AREA_STYLE_COLOUR ( '', #234 ) ;
#70 = ADVANCED_FACE ( 'NONE', ( #321 ), #236, .F. ) ;
#71 = DIRECTION ( 'NONE',  ( 0.000000000000000000, 0.000000000000000000, -1.000000000000000000 ) ) ;
#72 = ORIENTED_EDGE ( 'NONE', *, *, #192, .F. ) ;
#73 = DIRECTION ( 'NONE',  ( 1.000000000000000000, 0.000000000000000000, 0.000000000000000000 ) ) ;
#74 = STYLED_ITEM ( 'NONE', ( #173 ), #89 ) ;
#75 = PRESENTATION_LAYER_ASSIGNMENT (  '', '', ( #157 ) ) ;
#76 = PLANE ( 'NONE',  #349 ) ;
#77 = EDGE_LOOP ( 'NONE', ( #161, #282 ) ) ;
#78 = CARTESIAN_POINT ( 'NONE',  ( -2.296212748401288034E-17, 0.1875000000000000555, 0.000000000000000000 ) ) ;
#79 = SURFACE_STYLE_USAGE ( .BOTH. , #342 ) ;
#80 = APPLICATION_PROTOCOL_DEFINITION ( 'draft international standard', 'automotive_design', 1998, #30 ) ;
#81 = FACE_OUTER_BOUND ( 'NONE', #323, .T. ) ;
#82 = CARTESIAN_POINT ( 'NONE',  ( 2.296212748401286801E-17, 0.1875000000000000833, 0.1874999999999999722 ) ) ;
#83 = DIRECTION ( 'NONE',  ( -1.205004597867861339E-16, 1.000000000000000000, -0.000000000000000000 ) ) ;
#84 = ORIENTED_EDGE ( 'NONE', *, *, #318, .T. ) ;
#85 = AXIS2_PLACEMENT_3D ( 'NONE', #164, #44, #191 ) ;
#86 = DIRECTION ( 'NONE',  ( -1.205004597867861339E-16, 1.000000000000000000, 0.000000000000000000 ) ) ;
#87 = ORIENTED_EDGE ( 'NONE', *, *, #194, .T. ) ;
#88 = DIMENSIONAL_EXPONENTS ( 1.000000000000000000, 0.000000000000000000, 0.000000000000000000, 0.000000000000000000, 0.000000000000000000, 0.000000000000000000, 0.000000000000000000 ) ;
#89 = ADVANCED_FACE ( 'NONE', ( #150 ), #163, .T. ) ;
#90 = CIRCLE ( 'NONE', #312, 0.1874999999999996669 ) ;
#91 = AXIS2_PLACEMENT_3D ( 'NONE', #369, #101, #341 ) ;
#92 = CIRCLE ( 'NONE', #144, 0.1874999999999999722 ) ;
#93 = COLOUR_RGB ( '',0.7921568627450980005, 0.8196078431372548767, 0.9333333333333333481 ) ;
#94 = DIRECTION ( 'NONE',  ( 0.000000000000000000, 0.000000000000000000, -1.000000000000000000 ) ) ;
#95 = LENGTH_MEASURE_WITH_UNIT ( LENGTH_MEASURE( 0.02539999999999999897 ), #223 );
#96 = CIRCLE ( 'NONE', #257, 0.1874999999999999722 ) ;
#97 = ORIENTED_EDGE ( 'NONE', *, *, #179, .F. ) ;
#98 = DIRECTION ( 'NONE',  ( -1.205004597867861339E-16, 1.000000000000000000, -0.000000000000000000 ) ) ;
#99 =( CONVERSION_BASED_UNIT ( 'INCH', #259 ) LENGTH_UNIT ( ) NAMED_UNIT ( #277 ) );
#100 = CARTESIAN_POINT ( 'NONE',  ( 0.000000000000000000, 0.5000000000000000000, 0.000000000000000000 ) ) ;
#101 = DIRECTION ( 'NONE',  ( -0.000000000000000000, -1.000000000000000000, -0.000000000000000000 ) ) ;
#102 = AXIS2_PLACEMENT_3D ( 'NONE', #53, #86, #204 ) ;
#103 = EDGE_CURVE ( 'NONE', #1, #253, #301, .T. ) ;
#104 = DIRECTION ( 'NONE',  ( -1.205004597867861339E-16, 1.000000000000000000, -0.000000000000000000 ) ) ;
#105 =( NAMED_UNIT ( * ) SI_UNIT ( $, .STERADIAN. ) SOLID_ANGLE_UNIT ( ) );
#106 = EDGE_CURVE ( 'NONE', #291, #368, #182, .T. ) ;
#107 = DIRECTION ( 'NONE',  ( -1.205004597867861339E-16, 1.000000000000000000, -0.000000000000000000 ) ) ;
#108 = DIRECTION ( 'NONE',  ( -0.000000000000000000, -1.000000000000000000, -0.000000000000000000 ) ) ;
#109 = DIRECTION ( 'NONE',  ( 0.000000000000000000, 1.000000000000000000, 0.000000000000000000 ) ) ;
#110 = ORIENTED_EDGE ( 'NONE', *, *, #218, .T. ) ;
#111 =( GEOMETRIC_REPRESENTATION_CONTEXT ( 3 ) GLOBAL_UNCERTAINTY_ASSIGNED_CONTEXT ( ( #149 ) ) GLOBAL_UNIT_ASSIGNED_CONTEXT ( ( #25, #263, #105 ) ) REPRESENTATION_CONTEXT ( 'NONE', 'WORKASPACE' ) );
#112 = PRESENTATION_STYLE_ASSIGNMENT (( #79 ) ) ;
#113 = CIRCLE ( 'NONE', #91, 0.1874999999999999722 ) ;
#114 = DIMENSIONAL_EXPONENTS ( 1.000000000000000000, 0.000000000000000000, 0.000000000000000000, 0.000000000000000000, 0.000000000000000000, 0.000000000000000000, 0.000000000000000000 ) ;
#115 = PRODUCT ( '49196', '49196', '', ( #314 ) ) ;
#116 = ORIENTED_EDGE ( 'NONE', *, *, #106, .F. ) ;
#117 = COLOUR_RGB ( '',0.7921568627450980005, 0.8196078431372548767, 0.9333333333333333481 ) ;
#118 = DIRECTION ( 'NONE',  ( -1.205004597867861339E-16, 1.000000000000000000, -0.000000000000000000 ) ) ;
#119 = AXIS2_PLACEMENT_3D ( 'NONE', #289, #143, #56 ) ;
#120 = UNCERTAINTY_MEASURE_WITH_UNIT (LENGTH_MEASURE( 1.000000000000000082E-05 ), #261, 'distance_accuracy_value', 'NONE');
#121 = UNCERTAINTY_MEASURE_WITH_UNIT (LENGTH_MEASURE( 1.000000000000000082E-05 ), #215, 'distance_accuracy_value', 'NONE');
#122 = DIRECTION ( 'NONE',  ( 1.000000000000000000, 1.205004597867861339E-16, 0.000000000000000000 ) ) ;
#123 = SURFACE_STYLE_USAGE ( .BOTH. , #283 ) ;
#124 = FACE_OUTER_BOUND ( 'NONE', #189, .T. ) ;
#125 =( NAMED_UNIT ( * ) SI_UNIT ( $, .STERADIAN. ) SOLID_ANGLE_UNIT ( ) );
#126 = CARTESIAN_POINT ( 'NONE',  ( 0.000000000000000000, 0.1875000000000000833, 0.000000000000000000 ) ) ;
#127 = SURFACE_SIDE_STYLE ('',( #41 ) ) ;
#128 = COLOUR_RGB ( '',1.000000000000000000, 0.000000000000000000, 0.000000000000000000 ) ;
#129 = DIRECTION ( 'NONE',  ( -0.000000000000000000, -1.000000000000000000, -0.000000000000000000 ) ) ;
#130 =( GEOMETRIC_REPRESENTATION_CONTEXT ( 3 ) GLOBAL_UNCERTAINTY_ASSIGNED_CONTEXT ( ( #212 ) ) GLOBAL_UNIT_ASSIGNED_CONTEXT ( ( #276, #285, #42 ) ) REPRESENTATION_CONTEXT ( 'NONE', 'WORKASPACE' ) );
#131 = SURFACE_STYLE_USAGE ( .BOTH. , #127 ) ;
#132 = SURFACE_STYLE_FILL_AREA ( #134 ) ;
#133 = SURFACE_STYLE_USAGE ( .BOTH. , #36 ) ;
#134 = FILL_AREA_STYLE ('',( #22 ) ) ;
#135 = ORIENTED_EDGE ( 'NONE', *, *, #273, .F. ) ;
#136 = MANIFOLD_SOLID_BREP ( 'Revolve - Cutting Edge', #360 ) ;
#137 = CARTESIAN_POINT ( 'NONE',  ( 0.000000000000000000, 0.1875000000000000833, 0.000000000000000000 ) ) ;
#138 = AXIS2_PLACEMENT_3D ( 'NONE', #17, #154, #73 ) ;
#139 = ADVANCED_FACE ( 'NONE', ( #248 ), #362, .F. ) ;
#140 = ORIENTED_EDGE ( 'NONE', *, *, #38, .F. ) ;
#141 = PRODUCT_DEFINITION_FORMATION_WITH_SPECIFIED_SOURCE ( 'ANY', '', #115, .NOT_KNOWN. ) ;
#142 = ORIENTED_EDGE ( 'NONE', *, *, #151, .T. ) ;
#143 = DIRECTION ( 'NONE',  ( -0.000000000000000000, -1.000000000000000000, -0.000000000000000000 ) ) ;
#144 = AXIS2_PLACEMENT_3D ( 'NONE', #287, #219, #169 ) ;
#145 = DIMENSIONAL_EXPONENTS ( 1.000000000000000000, 0.000000000000000000, 0.000000000000000000, 0.000000000000000000, 0.000000000000000000, 0.000000000000000000, 0.000000000000000000 ) ;
#146 = MECHANICAL_DESIGN_GEOMETRIC_PRESENTATION_REPRESENTATION (  '', ( #252 ), #343 ) ;
#147 = EDGE_CURVE ( 'NONE', #264, #58, #358, .T. ) ;
#148 =( LENGTH_UNIT ( ) NAMED_UNIT ( * ) SI_UNIT ( $, .METRE. ) );
#149 = UNCERTAINTY_MEASURE_WITH_UNIT (LENGTH_MEASURE( 1.000000000000000082E-05 ), #25, 'distance_accuracy_value', 'NONE');
#150 = FACE_OUTER_BOUND ( 'NONE', #66, .T. ) ;
#151 = EDGE_CURVE ( 'NONE', #253, #340, #280, .T. ) ;
#152 = SURFACE_SIDE_STYLE ('',( #231 ) ) ;
#153 = CARTESIAN_POINT ( 'NONE',  ( 2.296212748401286801E-17, 0.000000000000000000, 0.1874999999999999722 ) ) ;
#154 = DIRECTION ( 'NONE',  ( 0.000000000000000000, 0.000000000000000000, 1.000000000000000000 ) ) ;
#155 = FACE_OUTER_BOUND ( 'NONE', #229, .T. ) ;
#156 = AXIS2_PLACEMENT_3D ( 'NONE', #126, #256, #94 ) ;
#157 = STYLED_ITEM ( 'NONE', ( #162 ), #233 ) ;
#158 = LENGTH_MEASURE_WITH_UNIT ( LENGTH_MEASURE( 0.02539999999999999897 ), #2 );
#159 = MECHANICAL_DESIGN_GEOMETRIC_PRESENTATION_REPRESENTATION (  '', ( #335 ), #300 ) ;
#160 = APPLICATION_PROTOCOL_DEFINITION ( 'draft international standard', 'automotive_design', 1998, #24 ) ;
#161 = ORIENTED_EDGE ( 'NONE', *, *, #103, .F. ) ;
#162 = PRESENTATION_STYLE_ASSIGNMENT (( #131 ) ) ;
#163 = SPHERICAL_SURFACE ( 'NONE', #138, 0.1875000000000000555 ) ;
#164 = CARTESIAN_POINT ( 'NONE',  ( -2.296212748401288034E-17, 0.1875000000000000555, 0.000000000000000000 ) ) ;
#165 = ADVANCED_FACE ( 'NONE', ( #155 ), #337, .T. ) ;
#166 = PRESENTATION_STYLE_ASSIGNMENT (( #133 ) ) ;
#167 = CARTESIAN_POINT ( 'NONE',  ( 3.032153695949145708E-16, 0.5000000000000001110, 0.000000000000000000 ) ) ;
#168 = ORIENTED_EDGE ( 'NONE', *, *, #372, .T. ) ;
#169 = DIRECTION ( 'NONE',  ( 0.000000000000000000, 0.000000000000000000, -1.000000000000000000 ) ) ;
#170 = EDGE_LOOP ( 'NONE', ( #352, #317 ) ) ;
#171 = DIRECTION ( 'NONE',  ( -0.000000000000000000, -1.000000000000000000, -0.000000000000000000 ) ) ;
#172 = AXIS2_PLACEMENT_3D ( 'NONE', #306, #10, #122 ) ;
#173 = PRESENTATION_STYLE_ASSIGNMENT (( #281 ) ) ;
#174 = ORIENTED_EDGE ( 'NONE', *, *, #218, .F. ) ;
#175 = SURFACE_STYLE_USAGE ( .BOTH. , #152 ) ;
#176 = CARTESIAN_POINT ( 'NONE',  ( 2.296212748401286801E-17, 0.5000000000000000000, 0.1874999999999999722 ) ) ;
#177 = EDGE_CURVE ( 'NONE', #58, #295, #14, .T. ) ;
#178 = CIRCLE ( 'NONE', #63, 0.1874999999999996669 ) ;
#179 = EDGE_CURVE ( 'NONE', #1, #291, #193, .T. ) ;
#180 = VERTEX_POINT ( 'NONE', #366 ) ;
#181 = UNCERTAINTY_MEASURE_WITH_UNIT (LENGTH_MEASURE( 1.000000000000000082E-05 ), #217, 'distance_accuracy_value', 'NONE');
#182 = CIRCLE ( 'NONE', #156, 0.1874999999999999722 ) ;
#183 = FILL_AREA_STYLE ('',( #69 ) ) ;
#184 = CIRCLE ( 'NONE', #363, 0.1875000000000000555 ) ;
#185 = UNCERTAINTY_MEASURE_WITH_UNIT (LENGTH_MEASURE( 1.000000000000000082E-05 ), #278, 'distance_accuracy_value', 'NONE');
#186 = DIRECTION ( 'NONE',  ( -0.000000000000000000, -1.000000000000000000, -0.000000000000000000 ) ) ;
#187 =( NAMED_UNIT ( * ) PLANE_ANGLE_UNIT ( ) SI_UNIT ( $, .RADIAN. ) );
#188 =( LENGTH_UNIT ( ) NAMED_UNIT ( * ) SI_UNIT ( $, .METRE. ) );
#189 = EDGE_LOOP ( 'NONE', ( #26, #142, #202, #116, #97 ) ) ;
#190 = DIRECTION ( 'NONE',  ( -1.000000000000000000, 0.000000000000000000, 0.000000000000000000 ) ) ;
#191 = DIRECTION ( 'NONE',  ( 1.000000000000000000, 0.000000000000000000, 0.000000000000000000 ) ) ;
#192 = EDGE_CURVE ( 'NONE', #33, #264, #90, .T. ) ;
#193 = LINE ( 'NONE', #43, #210 ) ;
#194 = EDGE_CURVE ( 'NONE', #253, #1, #113, .T. ) ;
#195 = ORIENTED_EDGE ( 'NONE', *, *, #339, .F. ) ;
#196 = DIRECTION ( 'NONE',  ( 1.224646799147353207E-16, -0.000000000000000000, 1.000000000000000000 ) ) ;
#197 = ORIENTED_EDGE ( 'NONE', *, *, #203, .F. ) ;
#198 = PRODUCT_DEFINITION ( 'UNKNOWN', '', #141, #46 ) ;
#199 = DIRECTION ( 'NONE',  ( 0.000000000000000000, 0.000000000000000000, -1.000000000000000000 ) ) ;
#200 = PRESENTATION_LAYER_ASSIGNMENT (  '', '', ( #74 ) ) ;
#201 = CARTESIAN_POINT ( 'NONE',  ( -0.1874999999999996947, 2.000000000000000000, 0.000000000000000000 ) ) ;
#202 = ORIENTED_EDGE ( 'NONE', *, *, #372, .F. ) ;
#203 = EDGE_CURVE ( 'NONE', #180, #237, #275, .T. ) ;
#204 = DIRECTION ( 'NONE',  ( -1.000000000000000000, -1.205004597867861339E-16, 0.000000000000000000 ) ) ;
#205 = ORIENTED_EDGE ( 'NONE', *, *, #147, .F. ) ;
#206 =( NAMED_UNIT ( * ) PLANE_ANGLE_UNIT ( ) SI_UNIT ( $, .RADIAN. ) );
#207 = STYLED_ITEM ( 'NONE', ( #249 ), #136 ) ;
#208 = AXIS2_PLACEMENT_3D ( 'NONE', #350, #4, #71 ) ;
#209 = DIRECTION ( 'NONE',  ( -0.000000000000000000, -1.000000000000000000, -0.000000000000000000 ) ) ;
#210 = VECTOR ( 'NONE', #129, 39.37007874015748143 ) ;
#211 =( NAMED_UNIT ( * ) PLANE_ANGLE_UNIT ( ) SI_UNIT ( $, .RADIAN. ) );
#212 = UNCERTAINTY_MEASURE_WITH_UNIT (LENGTH_MEASURE( 1.000000000000000082E-05 ), #276, 'distance_accuracy_value', 'NONE');
#213 =( NAMED_UNIT ( * ) SI_UNIT ( $, .STERADIAN. ) SOLID_ANGLE_UNIT ( ) );
#214 = FILL_AREA_STYLE_COLOUR ( '', #117 ) ;
#215 =( CONVERSION_BASED_UNIT ( 'INCH', #158 ) LENGTH_UNIT ( ) NAMED_UNIT ( #240 ) );
#216 = VECTOR ( 'NONE', #209, 39.37007874015748143 ) ;
#217 =( CONVERSION_BASED_UNIT ( 'INCH', #95 ) LENGTH_UNIT ( ) NAMED_UNIT ( #62 ) );
#218 = EDGE_CURVE ( 'NONE', #340, #180, #92, .T. ) ;
#219 = DIRECTION ( 'NONE',  ( -0.000000000000000000, -1.000000000000000000, -0.000000000000000000 ) ) ;
#220 = PRESENTATION_STYLE_ASSIGNMENT (( #20 ) ) ;
#221 = ORIENTED_EDGE ( 'NONE', *, *, #339, .T. ) ;
#222 = FACE_OUTER_BOUND ( 'NONE', #77, .T. ) ;
#223 =( LENGTH_UNIT ( ) NAMED_UNIT ( * ) SI_UNIT ( $, .METRE. ) );
#224 =( NAMED_UNIT ( * ) PLANE_ANGLE_UNIT ( ) SI_UNIT ( $, .RADIAN. ) );
#225 = AXIS2_PLACEMENT_3D ( 'NONE', #356, #171, #199 ) ;
#226 = DIRECTION ( 'NONE',  ( 1.000000000000000000, 0.000000000000000000, -1.224646799147353207E-16 ) ) ;
#227 = DIRECTION ( 'NONE',  ( -1.000000000000000000, 0.000000000000000000, 0.000000000000000000 ) ) ;
#228 = LINE ( 'NONE', #347, #45 ) ;
#229 = EDGE_LOOP ( 'NONE', ( #197, #84, #270, #348 ) ) ;
#230 = ADVANCED_FACE ( 'NONE', ( #288 ), #23, .T. ) ;
#231 = SURFACE_STYLE_FILL_AREA ( #299 ) ;
#232 = ORIENTED_EDGE ( 'NONE', *, *, #203, .T. ) ;
#233 = ADVANCED_FACE ( 'NONE', ( #81 ), #19, .T. ) ;
#234 = COLOUR_RGB ( '',1.000000000000000000, 0.000000000000000000, 0.000000000000000000 ) ;
#235 = STYLED_ITEM ( 'NONE', ( #112 ), #32 ) ;
#236 = PLANE ( 'NONE',  #102 ) ;
#237 = VERTEX_POINT ( 'NONE', #59 ) ;
#238 = PRODUCT_DEFINITION_SHAPE ( 'NONE', 'NONE',  #198 ) ;
#239 = ORIENTED_EDGE ( 'NONE', *, *, #147, .T. ) ;
#240 = DIMENSIONAL_EXPONENTS ( 1.000000000000000000, 0.000000000000000000, 0.000000000000000000, 0.000000000000000000, 0.000000000000000000, 0.000000000000000000, 0.000000000000000000 ) ;
#241 = ORIENTED_EDGE ( 'NONE', *, *, #179, .T. ) ;
#242 = PRESENTATION_LAYER_ASSIGNMENT (  '', '', ( #235 ) ) ;
#243 = EDGE_LOOP ( 'NONE', ( #140, #296, #239, #48 ) ) ;
#244 = AXIS2_PLACEMENT_3D ( 'NONE', #267, #104, #344 ) ;
#245 = UNCERTAINTY_MEASURE_WITH_UNIT (LENGTH_MEASURE( 1.000000000000000082E-05 ), #305, 'distance_accuracy_value', 'NONE');
#246 = COLOUR_RGB ( '',1.000000000000000000, 0.000000000000000000, 0.000000000000000000 ) ;
#247 = LENGTH_MEASURE_WITH_UNIT ( LENGTH_MEASURE( 0.02539999999999999897 ), #68 );
#248 = FACE_OUTER_BOUND ( 'NONE', #170, .T. ) ;
#249 = PRESENTATION_STYLE_ASSIGNMENT (( #123 ) ) ;
#250 =( NAMED_UNIT ( * ) PLANE_ANGLE_UNIT ( ) SI_UNIT ( $, .RADIAN. ) );
#251 = DIRECTION ( 'NONE',  ( 0.000000000000000000, 0.000000000000000000, -1.000000000000000000 ) ) ;
#252 = STYLED_ITEM ( 'NONE', ( #220 ), #311 ) ;
#253 = VERTEX_POINT ( 'NONE', #176 ) ;
#254 =( NAMED_UNIT ( * ) SI_UNIT ( $, .STERADIAN. ) SOLID_ANGLE_UNIT ( ) );
#255 = COLOUR_RGB ( '',1.000000000000000000, 0.000000000000000000, 0.000000000000000000 ) ;
#256 = DIRECTION ( 'NONE',  ( -0.000000000000000000, -1.000000000000000000, -0.000000000000000000 ) ) ;
#257 = AXIS2_PLACEMENT_3D ( 'NONE', #137, #108, #320 ) ;
#258 = FILL_AREA_STYLE_COLOUR ( '', #365 ) ;
#259 = LENGTH_MEASURE_WITH_UNIT ( LENGTH_MEASURE( 0.02539999999999999897 ), #310 );
#260 = LENGTH_MEASURE_WITH_UNIT ( LENGTH_MEASURE( 0.02539999999999999897 ), #351 );
#261 =( CONVERSION_BASED_UNIT ( 'INCH', #16 ) LENGTH_UNIT ( ) NAMED_UNIT ( #31 ) );
#262 =( NAMED_UNIT ( * ) SI_UNIT ( $, .STERADIAN. ) SOLID_ANGLE_UNIT ( ) );
#263 =( NAMED_UNIT ( * ) PLANE_ANGLE_UNIT ( ) SI_UNIT ( $, .RADIAN. ) );
#264 = VERTEX_POINT ( 'NONE', #60 ) ;
#265 = STYLED_ITEM ( 'NONE', ( #166 ), #165 ) ;
#266 = UNCERTAINTY_MEASURE_WITH_UNIT (LENGTH_MEASURE( 1.000000000000000082E-05 ), #99, 'distance_accuracy_value', 'NONE');
#267 = CARTESIAN_POINT ( 'NONE',  ( 1.224646799147353700E-16, 2.000000000000000000, 0.000000000000000000 ) ) ;
#268 = CARTESIAN_POINT ( 'NONE',  ( 3.032153695949145708E-16, 0.5000000000000001110, 0.000000000000000000 ) ) ;
#269 = AXIS2_PLACEMENT_3D ( 'NONE', #78, #196, #226 ) ;
#270 = ORIENTED_EDGE ( 'NONE', *, *, #106, .T. ) ;
#271 = ORIENTED_EDGE ( 'NONE', *, *, #38, .T. ) ;
#272 = MANIFOLD_SOLID_BREP ( 'Revolve - Tool Body (Straight Shanked)', #364 ) ;
#273 = EDGE_CURVE ( 'NONE', #368, #237, #184, .T. ) ;
#274 = ORIENTED_EDGE ( 'NONE', *, *, #151, .F. ) ;
#275 = CIRCLE ( 'NONE', #269, 0.1875000000000000555 ) ;
#276 =( CONVERSION_BASED_UNIT ( 'INCH', #247 ) LENGTH_UNIT ( ) NAMED_UNIT ( #88 ) );
#277 = DIMENSIONAL_EXPONENTS ( 1.000000000000000000, 0.000000000000000000, 0.000000000000000000, 0.000000000000000000, 0.000000000000000000, 0.000000000000000000, 0.000000000000000000 ) ;
#278 =( CONVERSION_BASED_UNIT ( 'INCH', #5 ) LENGTH_UNIT ( ) NAMED_UNIT ( #114 ) );
#279 = SURFACE_STYLE_FILL_AREA ( #330 ) ;
#280 = LINE ( 'NONE', #153, #216 ) ;
#281 = SURFACE_STYLE_USAGE ( .BOTH. , #61 ) ;
#282 = ORIENTED_EDGE ( 'NONE', *, *, #194, .F. ) ;
#283 = SURFACE_SIDE_STYLE ('',( #333 ) ) ;
#284 =( GEOMETRIC_REPRESENTATION_CONTEXT ( 3 ) GLOBAL_UNCERTAINTY_ASSIGNED_CONTEXT ( ( #185 ) ) GLOBAL_UNIT_ASSIGNED_CONTEXT ( ( #278, #211, #125 ) ) REPRESENTATION_CONTEXT ( 'NONE', 'WORKASPACE' ) );
#285 =( NAMED_UNIT ( * ) PLANE_ANGLE_UNIT ( ) SI_UNIT ( $, .RADIAN. ) );
#286 = CIRCLE ( 'NONE', #361, 0.1874999999999998335 ) ;
#287 = CARTESIAN_POINT ( 'NONE',  ( 0.000000000000000000, 0.1875000000000000833, 0.000000000000000000 ) ) ;
#288 = FACE_OUTER_BOUND ( 'NONE', #243, .T. ) ;
#289 = CARTESIAN_POINT ( 'NONE',  ( 0.000000000000000000, 0.000000000000000000, 0.000000000000000000 ) ) ;
#290 = CARTESIAN_POINT ( 'NONE',  ( 0.1874999999999999722, 0.5000000000000001110, 2.296212748401284952E-17 ) ) ;
#291 = VERTEX_POINT ( 'NONE', #354 ) ;
#292 = FILL_AREA_STYLE_COLOUR ( '', #93 ) ;
#293 = MECHANICAL_DESIGN_GEOMETRIC_PRESENTATION_REPRESENTATION (  '', ( #157 ), #15 ) ;
#294 = EDGE_LOOP ( 'NONE', ( #221, #271, #370, #205 ) ) ;
#295 = VERTEX_POINT ( 'NONE', #357 ) ;
#296 = ORIENTED_EDGE ( 'NONE', *, *, #192, .T. ) ;
#297 = PRESENTATION_STYLE_ASSIGNMENT (( #175 ) ) ;
#298 =( GEOMETRIC_REPRESENTATION_CONTEXT ( 3 ) GLOBAL_UNCERTAINTY_ASSIGNED_CONTEXT ( ( #245 ) ) GLOBAL_UNIT_ASSIGNED_CONTEXT ( ( #305, #206, #213 ) ) REPRESENTATION_CONTEXT ( 'NONE', 'WORKASPACE' ) );
#299 = FILL_AREA_STYLE ('',( #292 ) ) ;
#300 =( GEOMETRIC_REPRESENTATION_CONTEXT ( 3 ) GLOBAL_UNCERTAINTY_ASSIGNED_CONTEXT ( ( #121 ) ) GLOBAL_UNIT_ASSIGNED_CONTEXT ( ( #215, #250, #346 ) ) REPRESENTATION_CONTEXT ( 'NONE', 'WORKASPACE' ) );
#301 = CIRCLE ( 'NONE', #326, 0.1874999999999999722 ) ;
#302 = ADVANCED_FACE ( 'NONE', ( #65 ), #12, .T. ) ;
#303 = CARTESIAN_POINT ( 'NONE',  ( -2.296212748401288034E-17, 0.1875000000000000555, 0.000000000000000000 ) ) ;
#304 = SURFACE_STYLE_FILL_AREA ( #183 ) ;
#305 =( CONVERSION_BASED_UNIT ( 'INCH', #37 ) LENGTH_UNIT ( ) NAMED_UNIT ( #145 ) );
#306 = CARTESIAN_POINT ( 'NONE',  ( 0.1874999999999999722, 2.000000000000000000, 0.000000000000000000 ) ) ;
#307 = FILL_AREA_STYLE ('',( #258 ) ) ;
#308 = PRESENTATION_LAYER_ASSIGNMENT (  '', '', ( #335 ) ) ;
#309 = DIMENSIONAL_EXPONENTS ( 1.000000000000000000, 0.000000000000000000, 0.000000000000000000, 0.000000000000000000, 0.000000000000000000, 0.000000000000000000, 0.000000000000000000 ) ;
#310 =( LENGTH_UNIT ( ) NAMED_UNIT ( * ) SI_UNIT ( $, .METRE. ) );
#311 = ADVANCED_FACE ( 'NONE', ( #124 ), #336, .T. ) ;
#312 = AXIS2_PLACEMENT_3D ( 'NONE', #167, #315, #313 ) ;
#313 = DIRECTION ( 'NONE',  ( -1.000000000000000000, 0.000000000000000000, 0.000000000000000000 ) ) ;
#314 = PRODUCT_CONTEXT ( 'NONE', #24, 'mechanical' ) ;
#315 = DIRECTION ( 'NONE',  ( -1.205004597867861339E-16, 1.000000000000000000, -0.000000000000000000 ) ) ;
#316 = DIRECTION ( 'NONE',  ( 0.000000000000000000, -0.000000000000000000, 1.000000000000000000 ) ) ;
#317 = ORIENTED_EDGE ( 'NONE', *, *, #7, .T. ) ;
#318 = EDGE_CURVE ( 'NONE', #180, #291, #96, .T. ) ;
#319 =( GEOMETRIC_REPRESENTATION_CONTEXT ( 3 ) GLOBAL_UNCERTAINTY_ASSIGNED_CONTEXT ( ( #120 ) ) GLOBAL_UNIT_ASSIGNED_CONTEXT ( ( #261, #224, #254 ) ) REPRESENTATION_CONTEXT ( 'NONE', 'WORKASPACE' ) );
#320 = DIRECTION ( 'NONE',  ( 0.000000000000000000, 0.000000000000000000, -1.000000000000000000 ) ) ;
#321 = FACE_OUTER_BOUND ( 'NONE', #54, .T. ) ;
#322 = DIRECTION ( 'NONE',  ( 0.000000000000000000, 0.000000000000000000, -1.000000000000000000 ) ) ;
#323 = EDGE_LOOP ( 'NONE', ( #274, #87, #241, #50, #174 ) ) ;
#324 =( NAMED_UNIT ( * ) PLANE_ANGLE_UNIT ( ) SI_UNIT ( $, .RADIAN. ) );
#325 = FILL_AREA_STYLE ('',( #57 ) ) ;
#326 = AXIS2_PLACEMENT_3D ( 'NONE', #34, #186, #251 ) ;
#327 =( NAMED_UNIT ( * ) SI_UNIT ( $, .STERADIAN. ) SOLID_ANGLE_UNIT ( ) );
#328 = PRODUCT_RELATED_PRODUCT_CATEGORY ( 'part', '', ( #115 ) ) ;
#329 = SHAPE_DEFINITION_REPRESENTATION ( #238, #29 ) ;
#330 = FILL_AREA_STYLE ('',( #39 ) ) ;
#331 = PRESENTATION_LAYER_ASSIGNMENT (  '', '', ( #207 ) ) ;
#332 = CARTESIAN_POINT ( 'NONE',  ( -0.1874999999999996392, 2.000000000000000000, 0.000000000000000000 ) ) ;
#333 = SURFACE_STYLE_FILL_AREA ( #367 ) ;
#334 = CARTESIAN_POINT ( 'NONE',  ( 0.000000000000000000, 0.5000000000000000000, -0.1874999999999999722 ) ) ;
#335 = STYLED_ITEM ( 'NONE', ( #297 ), #272 ) ;
#336 = CYLINDRICAL_SURFACE ( 'NONE', #119, 0.1874999999999999722 ) ;
#337 = SPHERICAL_SURFACE ( 'NONE', #85, 0.1875000000000000555 ) ;
#338 = DIRECTION ( 'NONE',  ( -1.000000000000000000, 0.000000000000000000, 0.000000000000000000 ) ) ;
#339 = EDGE_CURVE ( 'NONE', #264, #33, #178, .T. ) ;
#340 = VERTEX_POINT ( 'NONE', #82 ) ;
#341 = DIRECTION ( 'NONE',  ( 0.000000000000000000, 0.000000000000000000, -1.000000000000000000 ) ) ;
#342 = SURFACE_SIDE_STYLE ('',( #132 ) ) ;
#343 =( GEOMETRIC_REPRESENTATION_CONTEXT ( 3 ) GLOBAL_UNCERTAINTY_ASSIGNED_CONTEXT ( ( #266 ) ) GLOBAL_UNIT_ASSIGNED_CONTEXT ( ( #99, #187, #262 ) ) REPRESENTATION_CONTEXT ( 'NONE', 'WORKASPACE' ) );
#344 = DIRECTION ( 'NONE',  ( -1.000000000000000000, 0.000000000000000000, 0.000000000000000000 ) ) ;
#345 = DIRECTION ( 'NONE',  ( 0.000000000000000000, 0.000000000000000000, 1.000000000000000000 ) ) ;
#346 =( NAMED_UNIT ( * ) SI_UNIT ( $, .STERADIAN. ) SOLID_ANGLE_UNIT ( ) );
#347 = CARTESIAN_POINT ( 'NONE',  ( 0.1874999999999999167, 2.000000000000000000, 2.296212748401284644E-17 ) ) ;
#348 = ORIENTED_EDGE ( 'NONE', *, *, #273, .T. ) ;
#349 = AXIS2_PLACEMENT_3D ( 'NONE', #100, #109, #316 ) ;
#350 = CARTESIAN_POINT ( 'NONE',  ( 0.000000000000000000, 0.1875000000000000833, 0.000000000000000000 ) ) ;
#351 =( LENGTH_UNIT ( ) NAMED_UNIT ( * ) SI_UNIT ( $, .METRE. ) );
#352 = ORIENTED_EDGE ( 'NONE', *, *, #177, .T. ) ;
#353 = AXIS2_PLACEMENT_3D ( 'NONE', #52, #345, #47 ) ;
#354 = CARTESIAN_POINT ( 'NONE',  ( 0.000000000000000000, 0.1875000000000000833, -0.1874999999999999722 ) ) ;
#355 = PRESENTATION_LAYER_ASSIGNMENT (  '', '', ( #265 ) ) ;
#356 = CARTESIAN_POINT ( 'NONE',  ( 0.000000000000000000, 0.000000000000000000, 0.000000000000000000 ) ) ;
#357 = CARTESIAN_POINT ( 'NONE',  ( 0.1874999999999999722, 2.000000000000000000, 2.296212748401284952E-17 ) ) ;
#358 = LINE ( 'NONE', #332, #8 ) ;
#359 = DIRECTION ( 'NONE',  ( -1.205004597867861339E-16, 1.000000000000000000, -0.000000000000000000 ) ) ;
#360 = CLOSED_SHELL ( 'NONE', ( #89, #311, #32, #233, #165 ) ) ;
#361 = AXIS2_PLACEMENT_3D ( 'NONE', #373, #107, #190 ) ;
#362 = PLANE ( 'NONE',  #172 ) ;
#363 = AXIS2_PLACEMENT_3D ( 'NONE', #303, #322, #64 ) ;
#364 = CLOSED_SHELL ( 'NONE', ( #302, #70, #230, #139 ) ) ;
#365 = COLOUR_RGB ( '',1.000000000000000000, 0.000000000000000000, 0.000000000000000000 ) ;
#366 = CARTESIAN_POINT ( 'NONE',  ( -0.1875000000000000555, 0.1875000000000000833, 2.296212748401287109E-17 ) ) ;
#367 = FILL_AREA_STYLE ('',( #214 ) ) ;
#368 = VERTEX_POINT ( 'NONE', #28 ) ;
#369 = CARTESIAN_POINT ( 'NONE',  ( 0.000000000000000000, 0.5000000000000000000, 0.000000000000000000 ) ) ;
#370 = ORIENTED_EDGE ( 'NONE', *, *, #177, .F. ) ;
#371 = MECHANICAL_DESIGN_GEOMETRIC_PRESENTATION_REPRESENTATION (  '', ( #207 ), #298 ) ;
#372 = EDGE_CURVE ( 'NONE', #368, #340, #40, .T. ) ;
#373 = CARTESIAN_POINT ( 'NONE',  ( 1.224646799147353700E-16, 2.000000000000000000, 0.000000000000000000 ) ) ;
ENDSEC;
END-ISO-10303-21;
