ISO-10303-21;
HEADER;
FILE_DESCRIPTION (( 'STEP AP214' ),
    '1' );
FILE_NAME ('Micro_DT-250-030-010.STEP',
    '2021-09-02T21:17:46',
    ( '' ),
    ( '' ),
    'SwSTEP 2.0',
    'SolidWorks 2020',
    '' );
FILE_SCHEMA (( 'AUTOMOTIVE_DESIGN' ));
ENDSEC;

DATA;
#1 = DIRECTION ( 'NONE',  ( 0.0000000000000000000, 0.0000000000000000000, 1.000000000000000000 ) ) ;
#2 = FACE_OUTER_BOUND ( 'NONE', #77, .T. ) ;
#3 = PRODUCT_DEFINITION_SHAPE ( 'NONE', 'NONE',  #197 ) ;
#4 = CARTESIAN_POINT ( 'NONE',  ( 0.0000000000000000000, 0.0000000000000000000, 2.500000000000000000 ) ) ;
#5 = CARTESIAN_POINT ( 'NONE',  ( -0.1250000000000000000, 0.0000000000000000000, 2.485000000000000320 ) ) ;
#6 =( CONVERSION_BASED_UNIT ( 'INCH', #146 ) LENGTH_UNIT ( ) NAMED_UNIT ( #118 ) );
#7 = SURFACE_SIDE_STYLE ('',( #104 ) ) ;
#8 = AXIS2_PLACEMENT_3D ( 'NONE', #112, #81, #143 ) ;
#9 = ORIENTED_EDGE ( 'NONE', *, *, #192, .T. ) ;
#10 = VERTEX_POINT ( 'NONE', #59 ) ;
#11 = ORIENTED_EDGE ( 'NONE', *, *, #82, .F. ) ;
#12 = UNCERTAINTY_MEASURE_WITH_UNIT (LENGTH_MEASURE( 1.000000000000000082E-05 ), #74, 'distance_accuracy_value', 'NONE');
#13 = STYLED_ITEM ( 'NONE', ( #40 ), #156 ) ;
#14 = DIRECTION ( 'NONE',  ( 0.0000000000000000000, 0.0000000000000000000, -1.000000000000000000 ) ) ;
#15 = CARTESIAN_POINT ( 'NONE',  ( -0.1250000000000000000, 0.0000000000000000000, 0.0000000000000000000 ) ) ;
#16 = CARTESIAN_POINT ( 'NONE',  ( 0.0000000000000000000, 0.0000000000000000000, 2.500000000000000000 ) ) ;
#17 = DIMENSIONAL_EXPONENTS ( 1.000000000000000000, 0.0000000000000000000, 0.0000000000000000000, 0.0000000000000000000, 0.0000000000000000000, 0.0000000000000000000, 0.0000000000000000000 ) ;
#18 = CARTESIAN_POINT ( 'NONE',  ( 0.0000000000000000000, 0.0000000000000000000, 2.485000000000000320 ) ) ;
#19 = AXIS2_PLACEMENT_3D ( 'NONE', #123, #159, #186 ) ;
#20 = FACE_OUTER_BOUND ( 'NONE', #137, .T. ) ;
#21 = PRODUCT_DEFINITION_FORMATION_WITH_SPECIFIED_SOURCE ( 'ANY', '', #171, .NOT_KNOWN. ) ;
#22 = APPLICATION_CONTEXT ( 'automotive_design' ) ;
#23 =( LENGTH_UNIT ( ) NAMED_UNIT ( * ) SI_UNIT ( $, .METRE. ) );
#24 = ADVANCED_FACE ( 'NONE', ( #120 ), #51, .T. ) ;
#25 = COLOUR_RGB ( '',0.7921568627450980005, 0.8196078431372548767, 0.9333333333333333481 ) ;
#26 = ORIENTED_EDGE ( 'NONE', *, *, #117, .T. ) ;
#27 = SHAPE_DEFINITION_REPRESENTATION ( #3, #156 ) ;
#28 = ORIENTED_EDGE ( 'NONE', *, *, #69, .T. ) ;
#29 = CARTESIAN_POINT ( 'NONE',  ( 0.1250000000000000000, 1.530808498934191509E-17, 2.485000000000000320 ) ) ;
#30 = AXIS2_PLACEMENT_3D ( 'NONE', #67, #169, #33 ) ;
#31 = DIRECTION ( 'NONE',  ( 1.000000000000000000, 0.0000000000000000000, 0.0000000000000000000 ) ) ;
#32 = CARTESIAN_POINT ( 'NONE',  ( 0.0000000000000000000, 0.0000000000000000000, 2.500000000000000000 ) ) ;
#33 = DIRECTION ( 'NONE',  ( -1.000000000000000000, 0.0000000000000000000, 0.0000000000000000000 ) ) ;
#34 = VECTOR ( 'NONE', #168, 39.37007874015748143 ) ;
#35 = EDGE_CURVE ( 'NONE', #165, #109, #183, .T. ) ;
#36 = PLANE ( 'NONE',  #19 ) ;
#37 = CLOSED_SHELL ( 'NONE', ( #107, #86, #55, #24, #103, #43 ) ) ;
#38 = PRESENTATION_LAYER_ASSIGNMENT (  '', '', ( #98 ) ) ;
#39 = DIRECTION ( 'NONE',  ( 1.000000000000000000, 0.0000000000000000000, 0.0000000000000000000 ) ) ;
#40 = PRESENTATION_STYLE_ASSIGNMENT (( #87 ) ) ;
#41 = DIRECTION ( 'NONE',  ( 1.000000000000000000, 0.0000000000000000000, 0.0000000000000000000 ) ) ;
#42 = ORIENTED_EDGE ( 'NONE', *, *, #90, .T. ) ;
#43 = ADVANCED_FACE ( 'NONE', ( #48 ), #161, .T. ) ;
#44 = ORIENTED_EDGE ( 'NONE', *, *, #119, .T. ) ;
#45 = AXIS2_PLACEMENT_3D ( 'NONE', #50, #166, #113 ) ;
#46 = ORIENTED_EDGE ( 'NONE', *, *, #131, .F. ) ;
#47 = FACE_OUTER_BOUND ( 'NONE', #108, .T. ) ;
#48 = FACE_OUTER_BOUND ( 'NONE', #163, .T. ) ;
#49 = DIRECTION ( 'NONE',  ( 0.0000000000000000000, 0.0000000000000000000, -1.000000000000000000 ) ) ;
#50 = CARTESIAN_POINT ( 'NONE',  ( 0.0000000000000000000, 0.0000000000000000000, 2.500000000000000000 ) ) ;
#51 = PLANE ( 'NONE',  #133 ) ;
#52 = MECHANICAL_DESIGN_GEOMETRIC_PRESENTATION_REPRESENTATION (  '', ( #13 ), #141 ) ;
#53 = LENGTH_MEASURE_WITH_UNIT ( LENGTH_MEASURE( 0.02539999999999999897 ), #23 );
#54 = LENGTH_MEASURE_WITH_UNIT ( LENGTH_MEASURE( 0.02539999999999999897 ), #56 );
#55 = ADVANCED_FACE ( 'NONE', ( #170 ), #155, .T. ) ;
#56 =( LENGTH_UNIT ( ) NAMED_UNIT ( * ) SI_UNIT ( $, .METRE. ) );
#57 =( CONVERSION_BASED_UNIT ( 'INCH', #54 ) LENGTH_UNIT ( ) NAMED_UNIT ( #101 ) );
#58 = EDGE_LOOP ( 'NONE', ( #195, #62, #76, #194 ) ) ;
#59 = CARTESIAN_POINT ( 'NONE',  ( 0.1250000000000000000, 1.530808498934191509E-17, 0.0000000000000000000 ) ) ;
#60 = COLOUR_RGB ( '',0.7921568627450980005, 0.8196078431372548767, 0.9333333333333333481 ) ;
#61 = PRODUCT_CONTEXT ( 'NONE', #22, 'mechanical' ) ;
#62 = ORIENTED_EDGE ( 'NONE', *, *, #188, .T. ) ;
#63 = UNCERTAINTY_MEASURE_WITH_UNIT (LENGTH_MEASURE( 1.000000000000000082E-05 ), #57, 'distance_accuracy_value', 'NONE');
#64 = AXIS2_PLACEMENT_3D ( 'NONE', #4, #68, #100 ) ;
#65 = SURFACE_SIDE_STYLE ('',( #83 ) ) ;
#66 = FILL_AREA_STYLE ('',( #199 ) ) ;
#67 = CARTESIAN_POINT ( 'NONE',  ( 0.0000000000000000000, 0.0000000000000000000, 2.500000000000000000 ) ) ;
#68 = DIRECTION ( 'NONE',  ( -0.0000000000000000000, -0.0000000000000000000, -1.000000000000000000 ) ) ;
#69 = EDGE_CURVE ( 'NONE', #89, #10, #158, .T. ) ;
#70 = CARTESIAN_POINT ( 'NONE',  ( 0.0000000000000000000, 0.0000000000000000000, 2.485000000000000320 ) ) ;
#71 = VECTOR ( 'NONE', #132, 39.37007874015748143 ) ;
#72 = CONICAL_SURFACE ( 'NONE', #177, 0.1100000000000001948, 0.7853981633974517207 ) ;
#73 = LINE ( 'NONE', #173, #71 ) ;
#74 =( CONVERSION_BASED_UNIT ( 'INCH', #53 ) LENGTH_UNIT ( ) NAMED_UNIT ( #17 ) );
#75 = ORIENTED_EDGE ( 'NONE', *, *, #90, .F. ) ;
#76 = ORIENTED_EDGE ( 'NONE', *, *, #35, .T. ) ;
#77 = EDGE_LOOP ( 'NONE', ( #44, #28, #42, #121 ) ) ;
#78 = AXIS2_PLACEMENT_3D ( 'NONE', #96, #110, #182 ) ;
#79 = DIRECTION ( 'NONE',  ( 0.0000000000000000000, 0.0000000000000000000, -1.000000000000000000 ) ) ;
#80 = APPLICATION_CONTEXT ( 'automotive_design' ) ;
#81 = DIRECTION ( 'NONE',  ( 0.0000000000000000000, 0.0000000000000000000, 1.000000000000000000 ) ) ;
#82 = EDGE_CURVE ( 'NONE', #150, #176, #193, .T. ) ;
#83 = SURFACE_STYLE_FILL_AREA ( #66 ) ;
#84 = CARTESIAN_POINT ( 'NONE',  ( 0.1100000000000001948, 1.438959988998141146E-17, 2.500000000000000000 ) ) ;
#85 =( NAMED_UNIT ( * ) PLANE_ANGLE_UNIT ( ) SI_UNIT ( $, .RADIAN. ) );
#86 = ADVANCED_FACE ( 'NONE', ( #2 ), #124, .T. ) ;
#87 = SURFACE_STYLE_USAGE ( .BOTH. , #7 ) ;
#88 = CIRCLE ( 'NONE', #115, 0.1250000000000000000 ) ;
#89 = VERTEX_POINT ( 'NONE', #29 ) ;
#90 = EDGE_CURVE ( 'NONE', #10, #109, #172, .T. ) ;
#91 = EDGE_LOOP ( 'NONE', ( #26, #135 ) ) ;
#92 = ORIENTED_EDGE ( 'NONE', *, *, #192, .F. ) ;
#93 = ORIENTED_EDGE ( 'NONE', *, *, #119, .F. ) ;
#94 = SURFACE_STYLE_USAGE ( .BOTH. , #65 ) ;
#95 = DIRECTION ( 'NONE',  ( -0.0000000000000000000, -0.0000000000000000000, -1.000000000000000000 ) ) ;
#96 = CARTESIAN_POINT ( 'NONE',  ( 0.0000000000000000000, 0.0000000000000000000, 0.0000000000000000000 ) ) ;
#97 = DIRECTION ( 'NONE',  ( -1.000000000000000000, 0.0000000000000000000, 0.0000000000000000000 ) ) ;
#98 = STYLED_ITEM ( 'NONE', ( #142 ), #187 ) ;
#99 = VECTOR ( 'NONE', #95, 39.37007874015748143 ) ;
#100 = DIRECTION ( 'NONE',  ( -1.000000000000000000, 0.0000000000000000000, 0.0000000000000000000 ) ) ;
#101 = DIMENSIONAL_EXPONENTS ( 1.000000000000000000, 0.0000000000000000000, 0.0000000000000000000, 0.0000000000000000000, 0.0000000000000000000, 0.0000000000000000000, 0.0000000000000000000 ) ;
#102 = FILL_AREA_STYLE ('',( #174 ) ) ;
#103 = ADVANCED_FACE ( 'NONE', ( #20 ), #36, .F. ) ;
#104 = SURFACE_STYLE_FILL_AREA ( #102 ) ;
#105 = MECHANICAL_DESIGN_GEOMETRIC_PRESENTATION_REPRESENTATION (  '', ( #98 ), #198 ) ;
#106 = APPLICATION_PROTOCOL_DEFINITION ( 'draft international standard', 'automotive_design', 1998, #80 ) ;
#107 = ADVANCED_FACE ( 'NONE', ( #47 ), #72, .T. ) ;
#108 = EDGE_LOOP ( 'NONE', ( #11, #196, #93, #92 ) ) ;
#109 = VERTEX_POINT ( 'NONE', #15 ) ;
#110 = DIRECTION ( 'NONE',  ( 0.0000000000000000000, 0.0000000000000000000, 1.000000000000000000 ) ) ;
#111 = CARTESIAN_POINT ( 'NONE',  ( 0.0000000000000000000, 0.0000000000000000000, 2.500000000000000000 ) ) ;
#112 = CARTESIAN_POINT ( 'NONE',  ( 0.0000000000000000000, 0.0000000000000000000, 0.0000000000000000000 ) ) ;
#113 = DIRECTION ( 'NONE',  ( 1.000000000000000000, 0.0000000000000000000, 0.0000000000000000000 ) ) ;
#114 = CIRCLE ( 'NONE', #8, 0.1250000000000000000 ) ;
#115 = AXIS2_PLACEMENT_3D ( 'NONE', #70, #128, #39 ) ;
#116 =( NAMED_UNIT ( * ) SI_UNIT ( $, .STERADIAN. ) SOLID_ANGLE_UNIT ( ) );
#117 = EDGE_CURVE ( 'NONE', #176, #150, #189, .T. ) ;
#118 = DIMENSIONAL_EXPONENTS ( 1.000000000000000000, 0.0000000000000000000, 0.0000000000000000000, 0.0000000000000000000, 0.0000000000000000000, 0.0000000000000000000, 0.0000000000000000000 ) ;
#119 = EDGE_CURVE ( 'NONE', #165, #89, #149, .T. ) ;
#120 = FACE_OUTER_BOUND ( 'NONE', #91, .T. ) ;
#121 = ORIENTED_EDGE ( 'NONE', *, *, #35, .F. ) ;
#122 = PRESENTATION_LAYER_ASSIGNMENT (  '', '', ( #13 ) ) ;
#123 = CARTESIAN_POINT ( 'NONE',  ( 0.0000000000000000000, 0.0000000000000000000, 0.0000000000000000000 ) ) ;
#124 = CYLINDRICAL_SURFACE ( 'NONE', #30, 0.1250000000000000000 ) ;
#125 = DIRECTION ( 'NONE',  ( 1.000000000000000000, 0.0000000000000000000, -0.0000000000000000000 ) ) ;
#126 = CARTESIAN_POINT ( 'NONE',  ( 0.0000000000000000000, 0.0000000000000000000, 2.500000000000000000 ) ) ;
#127 = DIRECTION ( 'NONE',  ( -1.000000000000000000, 0.0000000000000000000, 0.0000000000000000000 ) ) ;
#128 = DIRECTION ( 'NONE',  ( 0.0000000000000000000, 0.0000000000000000000, -1.000000000000000000 ) ) ;
#129 = AXIS2_PLACEMENT_3D ( 'NONE', #134, #136, #41 ) ;
#130 =( NAMED_UNIT ( * ) SI_UNIT ( $, .STERADIAN. ) SOLID_ANGLE_UNIT ( ) );
#131 = EDGE_CURVE ( 'NONE', #109, #10, #114, .T. ) ;
#132 = DIRECTION ( 'NONE',  ( -0.7071067811865499042, 0.0000000000000000000, -0.7071067811865451302 ) ) ;
#133 = AXIS2_PLACEMENT_3D ( 'NONE', #32, #1, #125 ) ;
#134 = CARTESIAN_POINT ( 'NONE',  ( 0.0000000000000000000, 0.0000000000000000000, 0.0000000000000000000 ) ) ;
#135 = ORIENTED_EDGE ( 'NONE', *, *, #82, .T. ) ;
#136 = DIRECTION ( 'NONE',  ( 0.0000000000000000000, 0.0000000000000000000, 1.000000000000000000 ) ) ;
#137 = EDGE_LOOP ( 'NONE', ( #46, #75 ) ) ;
#138 = ORIENTED_EDGE ( 'NONE', *, *, #117, .F. ) ;
#139 = UNCERTAINTY_MEASURE_WITH_UNIT (LENGTH_MEASURE( 1.000000000000000082E-05 ), #6, 'distance_accuracy_value', 'NONE');
#140 = CARTESIAN_POINT ( 'NONE',  ( 0.1100000000000001948, 1.347111479062090784E-17, 2.500000000000000000 ) ) ;
#141 =( GEOMETRIC_REPRESENTATION_CONTEXT ( 3 ) GLOBAL_UNCERTAINTY_ASSIGNED_CONTEXT ( ( #139 ) ) GLOBAL_UNIT_ASSIGNED_CONTEXT ( ( #6, #85, #130 ) ) REPRESENTATION_CONTEXT ( 'NONE', 'WORKASPACE' ) );
#142 = PRESENTATION_STYLE_ASSIGNMENT (( #94 ) ) ;
#143 = DIRECTION ( 'NONE',  ( 1.000000000000000000, 0.0000000000000000000, 0.0000000000000000000 ) ) ;
#144 = CARTESIAN_POINT ( 'NONE',  ( -0.1250000000000000000, 0.0000000000000000000, 2.500000000000000000 ) ) ;
#145 = LINE ( 'NONE', #140, #34 ) ;
#146 = LENGTH_MEASURE_WITH_UNIT ( LENGTH_MEASURE( 0.02539999999999999897 ), #148 );
#147 = AXIS2_PLACEMENT_3D ( 'NONE', #18, #49, #31 ) ;
#148 =( LENGTH_UNIT ( ) NAMED_UNIT ( * ) SI_UNIT ( $, .METRE. ) );
#149 = CIRCLE ( 'NONE', #147, 0.1250000000000000000 ) ;
#150 = VERTEX_POINT ( 'NONE', #84 ) ;
#151 = ORIENTED_EDGE ( 'NONE', *, *, #188, .F. ) ;
#152 = VECTOR ( 'NONE', #154, 39.37007874015748143 ) ;
#153 = ORIENTED_EDGE ( 'NONE', *, *, #164, .F. ) ;
#154 = DIRECTION ( 'NONE',  ( -0.0000000000000000000, -0.0000000000000000000, -1.000000000000000000 ) ) ;
#155 = CYLINDRICAL_SURFACE ( 'NONE', #64, 0.1250000000000000000 ) ;
#156 = ADVANCED_BREP_SHAPE_REPRESENTATION ( 'Micro_DT-250-030-010', ( #187, #129 ), #162 ) ;
#157 = CARTESIAN_POINT ( 'NONE',  ( -0.1100000000000001948, 0.0000000000000000000, 2.500000000000000000 ) ) ;
#158 = LINE ( 'NONE', #185, #99 ) ;
#159 = DIRECTION ( 'NONE',  ( 0.0000000000000000000, 0.0000000000000000000, 1.000000000000000000 ) ) ;
#160 =( NAMED_UNIT ( * ) SI_UNIT ( $, .STERADIAN. ) SOLID_ANGLE_UNIT ( ) );
#161 = CONICAL_SURFACE ( 'NONE', #180, 0.1100000000000001948, 0.7853981633974517207 ) ;
#162 =( GEOMETRIC_REPRESENTATION_CONTEXT ( 3 ) GLOBAL_UNCERTAINTY_ASSIGNED_CONTEXT ( ( #63 ) ) GLOBAL_UNIT_ASSIGNED_CONTEXT ( ( #57, #190, #160 ) ) REPRESENTATION_CONTEXT ( 'NONE', 'WORKASPACE' ) );
#163 = EDGE_LOOP ( 'NONE', ( #153, #138, #9, #151 ) ) ;
#164 = EDGE_CURVE ( 'NONE', #150, #89, #145, .T. ) ;
#165 = VERTEX_POINT ( 'NONE', #5 ) ;
#166 = DIRECTION ( 'NONE',  ( 0.0000000000000000000, 0.0000000000000000000, 1.000000000000000000 ) ) ;
#167 = DIRECTION ( 'NONE',  ( 1.000000000000000000, 0.0000000000000000000, 0.0000000000000000000 ) ) ;
#168 = DIRECTION ( 'NONE',  ( 0.7071067811865499042, 8.659560562354961208E-17, -0.7071067811865451302 ) ) ;
#169 = DIRECTION ( 'NONE',  ( -0.0000000000000000000, -0.0000000000000000000, -1.000000000000000000 ) ) ;
#170 = FACE_OUTER_BOUND ( 'NONE', #58, .T. ) ;
#171 = PRODUCT ( 'Micro_DT-250-030-010', 'Micro_DT-250-030-010', '', ( #61 ) ) ;
#172 = CIRCLE ( 'NONE', #78, 0.1250000000000000000 ) ;
#173 = CARTESIAN_POINT ( 'NONE',  ( -0.1100000000000001948, 0.0000000000000000000, 2.500000000000000000 ) ) ;
#174 = FILL_AREA_STYLE_COLOUR ( '', #25 ) ;
#175 =( NAMED_UNIT ( * ) PLANE_ANGLE_UNIT ( ) SI_UNIT ( $, .RADIAN. ) );
#176 = VERTEX_POINT ( 'NONE', #157 ) ;
#177 = AXIS2_PLACEMENT_3D ( 'NONE', #111, #79, #97 ) ;
#178 = PRODUCT_RELATED_PRODUCT_CATEGORY ( 'part', '', ( #171 ) ) ;
#179 = AXIS2_PLACEMENT_3D ( 'NONE', #16, #184, #167 ) ;
#180 = AXIS2_PLACEMENT_3D ( 'NONE', #126, #14, #127 ) ;
#181 = PRODUCT_DEFINITION_CONTEXT ( 'detailed design', #80, 'design' ) ;
#182 = DIRECTION ( 'NONE',  ( 1.000000000000000000, 0.0000000000000000000, 0.0000000000000000000 ) ) ;
#183 = LINE ( 'NONE', #144, #152 ) ;
#184 = DIRECTION ( 'NONE',  ( 0.0000000000000000000, 0.0000000000000000000, 1.000000000000000000 ) ) ;
#185 = CARTESIAN_POINT ( 'NONE',  ( 0.1250000000000000000, 1.530808498934191509E-17, 2.500000000000000000 ) ) ;
#186 = DIRECTION ( 'NONE',  ( 1.000000000000000000, 0.0000000000000000000, -0.0000000000000000000 ) ) ;
#187 = MANIFOLD_SOLID_BREP ( 'Chamfer', #37 ) ;
#188 = EDGE_CURVE ( 'NONE', #89, #165, #88, .T. ) ;
#189 = CIRCLE ( 'NONE', #179, 0.1100000000000001948 ) ;
#190 =( NAMED_UNIT ( * ) PLANE_ANGLE_UNIT ( ) SI_UNIT ( $, .RADIAN. ) );
#191 = APPLICATION_PROTOCOL_DEFINITION ( 'draft international standard', 'automotive_design', 1998, #22 ) ;
#192 = EDGE_CURVE ( 'NONE', #176, #165, #73, .T. ) ;
#193 = CIRCLE ( 'NONE', #45, 0.1100000000000001948 ) ;
#194 = ORIENTED_EDGE ( 'NONE', *, *, #131, .T. ) ;
#195 = ORIENTED_EDGE ( 'NONE', *, *, #69, .F. ) ;
#196 = ORIENTED_EDGE ( 'NONE', *, *, #164, .T. ) ;
#197 = PRODUCT_DEFINITION ( 'UNKNOWN', '', #21, #181 ) ;
#198 =( GEOMETRIC_REPRESENTATION_CONTEXT ( 3 ) GLOBAL_UNCERTAINTY_ASSIGNED_CONTEXT ( ( #12 ) ) GLOBAL_UNIT_ASSIGNED_CONTEXT ( ( #74, #175, #116 ) ) REPRESENTATION_CONTEXT ( 'NONE', 'WORKASPACE' ) );
#199 = FILL_AREA_STYLE_COLOUR ( '', #60 ) ;
ENDSEC;
END-ISO-10303-21;
