ISO-10303-21;
HEADER;
FILE_DESCRIPTION (( 'STEP AP214' ),
    '1' );
FILE_NAME ('44402.STEP',
    '2023-06-22T20:29:05',
    ( '' ),
    ( '' ),
    'SwSTEP 2.0',
    'SolidWorks 2023',
    '' );
FILE_SCHEMA (( 'AUTOMOTIVE_DESIGN' ));
ENDSEC;

DATA;
#1 =( GEOMETRIC_REPRESENTATION_CONTEXT ( 3 ) GLOBAL_UNCERTAINTY_ASSIGNED_CONTEXT ( ( #69 ) ) GLOBAL_UNIT_ASSIGNED_CONTEXT ( ( #149, #177, #29 ) ) REPRESENTATION_CONTEXT ( 'NONE', 'WORKASPACE' ) );
#2 = AXIS2_PLACEMENT_3D ( 'NONE', #28, #126, #97 ) ;
#3 =( NAMED_UNIT ( * ) SI_UNIT ( $, .STERADIAN. ) SOLID_ANGLE_UNIT ( ) );
#4 = UNCERTAINTY_MEASURE_WITH_UNIT (LENGTH_MEASURE( 1.000000000000000082E-05 ), #218, 'distance_accuracy_value', 'NONE');
#5 =( NAMED_UNIT ( * ) PLANE_ANGLE_UNIT ( ) SI_UNIT ( $, .RADIAN. ) );
#6 = ORIENTED_EDGE ( 'NONE', *, *, #160, .F. ) ;
#7 = FACE_OUTER_BOUND ( 'NONE', #294, .T. ) ;
#8 = ORIENTED_EDGE ( 'NONE', *, *, #60, .T. ) ;
#9 = CLOSED_SHELL ( 'NONE', ( #46, #230, #255, #71 ) ) ;
#10 = DIRECTION ( 'NONE',  ( -4.453261087808560759E-17, 1.000000000000000000, -0.000000000000000000 ) ) ;
#11 = SURFACE_SIDE_STYLE ('',( #201 ) ) ;
#12 = ORIENTED_EDGE ( 'NONE', *, *, #241, .T. ) ;
#13 = AXIS2_PLACEMENT_3D ( 'NONE', #89, #114, #45 ) ;
#14 = DIRECTION ( 'NONE',  ( 1.000000000000000000, 0.000000000000000000, 0.000000000000000000 ) ) ;
#15 = UNCERTAINTY_MEASURE_WITH_UNIT (LENGTH_MEASURE( 1.000000000000000082E-05 ), #124, 'distance_accuracy_value', 'NONE');
#16 =( NAMED_UNIT ( * ) SI_UNIT ( $, .STERADIAN. ) SOLID_ANGLE_UNIT ( ) );
#17 = DIRECTION ( 'NONE',  ( 0.000000000000000000, 0.000000000000000000, -1.000000000000000000 ) ) ;
#18 = CARTESIAN_POINT ( 'NONE',  ( 0.000000000000000000, 0.000000000000000000, -0.3750000000000000555 ) ) ;
#19 = DIRECTION ( 'NONE',  ( -4.453261087808560759E-17, 1.000000000000000000, -0.000000000000000000 ) ) ;
#20 = CARTESIAN_POINT ( 'NONE',  ( 0.3749999999999999445, 6.000000000000000888, 4.592425496802576068E-17 ) ) ;
#21 = CARTESIAN_POINT ( 'NONE',  ( 0.000000000000000000, 3.250000000000000000, 0.000000000000000000 ) ) ;
#22 = PRODUCT_DEFINITION_CONTEXT ( 'detailed design', #77, 'design' ) ;
#23 = CARTESIAN_POINT ( 'NONE',  ( 0.000000000000000000, 3.250000000000000000, 0.000000000000000000 ) ) ;
#24 = ORIENTED_EDGE ( 'NONE', *, *, #123, .F. ) ;
#25 = PLANE ( 'NONE',  #2 ) ;
#26 = SURFACE_STYLE_USAGE ( .BOTH. , #125 ) ;
#27 = MANIFOLD_SOLID_BREP ( 'Revolve - Tool Body (Straight Shanked)', #9 ) ;
#28 = CARTESIAN_POINT ( 'NONE',  ( 0.000000000000000000, 3.250000000000000000, 0.000000000000000000 ) ) ;
#29 =( NAMED_UNIT ( * ) SI_UNIT ( $, .STERADIAN. ) SOLID_ANGLE_UNIT ( ) );
#30 = MECHANICAL_DESIGN_GEOMETRIC_PRESENTATION_REPRESENTATION (  '', ( #107 ), #182 ) ;
#31 = DIMENSIONAL_EXPONENTS ( 1.000000000000000000, 0.000000000000000000, 0.000000000000000000, 0.000000000000000000, 0.000000000000000000, 0.000000000000000000, 0.000000000000000000 ) ;
#32 = FILL_AREA_STYLE ('',( #203 ) ) ;
#33 = ORIENTED_EDGE ( 'NONE', *, *, #306, .F. ) ;
#34 = LENGTH_MEASURE_WITH_UNIT ( LENGTH_MEASURE( 0.02539999999999999897 ), #200 );
#35 = ORIENTED_EDGE ( 'NONE', *, *, #60, .F. ) ;
#36 = UNCERTAINTY_MEASURE_WITH_UNIT (LENGTH_MEASURE( 1.000000000000000082E-05 ), #189, 'distance_accuracy_value', 'NONE');
#37 = SURFACE_STYLE_USAGE ( .BOTH. , #299 ) ;
#38 = ADVANCED_FACE ( 'NONE', ( #81 ), #131, .T. ) ;
#39 = AXIS2_PLACEMENT_3D ( 'NONE', #63, #86, #164 ) ;
#40 = SURFACE_SIDE_STYLE ('',( #111 ) ) ;
#41 =( NAMED_UNIT ( * ) SI_UNIT ( $, .STERADIAN. ) SOLID_ANGLE_UNIT ( ) );
#42 = CARTESIAN_POINT ( 'NONE',  ( 4.592425496802575451E-17, 3.250000000000000000, 0.3750000000000000555 ) ) ;
#43 =( LENGTH_UNIT ( ) NAMED_UNIT ( * ) SI_UNIT ( $, .METRE. ) );
#44 = DIRECTION ( 'NONE',  ( -4.453261087808560759E-17, 1.000000000000000000, -0.000000000000000000 ) ) ;
#45 = DIRECTION ( 'NONE',  ( 0.000000000000000000, 0.000000000000000000, -1.000000000000000000 ) ) ;
#46 = ADVANCED_FACE ( 'NONE', ( #165 ), #87, .T. ) ;
#47 = MECHANICAL_DESIGN_GEOMETRIC_PRESENTATION_REPRESENTATION (  '', ( #208 ), #1 ) ;
#48 = DIRECTION ( 'NONE',  ( -0.000000000000000000, -1.000000000000000000, -0.000000000000000000 ) ) ;
#49 = CYLINDRICAL_SURFACE ( 'NONE', #244, 0.3750000000000001110 ) ;
#50 = CARTESIAN_POINT ( 'NONE',  ( 0.000000000000000000, 3.250000000000000000, 0.000000000000000000 ) ) ;
#51 = CIRCLE ( 'NONE', #88, 0.3750000000000000555 ) ;
#52 = COLOUR_RGB ( '',1.000000000000000000, 0.000000000000000000, 0.000000000000000000 ) ;
#53 = DIRECTION ( 'NONE',  ( -4.453261087808560759E-17, 1.000000000000000000, -0.000000000000000000 ) ) ;
#54 = VERTEX_POINT ( 'NONE', #157 ) ;
#55 = CARTESIAN_POINT ( 'NONE',  ( -1.224646799147354440E-16, 6.000000000000000888, 0.000000000000000000 ) ) ;
#56 = EDGE_LOOP ( 'NONE', ( #12, #101, #254, #24 ) ) ;
#57 = SURFACE_STYLE_USAGE ( .BOTH. , #176 ) ;
#58 = ORIENTED_EDGE ( 'NONE', *, *, #117, .T. ) ;
#59 = ORIENTED_EDGE ( 'NONE', *, *, #117, .F. ) ;
#60 = EDGE_CURVE ( 'NONE', #251, #54, #305, .T. ) ;
#61 = DIRECTION ( 'NONE',  ( -1.000000000000000000, 0.000000000000000000, 0.000000000000000000 ) ) ;
#62 = CIRCLE ( 'NONE', #13, 0.3750000000000000555 ) ;
#63 = CARTESIAN_POINT ( 'NONE',  ( -1.224646799147354440E-16, 6.000000000000000888, 0.000000000000000000 ) ) ;
#64 = FACE_OUTER_BOUND ( 'NONE', #252, .T. ) ;
#65 = CIRCLE ( 'NONE', #120, 0.3750000000000000555 ) ;
#66 = CARTESIAN_POINT ( 'NONE',  ( -0.3750000000000002220, 6.000000000000000888, 0.000000000000000000 ) ) ;
#67 = SURFACE_STYLE_FILL_AREA ( #245 ) ;
#68 = CARTESIAN_POINT ( 'NONE',  ( 0.3750000000000000555, 3.250000000000000000, 4.592425496802576684E-17 ) ) ;
#69 = UNCERTAINTY_MEASURE_WITH_UNIT (LENGTH_MEASURE( 1.000000000000000082E-05 ), #149, 'distance_accuracy_value', 'NONE');
#70 = FACE_OUTER_BOUND ( 'NONE', #82, .T. ) ;
#71 = ADVANCED_FACE ( 'NONE', ( #85 ), #140, .F. ) ;
#72 = VERTEX_POINT ( 'NONE', #285 ) ;
#73 = PRESENTATION_LAYER_ASSIGNMENT (  '', '', ( #214 ) ) ;
#74 = PRESENTATION_LAYER_ASSIGNMENT (  '', '', ( #148 ) ) ;
#75 = ORIENTED_EDGE ( 'NONE', *, *, #300, .T. ) ;
#76 = CARTESIAN_POINT ( 'NONE',  ( -1.224646799147354440E-16, 6.000000000000000888, 0.000000000000000000 ) ) ;
#77 = APPLICATION_CONTEXT ( 'automotive_design' ) ;
#78 = EDGE_LOOP ( 'NONE', ( #221, #274 ) ) ;
#79 = DIMENSIONAL_EXPONENTS ( 1.000000000000000000, 0.000000000000000000, 0.000000000000000000, 0.000000000000000000, 0.000000000000000000, 0.000000000000000000, 0.000000000000000000 ) ;
#80 = FACE_OUTER_BOUND ( 'NONE', #122, .T. ) ;
#81 = FACE_OUTER_BOUND ( 'NONE', #56, .T. ) ;
#82 = EDGE_LOOP ( 'NONE', ( #150, #6 ) ) ;
#83 = LENGTH_MEASURE_WITH_UNIT ( LENGTH_MEASURE( 0.02539999999999999897 ), #211 );
#84 = AXIS2_PLACEMENT_3D ( 'NONE', #237, #110, #14 ) ;
#85 = FACE_OUTER_BOUND ( 'NONE', #78, .T. ) ;
#86 = DIRECTION ( 'NONE',  ( -4.453261087808560759E-17, 1.000000000000000000, -0.000000000000000000 ) ) ;
#87 = CYLINDRICAL_SURFACE ( 'NONE', #39, 0.3750000000000001110 ) ;
#88 = AXIS2_PLACEMENT_3D ( 'NONE', #141, #289, #220 ) ;
#89 = CARTESIAN_POINT ( 'NONE',  ( 0.000000000000000000, 0.000000000000000000, 0.000000000000000000 ) ) ;
#90 = LINE ( 'NONE', #18, #102 ) ;
#91 = STYLED_ITEM ( 'NONE', ( #238 ), #105 ) ;
#92 = DIRECTION ( 'NONE',  ( 0.000000000000000000, 0.000000000000000000, -1.000000000000000000 ) ) ;
#93 = CYLINDRICAL_SURFACE ( 'NONE', #287, 0.3750000000000000555 ) ;
#94 = DIRECTION ( 'NONE',  ( -1.000000000000000000, 0.000000000000000000, 0.000000000000000000 ) ) ;
#95 = VERTEX_POINT ( 'NONE', #42 ) ;
#96 = CIRCLE ( 'NONE', #170, 0.3750000000000000555 ) ;
#97 = DIRECTION ( 'NONE',  ( 0.000000000000000000, -0.000000000000000000, 1.000000000000000000 ) ) ;
#98 = DIMENSIONAL_EXPONENTS ( 1.000000000000000000, 0.000000000000000000, 0.000000000000000000, 0.000000000000000000, 0.000000000000000000, 0.000000000000000000, 0.000000000000000000 ) ;
#99 = VERTEX_POINT ( 'NONE', #134 ) ;
#100 = SURFACE_STYLE_FILL_AREA ( #278 ) ;
#101 = ORIENTED_EDGE ( 'NONE', *, *, #216, .T. ) ;
#102 = VECTOR ( 'NONE', #265, 39.37007874015748143 ) ;
#103 = CIRCLE ( 'NONE', #293, 0.3750000000000001665 ) ;
#104 =( NAMED_UNIT ( * ) PLANE_ANGLE_UNIT ( ) SI_UNIT ( $, .RADIAN. ) );
#105 = ADVANCED_FACE ( 'NONE', ( #64 ), #109, .T. ) ;
#106 = LENGTH_MEASURE_WITH_UNIT ( LENGTH_MEASURE( 0.02539999999999999897 ), #302 );
#107 = STYLED_ITEM ( 'NONE', ( #137 ), #38 ) ;
#108 =( GEOMETRIC_REPRESENTATION_CONTEXT ( 3 ) GLOBAL_UNCERTAINTY_ASSIGNED_CONTEXT ( ( #199 ) ) GLOBAL_UNIT_ASSIGNED_CONTEXT ( ( #163, #133, #156 ) ) REPRESENTATION_CONTEXT ( 'NONE', 'WORKASPACE' ) );
#109 = PLANE ( 'NONE',  #166 ) ;
#110 = DIRECTION ( 'NONE',  ( 0.000000000000000000, 0.000000000000000000, 1.000000000000000000 ) ) ;
#111 = SURFACE_STYLE_FILL_AREA ( #262 ) ;
#112 = CARTESIAN_POINT ( 'NONE',  ( 0.000000000000000000, 3.250000000000000000, 0.000000000000000000 ) ) ;
#113 = ORIENTED_EDGE ( 'NONE', *, *, #233, .T. ) ;
#114 = DIRECTION ( 'NONE',  ( -0.000000000000000000, -1.000000000000000000, -0.000000000000000000 ) ) ;
#115 = PLANE ( 'NONE',  #303 ) ;
#116 = FILL_AREA_STYLE_COLOUR ( '', #271 ) ;
#117 = EDGE_CURVE ( 'NONE', #226, #72, #242, .T. ) ;
#118 = PRESENTATION_LAYER_ASSIGNMENT (  '', '', ( #91 ) ) ;
#119 = DIRECTION ( 'NONE',  ( -1.000000000000000000, 0.000000000000000000, 0.000000000000000000 ) ) ;
#120 = AXIS2_PLACEMENT_3D ( 'NONE', #23, #48, #92 ) ;
#121 = PRESENTATION_STYLE_ASSIGNMENT (( #275 ) ) ;
#122 = EDGE_LOOP ( 'NONE', ( #204, #113, #154, #175 ) ) ;
#123 = EDGE_CURVE ( 'NONE', #272, #99, #90, .T. ) ;
#124 =( CONVERSION_BASED_UNIT ( 'INCH', #174 ) LENGTH_UNIT ( ) NAMED_UNIT ( #132 ) );
#125 = SURFACE_SIDE_STYLE ('',( #186 ) ) ;
#126 = DIRECTION ( 'NONE',  ( 0.000000000000000000, 1.000000000000000000, 0.000000000000000000 ) ) ;
#127 = FILL_AREA_STYLE_COLOUR ( '', #282 ) ;
#128 = CARTESIAN_POINT ( 'NONE',  ( 4.592425496802575451E-17, 0.000000000000000000, 0.3750000000000000555 ) ) ;
#129 = ORIENTED_EDGE ( 'NONE', *, *, #257, .F. ) ;
#130 = DIRECTION ( 'NONE',  ( -1.000000000000000000, 0.000000000000000000, 0.000000000000000000 ) ) ;
#131 = CYLINDRICAL_SURFACE ( 'NONE', #193, 0.3750000000000000555 ) ;
#132 = DIMENSIONAL_EXPONENTS ( 1.000000000000000000, 0.000000000000000000, 0.000000000000000000, 0.000000000000000000, 0.000000000000000000, 0.000000000000000000, 0.000000000000000000 ) ;
#133 =( NAMED_UNIT ( * ) PLANE_ANGLE_UNIT ( ) SI_UNIT ( $, .RADIAN. ) );
#134 = CARTESIAN_POINT ( 'NONE',  ( 0.000000000000000000, 0.000000000000000000, -0.3750000000000000555 ) ) ;
#135 = AXIS2_PLACEMENT_3D ( 'NONE', #76, #178, #61 ) ;
#136 = UNCERTAINTY_MEASURE_WITH_UNIT (LENGTH_MEASURE( 1.000000000000000082E-05 ), #249, 'distance_accuracy_value', 'NONE');
#137 = PRESENTATION_STYLE_ASSIGNMENT (( #259 ) ) ;
#138 = DIRECTION ( 'NONE',  ( 1.000000000000000000, 4.453261087808560759E-17, 0.000000000000000000 ) ) ;
#139 = PRODUCT ( '44402', '44402', '', ( #188 ) ) ;
#140 = PLANE ( 'NONE',  #277 ) ;
#141 = CARTESIAN_POINT ( 'NONE',  ( 0.000000000000000000, 0.000000000000000000, 0.000000000000000000 ) ) ;
#142 = LENGTH_MEASURE_WITH_UNIT ( LENGTH_MEASURE( 0.02539999999999999897 ), #168 );
#143 = CLOSED_SHELL ( 'NONE', ( #38, #304, #284, #105 ) ) ;
#144 = CARTESIAN_POINT ( 'NONE',  ( 0.000000000000000000, 0.000000000000000000, 0.000000000000000000 ) ) ;
#145 = PRESENTATION_STYLE_ASSIGNMENT (( #194 ) ) ;
#146 = CARTESIAN_POINT ( 'NONE',  ( -1.224646799147354440E-16, 6.000000000000000888, 0.000000000000000000 ) ) ;
#147 = AXIS2_PLACEMENT_3D ( 'NONE', #21, #19, #240 ) ;
#148 = STYLED_ITEM ( 'NONE', ( #152 ), #304 ) ;
#149 =( CONVERSION_BASED_UNIT ( 'INCH', #198 ) LENGTH_UNIT ( ) NAMED_UNIT ( #185 ) );
#150 = ORIENTED_EDGE ( 'NONE', *, *, #300, .F. ) ;
#151 = CIRCLE ( 'NONE', #135, 0.3750000000000001665 ) ;
#152 = PRESENTATION_STYLE_ASSIGNMENT (( #57 ) ) ;
#153 = ORIENTED_EDGE ( 'NONE', *, *, #160, .T. ) ;
#154 = ORIENTED_EDGE ( 'NONE', *, *, #123, .T. ) ;
#155 = PRODUCT_RELATED_PRODUCT_CATEGORY ( 'part', '', ( #139 ) ) ;
#156 =( NAMED_UNIT ( * ) SI_UNIT ( $, .STERADIAN. ) SOLID_ANGLE_UNIT ( ) );
#157 = CARTESIAN_POINT ( 'NONE',  ( -0.3750000000000002776, 6.000000000000000888, 0.000000000000000000 ) ) ;
#158 =( GEOMETRIC_REPRESENTATION_CONTEXT ( 3 ) GLOBAL_UNCERTAINTY_ASSIGNED_CONTEXT ( ( #36 ) ) GLOBAL_UNIT_ASSIGNED_CONTEXT ( ( #189, #162, #41 ) ) REPRESENTATION_CONTEXT ( 'NONE', 'WORKASPACE' ) );
#159 = MECHANICAL_DESIGN_GEOMETRIC_PRESENTATION_REPRESENTATION (  '', ( #148 ), #260 ) ;
#160 = EDGE_CURVE ( 'NONE', #226, #251, #286, .T. ) ;
#161 = APPLICATION_PROTOCOL_DEFINITION ( 'draft international standard', 'automotive_design', 1998, #210 ) ;
#162 =( NAMED_UNIT ( * ) PLANE_ANGLE_UNIT ( ) SI_UNIT ( $, .RADIAN. ) );
#163 =( CONVERSION_BASED_UNIT ( 'INCH', #184 ) LENGTH_UNIT ( ) NAMED_UNIT ( #98 ) );
#164 = DIRECTION ( 'NONE',  ( -1.000000000000000000, 0.000000000000000000, 0.000000000000000000 ) ) ;
#165 = FACE_OUTER_BOUND ( 'NONE', #280, .T. ) ;
#166 = AXIS2_PLACEMENT_3D ( 'NONE', #144, #191, #172 ) ;
#167 = FACE_OUTER_BOUND ( 'NONE', #297, .T. ) ;
#168 =( LENGTH_UNIT ( ) NAMED_UNIT ( * ) SI_UNIT ( $, .METRE. ) );
#169 = PRESENTATION_LAYER_ASSIGNMENT (  '', '', ( #107 ) ) ;
#170 = AXIS2_PLACEMENT_3D ( 'NONE', #112, #171, #268 ) ;
#171 = DIRECTION ( 'NONE',  ( -0.000000000000000000, -1.000000000000000000, -0.000000000000000000 ) ) ;
#172 = DIRECTION ( 'NONE',  ( 0.000000000000000000, 0.000000000000000000, -1.000000000000000000 ) ) ;
#173 =( NAMED_UNIT ( * ) SI_UNIT ( $, .STERADIAN. ) SOLID_ANGLE_UNIT ( ) );
#174 = LENGTH_MEASURE_WITH_UNIT ( LENGTH_MEASURE( 0.02539999999999999897 ), #253 );
#175 = ORIENTED_EDGE ( 'NONE', *, *, #223, .F. ) ;
#176 = SURFACE_SIDE_STYLE ('',( #100 ) ) ;
#177 =( NAMED_UNIT ( * ) PLANE_ANGLE_UNIT ( ) SI_UNIT ( $, .RADIAN. ) );
#178 = DIRECTION ( 'NONE',  ( -4.453261087808560759E-17, 1.000000000000000000, -0.000000000000000000 ) ) ;
#179 =( LENGTH_UNIT ( ) NAMED_UNIT ( * ) SI_UNIT ( $, .METRE. ) );
#180 = DIRECTION ( 'NONE',  ( -0.000000000000000000, -1.000000000000000000, -0.000000000000000000 ) ) ;
#181 = ORIENTED_EDGE ( 'NONE', *, *, #233, .F. ) ;
#182 =( GEOMETRIC_REPRESENTATION_CONTEXT ( 3 ) GLOBAL_UNCERTAINTY_ASSIGNED_CONTEXT ( ( #269 ) ) GLOBAL_UNIT_ASSIGNED_CONTEXT ( ( #281, #104, #16 ) ) REPRESENTATION_CONTEXT ( 'NONE', 'WORKASPACE' ) );
#183 = PRODUCT_DEFINITION_FORMATION_WITH_SPECIFIED_SOURCE ( 'ANY', '', #139, .NOT_KNOWN. ) ;
#184 = LENGTH_MEASURE_WITH_UNIT ( LENGTH_MEASURE( 0.02539999999999999897 ), #43 );
#185 = DIMENSIONAL_EXPONENTS ( 1.000000000000000000, 0.000000000000000000, 0.000000000000000000, 0.000000000000000000, 0.000000000000000000, 0.000000000000000000, 0.000000000000000000 ) ;
#186 = SURFACE_STYLE_FILL_AREA ( #227 ) ;
#187 = EDGE_CURVE ( 'NONE', #99, #292, #62, .T. ) ;
#188 = PRODUCT_CONTEXT ( 'NONE', #210, 'mechanical' ) ;
#189 =( CONVERSION_BASED_UNIT ( 'INCH', #83 ) LENGTH_UNIT ( ) NAMED_UNIT ( #236 ) );
#190 = VECTOR ( 'NONE', #266, 39.37007874015748143 ) ;
#191 = DIRECTION ( 'NONE',  ( 0.000000000000000000, -1.000000000000000000, -0.000000000000000000 ) ) ;
#192 = PRODUCT_DEFINITION ( 'UNKNOWN', '', #183, #22 ) ;
#193 = AXIS2_PLACEMENT_3D ( 'NONE', #283, #298, #17 ) ;
#194 = SURFACE_STYLE_USAGE ( .BOTH. , #212 ) ;
#195 = DIRECTION ( 'NONE',  ( 0.000000000000000000, 0.000000000000000000, -1.000000000000000000 ) ) ;
#196 = MECHANICAL_DESIGN_GEOMETRIC_PRESENTATION_REPRESENTATION (  '', ( #91 ), #158 ) ;
#197 =( NAMED_UNIT ( * ) PLANE_ANGLE_UNIT ( ) SI_UNIT ( $, .RADIAN. ) );
#198 = LENGTH_MEASURE_WITH_UNIT ( LENGTH_MEASURE( 0.02539999999999999897 ), #179 );
#199 = UNCERTAINTY_MEASURE_WITH_UNIT (LENGTH_MEASURE( 1.000000000000000082E-05 ), #163, 'distance_accuracy_value', 'NONE');
#200 =( LENGTH_UNIT ( ) NAMED_UNIT ( * ) SI_UNIT ( $, .METRE. ) );
#201 = SURFACE_STYLE_FILL_AREA ( #32 ) ;
#202 = ORIENTED_EDGE ( 'NONE', *, *, #241, .F. ) ;
#203 = FILL_AREA_STYLE_COLOUR ( '', #296 ) ;
#204 = ORIENTED_EDGE ( 'NONE', *, *, #216, .F. ) ;
#205 = DIMENSIONAL_EXPONENTS ( 1.000000000000000000, 0.000000000000000000, 0.000000000000000000, 0.000000000000000000, 0.000000000000000000, 0.000000000000000000, 0.000000000000000000 ) ;
#206 = FILL_AREA_STYLE_COLOUR ( '', #263 ) ;
#207 = SURFACE_STYLE_FILL_AREA ( #256 ) ;
#208 = STYLED_ITEM ( 'NONE', ( #224 ), #27 ) ;
#209 = AXIS2_PLACEMENT_3D ( 'NONE', #50, #10, #94 ) ;
#210 = APPLICATION_CONTEXT ( 'automotive_design' ) ;
#211 =( LENGTH_UNIT ( ) NAMED_UNIT ( * ) SI_UNIT ( $, .METRE. ) );
#212 = SURFACE_SIDE_STYLE ('',( #67 ) ) ;
#213 = ORIENTED_EDGE ( 'NONE', *, *, #223, .T. ) ;
#214 = STYLED_ITEM ( 'NONE', ( #145 ), #229 ) ;
#215 = STYLED_ITEM ( 'NONE', ( #121 ), #284 ) ;
#216 = EDGE_CURVE ( 'NONE', #95, #292, #288, .T. ) ;
#217 = DIRECTION ( 'NONE',  ( -4.453261087808560759E-17, 1.000000000000000000, 0.000000000000000000 ) ) ;
#218 =( CONVERSION_BASED_UNIT ( 'INCH', #142 ) LENGTH_UNIT ( ) NAMED_UNIT ( #31 ) );
#219 = MECHANICAL_DESIGN_GEOMETRIC_PRESENTATION_REPRESENTATION (  '', ( #215 ), #235 ) ;
#220 = DIRECTION ( 'NONE',  ( 0.000000000000000000, 0.000000000000000000, -1.000000000000000000 ) ) ;
#221 = ORIENTED_EDGE ( 'NONE', *, *, #257, .T. ) ;
#222 = COLOUR_RGB ( '',1.000000000000000000, 0.000000000000000000, 0.000000000000000000 ) ;
#223 = EDGE_CURVE ( 'NONE', #292, #99, #51, .T. ) ;
#224 = PRESENTATION_STYLE_ASSIGNMENT (( #26 ) ) ;
#225 = CARTESIAN_POINT ( 'NONE',  ( 0.000000000000000000, 3.250000000000000000, -0.3750000000000000555 ) ) ;
#226 = VERTEX_POINT ( 'NONE', #68 ) ;
#227 = FILL_AREA_STYLE ('',( #127 ) ) ;
#228 = CARTESIAN_POINT ( 'NONE',  ( 0.3750000000000000555, 6.000000000000000888, 0.000000000000000000 ) ) ;
#229 = MANIFOLD_SOLID_BREP ( 'Revolve - Cutting Edge', #143 ) ;
#230 = ADVANCED_FACE ( 'NONE', ( #70 ), #115, .F. ) ;
#231 = DIRECTION ( 'NONE',  ( 4.453261087808560759E-17, -1.000000000000000000, 0.000000000000000000 ) ) ;
#232 = APPLICATION_PROTOCOL_DEFINITION ( 'draft international standard', 'automotive_design', 1998, #77 ) ;
#233 = EDGE_CURVE ( 'NONE', #95, #272, #96, .T. ) ;
#234 = VECTOR ( 'NONE', #44, 39.37007874015748143 ) ;
#235 =( GEOMETRIC_REPRESENTATION_CONTEXT ( 3 ) GLOBAL_UNCERTAINTY_ASSIGNED_CONTEXT ( ( #136 ) ) GLOBAL_UNIT_ASSIGNED_CONTEXT ( ( #249, #5, #173 ) ) REPRESENTATION_CONTEXT ( 'NONE', 'WORKASPACE' ) );
#236 = DIMENSIONAL_EXPONENTS ( 1.000000000000000000, 0.000000000000000000, 0.000000000000000000, 0.000000000000000000, 0.000000000000000000, 0.000000000000000000, 0.000000000000000000 ) ;
#237 = CARTESIAN_POINT ( 'NONE',  ( 0.000000000000000000, 0.000000000000000000, 0.000000000000000000 ) ) ;
#238 = PRESENTATION_STYLE_ASSIGNMENT (( #37 ) ) ;
#239 = ADVANCED_BREP_SHAPE_REPRESENTATION ( '44402', ( #229, #27, #84 ), #108 ) ;
#240 = DIRECTION ( 'NONE',  ( -1.000000000000000000, 0.000000000000000000, 0.000000000000000000 ) ) ;
#241 = EDGE_CURVE ( 'NONE', #272, #95, #65, .T. ) ;
#242 = LINE ( 'NONE', #20, #247 ) ;
#243 =( GEOMETRIC_REPRESENTATION_CONTEXT ( 3 ) GLOBAL_UNCERTAINTY_ASSIGNED_CONTEXT ( ( #4 ) ) GLOBAL_UNIT_ASSIGNED_CONTEXT ( ( #218, #309, #3 ) ) REPRESENTATION_CONTEXT ( 'NONE', 'WORKASPACE' ) );
#244 = AXIS2_PLACEMENT_3D ( 'NONE', #146, #246, #119 ) ;
#245 = FILL_AREA_STYLE ('',( #116 ) ) ;
#246 = DIRECTION ( 'NONE',  ( -4.453261087808560759E-17, 1.000000000000000000, -0.000000000000000000 ) ) ;
#247 = VECTOR ( 'NONE', #307, 39.37007874015748143 ) ;
#248 = PRESENTATION_LAYER_ASSIGNMENT (  '', '', ( #215 ) ) ;
#249 =( CONVERSION_BASED_UNIT ( 'INCH', #34 ) LENGTH_UNIT ( ) NAMED_UNIT ( #79 ) );
#250 = CARTESIAN_POINT ( 'NONE',  ( 0.000000000000000000, 0.000000000000000000, 0.000000000000000000 ) ) ;
#251 = VERTEX_POINT ( 'NONE', #270 ) ;
#252 = EDGE_LOOP ( 'NONE', ( #279, #213 ) ) ;
#253 =( LENGTH_UNIT ( ) NAMED_UNIT ( * ) SI_UNIT ( $, .METRE. ) );
#254 = ORIENTED_EDGE ( 'NONE', *, *, #187, .F. ) ;
#255 = ADVANCED_FACE ( 'NONE', ( #167 ), #49, .T. ) ;
#256 = FILL_AREA_STYLE ('',( #206 ) ) ;
#257 = EDGE_CURVE ( 'NONE', #54, #72, #103, .T. ) ;
#258 = MECHANICAL_DESIGN_GEOMETRIC_PRESENTATION_REPRESENTATION (  '', ( #214 ), #243 ) ;
#259 = SURFACE_STYLE_USAGE ( .BOTH. , #40 ) ;
#260 =( GEOMETRIC_REPRESENTATION_CONTEXT ( 3 ) GLOBAL_UNCERTAINTY_ASSIGNED_CONTEXT ( ( #15 ) ) GLOBAL_UNIT_ASSIGNED_CONTEXT ( ( #124, #197, #273 ) ) REPRESENTATION_CONTEXT ( 'NONE', 'WORKASPACE' ) );
#261 = SHAPE_DEFINITION_REPRESENTATION ( #291, #239 ) ;
#262 = FILL_AREA_STYLE ('',( #276 ) ) ;
#263 = COLOUR_RGB ( '',1.000000000000000000, 0.000000000000000000, 0.000000000000000000 ) ;
#264 = CIRCLE ( 'NONE', #209, 0.3750000000000000555 ) ;
#265 = DIRECTION ( 'NONE',  ( -0.000000000000000000, -1.000000000000000000, -0.000000000000000000 ) ) ;
#266 = DIRECTION ( 'NONE',  ( -0.000000000000000000, -1.000000000000000000, -0.000000000000000000 ) ) ;
#267 = CARTESIAN_POINT ( 'NONE',  ( 4.592425496802575451E-17, 0.000000000000000000, 0.3750000000000000555 ) ) ;
#268 = DIRECTION ( 'NONE',  ( 0.000000000000000000, 0.000000000000000000, -1.000000000000000000 ) ) ;
#269 = UNCERTAINTY_MEASURE_WITH_UNIT (LENGTH_MEASURE( 1.000000000000000082E-05 ), #281, 'distance_accuracy_value', 'NONE');
#270 = CARTESIAN_POINT ( 'NONE',  ( -0.3750000000000000555, 3.250000000000000000, 0.000000000000000000 ) ) ;
#271 = COLOUR_RGB ( '',0.7921568627450980005, 0.8196078431372548767, 0.9333333333333333481 ) ;
#272 = VERTEX_POINT ( 'NONE', #225 ) ;
#273 =( NAMED_UNIT ( * ) SI_UNIT ( $, .STERADIAN. ) SOLID_ANGLE_UNIT ( ) );
#274 = ORIENTED_EDGE ( 'NONE', *, *, #306, .T. ) ;
#275 = SURFACE_STYLE_USAGE ( .BOTH. , #11 ) ;
#276 = FILL_AREA_STYLE_COLOUR ( '', #222 ) ;
#277 = AXIS2_PLACEMENT_3D ( 'NONE', #228, #231, #138 ) ;
#278 = FILL_AREA_STYLE ('',( #295 ) ) ;
#279 = ORIENTED_EDGE ( 'NONE', *, *, #187, .T. ) ;
#280 = EDGE_LOOP ( 'NONE', ( #75, #58, #129, #35 ) ) ;
#281 =( CONVERSION_BASED_UNIT ( 'INCH', #106 ) LENGTH_UNIT ( ) NAMED_UNIT ( #205 ) );
#282 = COLOUR_RGB ( '',0.7921568627450980005, 0.8196078431372548767, 0.9333333333333333481 ) ;
#283 = CARTESIAN_POINT ( 'NONE',  ( 0.000000000000000000, 0.000000000000000000, 0.000000000000000000 ) ) ;
#284 = ADVANCED_FACE ( 'NONE', ( #80 ), #93, .T. ) ;
#285 = CARTESIAN_POINT ( 'NONE',  ( 0.3750000000000000555, 6.000000000000000888, 4.592425496802576684E-17 ) ) ;
#286 = CIRCLE ( 'NONE', #147, 0.3750000000000000555 ) ;
#287 = AXIS2_PLACEMENT_3D ( 'NONE', #250, #180, #195 ) ;
#288 = LINE ( 'NONE', #267, #190 ) ;
#289 = DIRECTION ( 'NONE',  ( -0.000000000000000000, -1.000000000000000000, -0.000000000000000000 ) ) ;
#290 = DIRECTION ( 'NONE',  ( -1.000000000000000000, -4.453261087808560759E-17, 0.000000000000000000 ) ) ;
#291 = PRODUCT_DEFINITION_SHAPE ( 'NONE', 'NONE',  #192 ) ;
#292 = VERTEX_POINT ( 'NONE', #128 ) ;
#293 = AXIS2_PLACEMENT_3D ( 'NONE', #55, #53, #130 ) ;
#294 = EDGE_LOOP ( 'NONE', ( #202, #181 ) ) ;
#295 = FILL_AREA_STYLE_COLOUR ( '', #52 ) ;
#296 = COLOUR_RGB ( '',1.000000000000000000, 0.000000000000000000, 0.000000000000000000 ) ;
#297 = EDGE_LOOP ( 'NONE', ( #59, #153, #8, #33 ) ) ;
#298 = DIRECTION ( 'NONE',  ( -0.000000000000000000, -1.000000000000000000, -0.000000000000000000 ) ) ;
#299 = SURFACE_SIDE_STYLE ('',( #207 ) ) ;
#300 = EDGE_CURVE ( 'NONE', #251, #226, #264, .T. ) ;
#301 = PRESENTATION_LAYER_ASSIGNMENT (  '', '', ( #208 ) ) ;
#302 =( LENGTH_UNIT ( ) NAMED_UNIT ( * ) SI_UNIT ( $, .METRE. ) );
#303 = AXIS2_PLACEMENT_3D ( 'NONE', #308, #217, #290 ) ;
#304 = ADVANCED_FACE ( 'NONE', ( #7 ), #25, .T. ) ;
#305 = LINE ( 'NONE', #66, #234 ) ;
#306 = EDGE_CURVE ( 'NONE', #72, #54, #151, .T. ) ;
#307 = DIRECTION ( 'NONE',  ( -4.453261087808560759E-17, 1.000000000000000000, -0.000000000000000000 ) ) ;
#308 = CARTESIAN_POINT ( 'NONE',  ( 3.718412684285603637E-34, 3.250000000000000000, 0.000000000000000000 ) ) ;
#309 =( NAMED_UNIT ( * ) PLANE_ANGLE_UNIT ( ) SI_UNIT ( $, .RADIAN. ) );
ENDSEC;
END-ISO-10303-21;
