ISO-10303-21;
HEADER;
FILE_DESCRIPTION (( 'STEP AP214' ),
    '1' );
FILE_NAME ('Micro_BMSM-016-2.STEP',
    '2021-09-03T15:48:49',
    ( '' ),
    ( '' ),
    'SwSTEP 2.0',
    'SolidWorks 2020',
    '' );
FILE_SCHEMA (( 'AUTOMOTIVE_DESIGN' ));
ENDSEC;

DATA;
#1 = EDGE_CURVE ( 'NONE', #132, #287, #324, .T. ) ;
#2 = DIRECTION ( 'NONE',  ( 0.0000000000000000000, 0.0000000000000000000, 1.000000000000000000 ) ) ;
#3 = CARTESIAN_POINT ( 'NONE',  ( -0.04405499999999973326, 0.0000000000000000000, 1.496062999999999921 ) ) ;
#4 = DIRECTION ( 'NONE',  ( -1.000000000000000000, 0.0000000000000000000, 0.0000000000000000000 ) ) ;
#5 = DIRECTION ( 'NONE',  ( 0.0000000000000000000, 0.0000000000000000000, 1.000000000000000000 ) ) ;
#6 = STYLED_ITEM ( 'NONE', ( #11 ), #274 ) ;
#7 =( GEOMETRIC_REPRESENTATION_CONTEXT ( 3 ) GLOBAL_UNCERTAINTY_ASSIGNED_CONTEXT ( ( #140 ) ) GLOBAL_UNIT_ASSIGNED_CONTEXT ( ( #114, #72, #37 ) ) REPRESENTATION_CONTEXT ( 'NONE', 'WORKASPACE' ) );
#8 = DIRECTION ( 'NONE',  ( 0.0000000000000000000, 0.0000000000000000000, -1.000000000000000000 ) ) ;
#9 = EDGE_LOOP ( 'NONE', ( #88, #205, #283, #291 ) ) ;
#10 = DIRECTION ( 'NONE',  ( 0.7071067811865482389, 8.659560562354941486E-17, -0.7071067811865469066 ) ) ;
#11 = PRESENTATION_STYLE_ASSIGNMENT (( #24 ) ) ;
#12 = CARTESIAN_POINT ( 'NONE',  ( -0.03146450399999999037, 0.0000000000000000000, 0.03146450399999999731 ) ) ;
#13 = CARTESIAN_POINT ( 'NONE',  ( 0.03146450399999999731, 3.853290411035908808E-18, -3.853290411035908808E-18 ) ) ;
#14 = DIRECTION ( 'NONE',  ( 1.000000000000000000, 0.0000000000000000000, 0.0000000000000000000 ) ) ;
#15 = ORIENTED_EDGE ( 'NONE', *, *, #23, .T. ) ;
#16 = DIRECTION ( 'NONE',  ( 1.224646799147353207E-16, 0.0000000000000000000, 1.000000000000000000 ) ) ;
#17 = STYLED_ITEM ( 'NONE', ( #168 ), #209 ) ;
#18 = DIRECTION ( 'NONE',  ( -1.000000000000000000, 0.0000000000000000000, 1.356612038155888783E-16 ) ) ;
#19 = SHAPE_DEFINITION_REPRESENTATION ( #59, #209 ) ;
#20 =( NAMED_UNIT ( * ) PLANE_ANGLE_UNIT ( ) SI_UNIT ( $, .RADIAN. ) );
#21 = SURFACE_SIDE_STYLE ('',( #165 ) ) ;
#22 = VECTOR ( 'NONE', #292, 39.37007874015748143 ) ;
#23 = EDGE_CURVE ( 'NONE', #149, #216, #82, .T. ) ;
#24 = SURFACE_STYLE_USAGE ( .BOTH. , #175 ) ;
#25 = DIRECTION ( 'NONE',  ( 1.224646799147353207E-16, 0.0000000000000000000, 1.000000000000000000 ) ) ;
#26 = EDGE_CURVE ( 'NONE', #320, #216, #95, .T. ) ;
#27 = CARTESIAN_POINT ( 'NONE',  ( 3.853290411035908808E-18, 0.0000000000000000000, 0.03146450399999999731 ) ) ;
#28 = CARTESIAN_POINT ( 'NONE',  ( 0.0000000000000000000, 0.0000000000000000000, 1.481062999999999574 ) ) ;
#29 = CIRCLE ( 'NONE', #135, 0.03146450399999999731 ) ;
#30 = ORIENTED_EDGE ( 'NONE', *, *, #1, .F. ) ;
#31 = CARTESIAN_POINT ( 'NONE',  ( 0.04405499999999973326, 5.395181473643630390E-18, 1.496062999999999921 ) ) ;
#32 = DIRECTION ( 'NONE',  ( -1.000000000000000000, 0.0000000000000000000, 0.0000000000000000000 ) ) ;
#33 = ORIENTED_EDGE ( 'NONE', *, *, #278, .F. ) ;
#34 = FACE_OUTER_BOUND ( 'NONE', #122, .T. ) ;
#35 = ORIENTED_EDGE ( 'NONE', *, *, #215, .F. ) ;
#36 = DIRECTION ( 'NONE',  ( -1.224646799147353207E-16, -0.0000000000000000000, -1.000000000000000000 ) ) ;
#37 =( NAMED_UNIT ( * ) SI_UNIT ( $, .STERADIAN. ) SOLID_ANGLE_UNIT ( ) );
#38 = DIRECTION ( 'NONE',  ( -1.000000000000000000, 0.0000000000000000000, 0.0000000000000000000 ) ) ;
#39 = ORIENTED_EDGE ( 'NONE', *, *, #79, .F. ) ;
#40 = EDGE_CURVE ( 'NONE', #287, #124, #128, .T. ) ;
#41 = APPLICATION_PROTOCOL_DEFINITION ( 'draft international standard', 'automotive_design', 1998, #73 ) ;
#42 = DIRECTION ( 'NONE',  ( 0.0000000000000000000, 0.0000000000000000000, -1.000000000000000000 ) ) ;
#43 = AXIS2_PLACEMENT_3D ( 'NONE', #57, #16, #18 ) ;
#44 = AXIS2_PLACEMENT_3D ( 'NONE', #218, #321, #164 ) ;
#45 = EDGE_CURVE ( 'NONE', #132, #78, #153, .T. ) ;
#46 = DIRECTION ( 'NONE',  ( 1.000000000000000000, 0.0000000000000000000, 0.0000000000000000000 ) ) ;
#47 = UNCERTAINTY_MEASURE_WITH_UNIT (LENGTH_MEASURE( 1.000000000000000082E-05 ), #180, 'distance_accuracy_value', 'NONE');
#48 = CONICAL_SURFACE ( 'NONE', #236, 0.04405499999999973326, 0.7853981633974491672 ) ;
#49 = CARTESIAN_POINT ( 'NONE',  ( 0.0000000000000000000, 0.0000000000000000000, 1.496062999999999921 ) ) ;
#50 = ADVANCED_FACE ( 'NONE', ( #34 ), #58, .T. ) ;
#51 = DIRECTION ( 'NONE',  ( -0.7071067811865482389, 0.0000000000000000000, -0.7071067811865469066 ) ) ;
#52 = DIRECTION ( 'NONE',  ( -1.000000000000000000, 0.0000000000000000000, 0.0000000000000000000 ) ) ;
#53 = ORIENTED_EDGE ( 'NONE', *, *, #159, .F. ) ;
#54 = CARTESIAN_POINT ( 'NONE',  ( 0.0000000000000000000, 0.0000000000000000000, 1.496062999999999921 ) ) ;
#55 = VECTOR ( 'NONE', #227, 39.37007874015748143 ) ;
#56 = DIRECTION ( 'NONE',  ( -1.224646799147353207E-16, -0.0000000000000000000, -1.000000000000000000 ) ) ;
#57 = CARTESIAN_POINT ( 'NONE',  ( 3.853290411035908808E-18, 0.0000000000000000000, 0.03146450399999999731 ) ) ;
#58 = CYLINDRICAL_SURFACE ( 'NONE', #210, 0.03146450399999999731 ) ;
#59 = PRODUCT_DEFINITION_SHAPE ( 'NONE', 'NONE',  #250 ) ;
#60 = ORIENTED_EDGE ( 'NONE', *, *, #151, .T. ) ;
#61 = VECTOR ( 'NONE', #288, 39.37007874015748143 ) ;
#62 = DIRECTION ( 'NONE',  ( -0.0000000000000000000, -0.0000000000000000000, -1.000000000000000000 ) ) ;
#63 =( NAMED_UNIT ( * ) SI_UNIT ( $, .STERADIAN. ) SOLID_ANGLE_UNIT ( ) );
#64 = CARTESIAN_POINT ( 'NONE',  ( 0.05905500000000000332, 7.232151672364695422E-18, 1.496062999999999921 ) ) ;
#65 = FACE_OUTER_BOUND ( 'NONE', #182, .T. ) ;
#66 = EDGE_LOOP ( 'NONE', ( #86, #181 ) ) ;
#67 = DIRECTION ( 'NONE',  ( -1.224646799147353207E-16, -0.0000000000000000000, -1.000000000000000000 ) ) ;
#68 = DIMENSIONAL_EXPONENTS ( 1.000000000000000000, 0.0000000000000000000, 0.0000000000000000000, 0.0000000000000000000, 0.0000000000000000000, 0.0000000000000000000, 0.0000000000000000000 ) ;
#69 = CARTESIAN_POINT ( 'NONE',  ( 3.853290411035908808E-18, 0.0000000000000000000, 0.03146450399999999731 ) ) ;
#70 = SURFACE_STYLE_USAGE ( .BOTH. , #21 ) ;
#71 = CIRCLE ( 'NONE', #163, 0.03146450399999999731 ) ;
#72 =( NAMED_UNIT ( * ) PLANE_ANGLE_UNIT ( ) SI_UNIT ( $, .RADIAN. ) );
#73 = APPLICATION_CONTEXT ( 'automotive_design' ) ;
#74 = EDGE_CURVE ( 'NONE', #286, #316, #228, .T. ) ;
#75 = CARTESIAN_POINT ( 'NONE',  ( 0.0000000000000000000, 0.0000000000000000000, 1.496062999999999921 ) ) ;
#76 = FILL_AREA_STYLE ('',( #200 ) ) ;
#77 = DIRECTION ( 'NONE',  ( 1.000000000000000000, 0.0000000000000000000, 0.0000000000000000000 ) ) ;
#78 = VERTEX_POINT ( 'NONE', #134 ) ;
#79 = EDGE_CURVE ( 'NONE', #316, #149, #150, .T. ) ;
#80 = SURFACE_STYLE_FILL_AREA ( #76 ) ;
#81 = ORIENTED_EDGE ( 'NONE', *, *, #176, .T. ) ;
#82 = CIRCLE ( 'NONE', #43, 0.03146450399999999731 ) ;
#83 = CIRCLE ( 'NONE', #269, 0.05905500000000000332 ) ;
#84 = ORIENTED_EDGE ( 'NONE', *, *, #306, .F. ) ;
#85 = DIRECTION ( 'NONE',  ( 1.224646799147353207E-16, 0.0000000000000000000, 1.000000000000000000 ) ) ;
#86 = ORIENTED_EDGE ( 'NONE', *, *, #278, .T. ) ;
#87 = CARTESIAN_POINT ( 'NONE',  ( 1.157144267578351175E-17, 0.0000000000000000000, 0.09448800000000000254 ) ) ;
#88 = ORIENTED_EDGE ( 'NONE', *, *, #45, .F. ) ;
#89 = ORIENTED_EDGE ( 'NONE', *, *, #166, .F. ) ;
#90 = VECTOR ( 'NONE', #238, 39.37007874015748143 ) ;
#91 = CARTESIAN_POINT ( 'NONE',  ( 0.0000000000000000000, 0.0000000000000000000, 0.0000000000000000000 ) ) ;
#92 = DIRECTION ( 'NONE',  ( 0.0000000000000000000, 0.0000000000000000000, 1.000000000000000000 ) ) ;
#93 = APPLICATION_CONTEXT ( 'automotive_design' ) ;
#94 = SPHERICAL_SURFACE ( 'NONE', #136, 0.03146450399999999731 ) ;
#95 = CIRCLE ( 'NONE', #295, 0.03146450399999999731 ) ;
#96 = DIRECTION ( 'NONE',  ( 1.000000000000000000, 0.0000000000000000000, -0.0000000000000000000 ) ) ;
#97 = DIRECTION ( 'NONE',  ( 0.0000000000000000000, 1.000000000000000000, 0.0000000000000000000 ) ) ;
#98 = CONICAL_SURFACE ( 'NONE', #139, 0.04405499999999973326, 0.7853981633974491672 ) ;
#99 = CARTESIAN_POINT ( 'NONE',  ( 0.03146450399999999731, 3.853290411035908808E-18, 0.03146450399999999037 ) ) ;
#100 = CARTESIAN_POINT ( 'NONE',  ( 3.853290411035908808E-18, 0.0000000000000000000, 0.03146450399999999731 ) ) ;
#101 = ORIENTED_EDGE ( 'NONE', *, *, #206, .F. ) ;
#102 = CARTESIAN_POINT ( 'NONE',  ( 0.04405499999999973326, 6.313666573004162521E-18, 1.496062999999999921 ) ) ;
#103 = LINE ( 'NONE', #31, #322 ) ;
#104 = VECTOR ( 'NONE', #282, 39.37007874015747433 ) ;
#105 = CIRCLE ( 'NONE', #170, 0.04405499999999973326 ) ;
#106 = EDGE_CURVE ( 'NONE', #216, #149, #249, .T. ) ;
#107 = ORIENTED_EDGE ( 'NONE', *, *, #215, .T. ) ;
#108 = ORIENTED_EDGE ( 'NONE', *, *, #171, .F. ) ;
#109 = DIRECTION ( 'NONE',  ( 0.0000000000000000000, 0.0000000000000000000, -1.000000000000000000 ) ) ;
#110 = EDGE_CURVE ( 'NONE', #286, #216, #112, .T. ) ;
#111 = CONICAL_SURFACE ( 'NONE', #44, 0.03146450399999999731, 0.1745329251994338637 ) ;
#112 = LINE ( 'NONE', #13, #61 ) ;
#113 = CARTESIAN_POINT ( 'NONE',  ( -0.03146450399999998343, 5.542721041700301730E-18, 0.09448800000000000254 ) ) ;
#114 =( CONVERSION_BASED_UNIT ( 'INCH', #167 ) LENGTH_UNIT ( ) NAMED_UNIT ( #222 ) );
#115 = CONICAL_SURFACE ( 'NONE', #141, 0.03146450399999999731, 0.1745329251994338637 ) ;
#116 = DIRECTION ( 'NONE',  ( 1.000000000000000000, 0.0000000000000000000, 0.0000000000000000000 ) ) ;
#117 = FACE_OUTER_BOUND ( 'NONE', #126, .T. ) ;
#118 = LINE ( 'NONE', #248, #55 ) ;
#119 = ADVANCED_FACE ( 'NONE', ( #323 ), #219, .T. ) ;
#120 = FACE_OUTER_BOUND ( 'NONE', #66, .T. ) ;
#121 =( LENGTH_UNIT ( ) NAMED_UNIT ( * ) SI_UNIT ( $, .METRE. ) );
#122 = EDGE_LOOP ( 'NONE', ( #107, #256, #154, #39 ) ) ;
#123 =( LENGTH_UNIT ( ) NAMED_UNIT ( * ) SI_UNIT ( $, .METRE. ) );
#124 = VERTEX_POINT ( 'NONE', #192 ) ;
#125 = DIRECTION ( 'NONE',  ( -1.224646799147353207E-16, -0.0000000000000000000, -1.000000000000000000 ) ) ;
#126 = EDGE_LOOP ( 'NONE', ( #130, #232, #260 ) ) ;
#127 = PRODUCT_RELATED_PRODUCT_CATEGORY ( 'part', '', ( #298 ) ) ;
#128 = LINE ( 'NONE', #191, #22 ) ;
#129 = VECTOR ( 'NONE', #51, 39.37007874015748143 ) ;
#130 = ORIENTED_EDGE ( 'NONE', *, *, #26, .F. ) ;
#131 = CARTESIAN_POINT ( 'NONE',  ( -0.03146450399999999731, 0.0000000000000000000, 3.853290411035908808E-18 ) ) ;
#132 = VERTEX_POINT ( 'NONE', #294 ) ;
#133 =( LENGTH_UNIT ( ) NAMED_UNIT ( * ) SI_UNIT ( $, .METRE. ) );
#134 = CARTESIAN_POINT ( 'NONE',  ( 0.05905500000000004496, 7.232151672364700045E-18, 0.2509614783590343179 ) ) ;
#135 = AXIS2_PLACEMENT_3D ( 'NONE', #100, #224, #148 ) ;
#136 = AXIS2_PLACEMENT_3D ( 'NONE', #69, #319, #46 ) ;
#137 = FACE_OUTER_BOUND ( 'NONE', #264, .T. ) ;
#138 =( NAMED_UNIT ( * ) SI_UNIT ( $, .STERADIAN. ) SOLID_ANGLE_UNIT ( ) );
#139 = AXIS2_PLACEMENT_3D ( 'NONE', #75, #226, #4 ) ;
#140 = UNCERTAINTY_MEASURE_WITH_UNIT (LENGTH_MEASURE( 1.000000000000000082E-05 ), #114, 'distance_accuracy_value', 'NONE');
#141 = AXIS2_PLACEMENT_3D ( 'NONE', #143, #25, #77 ) ;
#142 =( GEOMETRIC_REPRESENTATION_CONTEXT ( 3 ) GLOBAL_UNCERTAINTY_ASSIGNED_CONTEXT ( ( #245 ) ) GLOBAL_UNIT_ASSIGNED_CONTEXT ( ( #296, #20, #138 ) ) REPRESENTATION_CONTEXT ( 'NONE', 'WORKASPACE' ) );
#143 = CARTESIAN_POINT ( 'NONE',  ( 1.157144267578351175E-17, 0.0000000000000000000, 0.09448800000000000254 ) ) ;
#144 = EDGE_CURVE ( 'NONE', #78, #124, #83, .T. ) ;
#145 = CARTESIAN_POINT ( 'NONE',  ( -0.03146450399999998343, 3.853290411035908808E-18, 0.09448800000000000254 ) ) ;
#146 = ORIENTED_EDGE ( 'NONE', *, *, #206, .T. ) ;
#147 = AXIS2_PLACEMENT_3D ( 'NONE', #91, #266, #239 ) ;
#148 = DIRECTION ( 'NONE',  ( -1.000000000000000000, 1.224646799147353207E-16, 0.0000000000000000000 ) ) ;
#149 = VERTEX_POINT ( 'NONE', #12 ) ;
#150 = LINE ( 'NONE', #131, #90 ) ;
#151 = EDGE_CURVE ( 'NONE', #152, #132, #103, .T. ) ;
#152 = VERTEX_POINT ( 'NONE', #102 ) ;
#153 = LINE ( 'NONE', #64, #311 ) ;
#154 = ORIENTED_EDGE ( 'NONE', *, *, #106, .T. ) ;
#155 = DIRECTION ( 'NONE',  ( -1.000000000000000000, 0.0000000000000000000, 1.356612038155888783E-16 ) ) ;
#156 = AXIS2_PLACEMENT_3D ( 'NONE', #290, #67, #271 ) ;
#157 = ORIENTED_EDGE ( 'NONE', *, *, #45, .T. ) ;
#158 = CARTESIAN_POINT ( 'NONE',  ( 5.779935616553862056E-18, 0.0000000000000000000, 0.0000000000000000000 ) ) ;
#159 = EDGE_CURVE ( 'NONE', #316, #124, #257, .T. ) ;
#160 = CARTESIAN_POINT ( 'NONE',  ( 0.0000000000000000000, 0.0000000000000000000, 1.481062999999999574 ) ) ;
#161 = DIRECTION ( 'NONE',  ( -0.0000000000000000000, -0.0000000000000000000, -1.000000000000000000 ) ) ;
#162 = CYLINDRICAL_SURFACE ( 'NONE', #312, 0.05905500000000000332 ) ;
#163 = AXIS2_PLACEMENT_3D ( 'NONE', #252, #56, #32 ) ;
#164 = DIRECTION ( 'NONE',  ( 1.000000000000000000, 0.0000000000000000000, 0.0000000000000000000 ) ) ;
#165 = SURFACE_STYLE_FILL_AREA ( #244 ) ;
#166 = EDGE_CURVE ( 'NONE', #152, #262, #201, .T. ) ;
#167 = LENGTH_MEASURE_WITH_UNIT ( LENGTH_MEASURE( 0.02539999999999999897 ), #133 );
#168 = PRESENTATION_STYLE_ASSIGNMENT (( #70 ) ) ;
#169 = APPLICATION_PROTOCOL_DEFINITION ( 'draft international standard', 'automotive_design', 1998, #93 ) ;
#170 = AXIS2_PLACEMENT_3D ( 'NONE', #293, #92, #14 ) ;
#171 = EDGE_CURVE ( 'NONE', #287, #132, #300, .T. ) ;
#172 = FACE_OUTER_BOUND ( 'NONE', #246, .T. ) ;
#173 = AXIS2_PLACEMENT_3D ( 'NONE', #87, #36, #38 ) ;
#174 = COLOUR_RGB ( '',0.7921568627450980005, 0.8196078431372548767, 0.9333333333333333481 ) ;
#175 = SURFACE_SIDE_STYLE ('',( #80 ) ) ;
#176 = EDGE_CURVE ( 'NONE', #286, #78, #118, .T. ) ;
#177 = DIRECTION ( 'NONE',  ( -1.000000000000000000, 0.0000000000000000000, 0.0000000000000000000 ) ) ;
#178 = EDGE_LOOP ( 'NONE', ( #53, #267, #81, #185 ) ) ;
#179 = EDGE_LOOP ( 'NONE', ( #318, #33, #146, #30 ) ) ;
#180 =( CONVERSION_BASED_UNIT ( 'INCH', #208 ) LENGTH_UNIT ( ) NAMED_UNIT ( #68 ) );
#181 = ORIENTED_EDGE ( 'NONE', *, *, #166, .T. ) ;
#182 = EDGE_LOOP ( 'NONE', ( #214, #157, #84, #276 ) ) ;
#183 = ORIENTED_EDGE ( 'NONE', *, *, #176, .F. ) ;
#184 = DIRECTION ( 'NONE',  ( 0.0000000000000000000, -1.000000000000000000, 0.0000000000000000000 ) ) ;
#185 = ORIENTED_EDGE ( 'NONE', *, *, #144, .T. ) ;
#186 = CARTESIAN_POINT ( 'NONE',  ( 0.03146450400000001119, 0.0000000000000000000, 0.09448800000000000254 ) ) ;
#187 = PRESENTATION_LAYER_ASSIGNMENT (  '', '', ( #6 ) ) ;
#188 = MECHANICAL_DESIGN_GEOMETRIC_PRESENTATION_REPRESENTATION (  '', ( #6 ), #211 ) ;
#189 = ORIENTED_EDGE ( 'NONE', *, *, #159, .T. ) ;
#190 = ADVANCED_FACE ( 'NONE', ( #303 ), #285, .T. ) ;
#191 = CARTESIAN_POINT ( 'NONE',  ( -0.05905500000000000332, 0.0000000000000000000, 1.496062999999999921 ) ) ;
#192 = CARTESIAN_POINT ( 'NONE',  ( -0.05905499999999996863, 0.0000000000000000000, 0.2509614783590343179 ) ) ;
#193 = CARTESIAN_POINT ( 'NONE',  ( -0.05905500000000000332, 0.0000000000000000000, 1.481062999999999574 ) ) ;
#194 = AXIS2_PLACEMENT_3D ( 'NONE', #27, #97, #281 ) ;
#195 = CARTESIAN_POINT ( 'NONE',  ( 0.0000000000000000000, 0.0000000000000000000, 1.496062999999999921 ) ) ;
#196 = EDGE_CURVE ( 'NONE', #320, #149, #29, .T. ) ;
#197 = AXIS2_PLACEMENT_3D ( 'NONE', #160, #42, #240 ) ;
#198 = AXIS2_PLACEMENT_3D ( 'NONE', #28, #8, #116 ) ;
#199 = FACE_OUTER_BOUND ( 'NONE', #179, .T. ) ;
#200 = FILL_AREA_STYLE_COLOUR ( '', #304 ) ;
#201 = CIRCLE ( 'NONE', #258, 0.04405499999999973326 ) ;
#202 = DIRECTION ( 'NONE',  ( -0.0000000000000000000, -0.0000000000000000000, -1.000000000000000000 ) ) ;
#203 = ORIENTED_EDGE ( 'NONE', *, *, #26, .T. ) ;
#204 = SPHERICAL_SURFACE ( 'NONE', #194, 0.03146450399999999731 ) ;
#205 = ORIENTED_EDGE ( 'NONE', *, *, #1, .T. ) ;
#206 = EDGE_CURVE ( 'NONE', #262, #287, #259, .T. ) ;
#207 = CLOSED_SHELL ( 'NONE', ( #254, #50, #225, #265, #297, #190, #230, #247, #275, #119, #314 ) ) ;
#208 = LENGTH_MEASURE_WITH_UNIT ( LENGTH_MEASURE( 0.02539999999999999897 ), #123 );
#209 = ADVANCED_BREP_SHAPE_REPRESENTATION ( 'Micro_BMSM-016-2', ( #274, #237 ), #142 ) ;
#210 = AXIS2_PLACEMENT_3D ( 'NONE', #268, #263, #212 ) ;
#211 =( GEOMETRIC_REPRESENTATION_CONTEXT ( 3 ) GLOBAL_UNCERTAINTY_ASSIGNED_CONTEXT ( ( #47 ) ) GLOBAL_UNIT_ASSIGNED_CONTEXT ( ( #180, #325, #63 ) ) REPRESENTATION_CONTEXT ( 'NONE', 'WORKASPACE' ) );
#212 = DIRECTION ( 'NONE',  ( -1.000000000000000000, 0.0000000000000000000, 1.224646799147353207E-16 ) ) ;
#213 = DIRECTION ( 'NONE',  ( 1.000000000000000000, 0.0000000000000000000, 0.0000000000000000000 ) ) ;
#214 = ORIENTED_EDGE ( 'NONE', *, *, #171, .T. ) ;
#215 = EDGE_CURVE ( 'NONE', #316, #286, #71, .T. ) ;
#216 = VERTEX_POINT ( 'NONE', #99 ) ;
#217 = AXIS2_PLACEMENT_3D ( 'NONE', #54, #202, #52 ) ;
#218 = CARTESIAN_POINT ( 'NONE',  ( 1.157144267578351175E-17, 0.0000000000000000000, 0.09448800000000000254 ) ) ;
#219 = CYLINDRICAL_SURFACE ( 'NONE', #147, 0.03146450399999999731 ) ;
#220 = FILL_AREA_STYLE_COLOUR ( '', #174 ) ;
#221 = DIRECTION ( 'NONE',  ( -1.000000000000000000, 0.0000000000000000000, 0.0000000000000000000 ) ) ;
#222 = DIMENSIONAL_EXPONENTS ( 1.000000000000000000, 0.0000000000000000000, 0.0000000000000000000, 0.0000000000000000000, 0.0000000000000000000, 0.0000000000000000000, 0.0000000000000000000 ) ;
#223 = AXIS2_PLACEMENT_3D ( 'NONE', #49, #309, #96 ) ;
#224 = DIRECTION ( 'NONE',  ( 1.224646799147353207E-16, 1.000000000000000000, -0.0000000000000000000 ) ) ;
#225 = ADVANCED_FACE ( 'NONE', ( #255 ), #115, .T. ) ;
#226 = DIRECTION ( 'NONE',  ( 0.0000000000000000000, 0.0000000000000000000, -1.000000000000000000 ) ) ;
#227 = DIRECTION ( 'NONE',  ( 0.1736481776669313581, 0.0000000000000000000, 0.9848077530122077983 ) ) ;
#228 = CIRCLE ( 'NONE', #173, 0.03146450399999999731 ) ;
#229 = PLANE ( 'NONE',  #223 ) ;
#230 = ADVANCED_FACE ( 'NONE', ( #120 ), #229, .T. ) ;
#231 = ORIENTED_EDGE ( 'NONE', *, *, #79, .T. ) ;
#232 = ORIENTED_EDGE ( 'NONE', *, *, #196, .T. ) ;
#233 = ORIENTED_EDGE ( 'NONE', *, *, #23, .F. ) ;
#234 = DIRECTION ( 'NONE',  ( 1.000000000000000000, 0.0000000000000000000, 0.0000000000000000000 ) ) ;
#235 = ORIENTED_EDGE ( 'NONE', *, *, #306, .T. ) ;
#236 = AXIS2_PLACEMENT_3D ( 'NONE', #280, #305, #177 ) ;
#237 = AXIS2_PLACEMENT_3D ( 'NONE', #313, #2, #213 ) ;
#238 = DIRECTION ( 'NONE',  ( -1.224646799147353207E-16, -0.0000000000000000000, -1.000000000000000000 ) ) ;
#239 = DIRECTION ( 'NONE',  ( -1.000000000000000000, 0.0000000000000000000, 1.224646799147353207E-16 ) ) ;
#240 = DIRECTION ( 'NONE',  ( 1.000000000000000000, 0.0000000000000000000, 0.0000000000000000000 ) ) ;
#241 = PRODUCT_CONTEXT ( 'NONE', #73, 'mechanical' ) ;
#242 = FACE_OUTER_BOUND ( 'NONE', #178, .T. ) ;
#243 = CARTESIAN_POINT ( 'NONE',  ( 3.853290411035908808E-18, 0.0000000000000000000, 0.03146450399999999731 ) ) ;
#244 = FILL_AREA_STYLE ('',( #220 ) ) ;
#245 = UNCERTAINTY_MEASURE_WITH_UNIT (LENGTH_MEASURE( 1.000000000000000082E-05 ), #296, 'distance_accuracy_value', 'NONE');
#246 = EDGE_LOOP ( 'NONE', ( #89, #60, #108, #101 ) ) ;
#247 = ADVANCED_FACE ( 'NONE', ( #199 ), #48, .T. ) ;
#248 = CARTESIAN_POINT ( 'NONE',  ( 0.03146450400000001119, 0.0000000000000000000, 0.09448800000000000254 ) ) ;
#249 = CIRCLE ( 'NONE', #277, 0.03146450399999999731 ) ;
#250 = PRODUCT_DEFINITION ( 'UNKNOWN', '', #284, #317 ) ;
#251 = CIRCLE ( 'NONE', #156, 0.05905500000000000332 ) ;
#252 = CARTESIAN_POINT ( 'NONE',  ( 1.157144267578351175E-17, 0.0000000000000000000, 0.09448800000000000254 ) ) ;
#253 = CARTESIAN_POINT ( 'NONE',  ( -0.04405499999999973326, 0.0000000000000000000, 1.496062999999999921 ) ) ;
#254 = ADVANCED_FACE ( 'NONE', ( #117 ), #204, .T. ) ;
#255 = FACE_OUTER_BOUND ( 'NONE', #307, .T. ) ;
#256 = ORIENTED_EDGE ( 'NONE', *, *, #110, .T. ) ;
#257 = LINE ( 'NONE', #145, #104 ) ;
#258 = AXIS2_PLACEMENT_3D ( 'NONE', #279, #5, #302 ) ;
#259 = LINE ( 'NONE', #3, #129 ) ;
#260 = ORIENTED_EDGE ( 'NONE', *, *, #106, .F. ) ;
#261 = CARTESIAN_POINT ( 'NONE',  ( 3.073391711816791427E-17, 0.0000000000000000000, 0.2509614783590343179 ) ) ;
#262 = VERTEX_POINT ( 'NONE', #253 ) ;
#263 = DIRECTION ( 'NONE',  ( -1.224646799147353207E-16, -0.0000000000000000000, -1.000000000000000000 ) ) ;
#264 = EDGE_LOOP ( 'NONE', ( #289, #203, #233 ) ) ;
#265 = ADVANCED_FACE ( 'NONE', ( #172 ), #98, .T. ) ;
#266 = DIRECTION ( 'NONE',  ( -1.224646799147353207E-16, -0.0000000000000000000, -1.000000000000000000 ) ) ;
#267 = ORIENTED_EDGE ( 'NONE', *, *, #74, .F. ) ;
#268 = CARTESIAN_POINT ( 'NONE',  ( 0.0000000000000000000, 0.0000000000000000000, 0.0000000000000000000 ) ) ;
#269 = AXIS2_PLACEMENT_3D ( 'NONE', #261, #125, #234 ) ;
#270 = MECHANICAL_DESIGN_GEOMETRIC_PRESENTATION_REPRESENTATION (  '', ( #17 ), #7 ) ;
#271 = DIRECTION ( 'NONE',  ( 1.000000000000000000, 0.0000000000000000000, 0.0000000000000000000 ) ) ;
#272 = DIMENSIONAL_EXPONENTS ( 1.000000000000000000, 0.0000000000000000000, 0.0000000000000000000, 0.0000000000000000000, 0.0000000000000000000, 0.0000000000000000000, 0.0000000000000000000 ) ;
#273 = LENGTH_MEASURE_WITH_UNIT ( LENGTH_MEASURE( 0.02539999999999999897 ), #121 );
#274 = MANIFOLD_SOLID_BREP ( 'Fillet1', #207 ) ;
#275 = ADVANCED_FACE ( 'NONE', ( #242 ), #111, .T. ) ;
#276 = ORIENTED_EDGE ( 'NONE', *, *, #40, .F. ) ;
#277 = AXIS2_PLACEMENT_3D ( 'NONE', #243, #85, #155 ) ;
#278 = EDGE_CURVE ( 'NONE', #262, #152, #105, .T. ) ;
#279 = CARTESIAN_POINT ( 'NONE',  ( 0.0000000000000000000, 0.0000000000000000000, 1.496062999999999921 ) ) ;
#280 = CARTESIAN_POINT ( 'NONE',  ( 0.0000000000000000000, 0.0000000000000000000, 1.496062999999999921 ) ) ;
#281 = DIRECTION ( 'NONE',  ( 1.000000000000000000, 0.0000000000000000000, 0.0000000000000000000 ) ) ;
#282 = DIRECTION ( 'NONE',  ( -0.1736481776669311639, 2.126576849575783008E-17, 0.9848077530122080203 ) ) ;
#283 = ORIENTED_EDGE ( 'NONE', *, *, #40, .T. ) ;
#284 = PRODUCT_DEFINITION_FORMATION_WITH_SPECIFIED_SOURCE ( 'ANY', '', #298, .NOT_KNOWN. ) ;
#285 = CYLINDRICAL_SURFACE ( 'NONE', #217, 0.05905500000000000332 ) ;
#286 = VERTEX_POINT ( 'NONE', #186 ) ;
#287 = VERTEX_POINT ( 'NONE', #193 ) ;
#288 = DIRECTION ( 'NONE',  ( -1.224646799147353207E-16, -0.0000000000000000000, -1.000000000000000000 ) ) ;
#289 = ORIENTED_EDGE ( 'NONE', *, *, #196, .F. ) ;
#290 = CARTESIAN_POINT ( 'NONE',  ( 3.073391711816791427E-17, 0.0000000000000000000, 0.2509614783590343179 ) ) ;
#291 = ORIENTED_EDGE ( 'NONE', *, *, #144, .F. ) ;
#292 = DIRECTION ( 'NONE',  ( -0.0000000000000000000, -0.0000000000000000000, -1.000000000000000000 ) ) ;
#293 = CARTESIAN_POINT ( 'NONE',  ( 0.0000000000000000000, 0.0000000000000000000, 1.496062999999999921 ) ) ;
#294 = CARTESIAN_POINT ( 'NONE',  ( 0.05905500000000000332, 7.232151672364695422E-18, 1.481062999999999574 ) ) ;
#295 = AXIS2_PLACEMENT_3D ( 'NONE', #315, #184, #109 ) ;
#296 =( CONVERSION_BASED_UNIT ( 'INCH', #273 ) LENGTH_UNIT ( ) NAMED_UNIT ( #272 ) );
#297 = ADVANCED_FACE ( 'NONE', ( #65 ), #162, .T. ) ;
#298 = PRODUCT ( 'Micro_BMSM-016-2', 'Micro_BMSM-016-2', '', ( #241 ) ) ;
#299 = EDGE_LOOP ( 'NONE', ( #308, #310, #231, #15 ) ) ;
#300 = CIRCLE ( 'NONE', #198, 0.05905500000000000332 ) ;
#301 = PRESENTATION_LAYER_ASSIGNMENT (  '', '', ( #17 ) ) ;
#302 = DIRECTION ( 'NONE',  ( 1.000000000000000000, 0.0000000000000000000, 0.0000000000000000000 ) ) ;
#303 = FACE_OUTER_BOUND ( 'NONE', #9, .T. ) ;
#304 = COLOUR_RGB ( '',0.7921568627450980005, 0.8196078431372548767, 0.9333333333333333481 ) ;
#305 = DIRECTION ( 'NONE',  ( 0.0000000000000000000, 0.0000000000000000000, -1.000000000000000000 ) ) ;
#306 = EDGE_CURVE ( 'NONE', #124, #78, #251, .T. ) ;
#307 = EDGE_LOOP ( 'NONE', ( #35, #189, #235, #183 ) ) ;
#308 = ORIENTED_EDGE ( 'NONE', *, *, #110, .F. ) ;
#309 = DIRECTION ( 'NONE',  ( 0.0000000000000000000, 0.0000000000000000000, 1.000000000000000000 ) ) ;
#310 = ORIENTED_EDGE ( 'NONE', *, *, #74, .T. ) ;
#311 = VECTOR ( 'NONE', #161, 39.37007874015748143 ) ;
#312 = AXIS2_PLACEMENT_3D ( 'NONE', #195, #62, #221 ) ;
#313 = CARTESIAN_POINT ( 'NONE',  ( 0.0000000000000000000, 0.0000000000000000000, 0.0000000000000000000 ) ) ;
#314 = ADVANCED_FACE ( 'NONE', ( #137 ), #94, .T. ) ;
#315 = CARTESIAN_POINT ( 'NONE',  ( 3.853290411035908808E-18, 0.0000000000000000000, 0.03146450399999999731 ) ) ;
#316 = VERTEX_POINT ( 'NONE', #113 ) ;
#317 = PRODUCT_DEFINITION_CONTEXT ( 'detailed design', #93, 'design' ) ;
#318 = ORIENTED_EDGE ( 'NONE', *, *, #151, .F. ) ;
#319 = DIRECTION ( 'NONE',  ( 0.0000000000000000000, 1.000000000000000000, 0.0000000000000000000 ) ) ;
#320 = VERTEX_POINT ( 'NONE', #158 ) ;
#321 = DIRECTION ( 'NONE',  ( 1.224646799147353207E-16, 0.0000000000000000000, 1.000000000000000000 ) ) ;
#322 = VECTOR ( 'NONE', #10, 39.37007874015748143 ) ;
#323 = FACE_OUTER_BOUND ( 'NONE', #299, .T. ) ;
#324 = CIRCLE ( 'NONE', #197, 0.05905500000000000332 ) ;
#325 =( NAMED_UNIT ( * ) PLANE_ANGLE_UNIT ( ) SI_UNIT ( $, .RADIAN. ) );
ENDSEC;
END-ISO-10303-21;
