ISO-10303-21;
HEADER;
FILE_DESCRIPTION (( 'STEP AP214' ),
    '1' );
FILE_NAME ('82462.STEP',
    '2023-06-30T22:42:11',
    ( '' ),
    ( '' ),
    'SwSTEP 2.0',
    'SolidWorks 2023',
    '' );
FILE_SCHEMA (( 'AUTOMOTIVE_DESIGN' ));
ENDSEC;

DATA;
#1 = STYLED_ITEM ( 'NONE', ( #92 ), #208 ) ;
#2 = CIRCLE ( 'NONE', #220, 0.1874999999999999167 ) ;
#3 = SURFACE_STYLE_FILL_AREA ( #139 ) ;
#4 = DIRECTION ( 'NONE',  ( 0.000000000000000000, 0.000000000000000000, 1.000000000000000000 ) ) ;
#5 = VERTEX_POINT ( 'NONE', #307 ) ;
#6 = ORIENTED_EDGE ( 'NONE', *, *, #332, .T. ) ;
#7 = ORIENTED_EDGE ( 'NONE', *, *, #245, .F. ) ;
#8 =( GEOMETRIC_REPRESENTATION_CONTEXT ( 3 ) GLOBAL_UNCERTAINTY_ASSIGNED_CONTEXT ( ( #223 ) ) GLOBAL_UNIT_ASSIGNED_CONTEXT ( ( #320, #142, #288 ) ) REPRESENTATION_CONTEXT ( 'NONE', 'WORKASPACE' ) );
#9 = SURFACE_STYLE_FILL_AREA ( #289 ) ;
#10 =( CONVERSION_BASED_UNIT ( 'INCH', #230 ) LENGTH_UNIT ( ) NAMED_UNIT ( #72 ) );
#11 = ORIENTED_EDGE ( 'NONE', *, *, #32, .T. ) ;
#12 = DIRECTION ( 'NONE',  ( -0.000000000000000000, -1.000000000000000000, -0.000000000000000000 ) ) ;
#13 = CARTESIAN_POINT ( 'NONE',  ( -2.296212748401287726E-17, 0.1875000000000000278, 0.000000000000000000 ) ) ;
#14 = ORIENTED_EDGE ( 'NONE', *, *, #107, .T. ) ;
#15 = FILL_AREA_STYLE ('',( #100 ) ) ;
#16 = VERTEX_POINT ( 'NONE', #337 ) ;
#17 = MECHANICAL_DESIGN_GEOMETRIC_PRESENTATION_REPRESENTATION (  '', ( #196 ), #89 ) ;
#18 =( NAMED_UNIT ( * ) SI_UNIT ( $, .STERADIAN. ) SOLID_ANGLE_UNIT ( ) );
#19 = DIMENSIONAL_EXPONENTS ( 1.000000000000000000, 0.000000000000000000, 0.000000000000000000, 0.000000000000000000, 0.000000000000000000, 0.000000000000000000, 0.000000000000000000 ) ;
#20 = FILL_AREA_STYLE ('',( #129 ) ) ;
#21 = EDGE_CURVE ( 'NONE', #16, #181, #148, .T. ) ;
#22 = SURFACE_SIDE_STYLE ('',( #298 ) ) ;
#23 = SURFACE_SIDE_STYLE ('',( #137 ) ) ;
#24 = CIRCLE ( 'NONE', #359, 0.1874999999999999167 ) ;
#25 = COLOUR_RGB ( '',0.7921568627450980005, 0.8196078431372548767, 0.9333333333333333481 ) ;
#26 = DIRECTION ( 'NONE',  ( -1.000000000000000000, 0.000000000000000000, 0.000000000000000000 ) ) ;
#27 = AXIS2_PLACEMENT_3D ( 'NONE', #338, #238, #95 ) ;
#28 = PRESENTATION_STYLE_ASSIGNMENT (( #285 ) ) ;
#29 =( GEOMETRIC_REPRESENTATION_CONTEXT ( 3 ) GLOBAL_UNCERTAINTY_ASSIGNED_CONTEXT ( ( #333 ) ) GLOBAL_UNIT_ASSIGNED_CONTEXT ( ( #246, #184, #18 ) ) REPRESENTATION_CONTEXT ( 'NONE', 'WORKASPACE' ) );
#30 = FILL_AREA_STYLE_COLOUR ( '', #329 ) ;
#31 = LENGTH_MEASURE_WITH_UNIT ( LENGTH_MEASURE( 0.02539999999999999897 ), #312 );
#32 = EDGE_CURVE ( 'NONE', #93, #153, #24, .T. ) ;
#33 = SURFACE_STYLE_USAGE ( .BOTH. , #318 ) ;
#34 = DIRECTION ( 'NONE',  ( 0.000000000000000000, 0.000000000000000000, -1.000000000000000000 ) ) ;
#35 = DIRECTION ( 'NONE',  ( 0.000000000000000000, 0.000000000000000000, -1.000000000000000000 ) ) ;
#36 = FILL_AREA_STYLE ('',( #122 ) ) ;
#37 = EDGE_LOOP ( 'NONE', ( #364, #68, #260, #293 ) ) ;
#38 = DIRECTION ( 'NONE',  ( -0.000000000000000000, -1.000000000000000000, -0.000000000000000000 ) ) ;
#39 =( GEOMETRIC_REPRESENTATION_CONTEXT ( 3 ) GLOBAL_UNCERTAINTY_ASSIGNED_CONTEXT ( ( #304 ) ) GLOBAL_UNIT_ASSIGNED_CONTEXT ( ( #296, #61, #173 ) ) REPRESENTATION_CONTEXT ( 'NONE', 'WORKASPACE' ) );
#40 = MANIFOLD_SOLID_BREP ( 'Revolve - Tool Body (Straight Shanked)', #294 ) ;
#41 = CARTESIAN_POINT ( 'NONE',  ( 2.793702596253717253E-16, 0.7500000000000001110, 0.000000000000000000 ) ) ;
#42 = DIMENSIONAL_EXPONENTS ( 1.000000000000000000, 0.000000000000000000, 0.000000000000000000, 0.000000000000000000, 0.000000000000000000, 0.000000000000000000, 0.000000000000000000 ) ;
#43 =( LENGTH_UNIT ( ) NAMED_UNIT ( * ) SI_UNIT ( $, .METRE. ) );
#44 = CARTESIAN_POINT ( 'NONE',  ( 0.000000000000000000, 0.000000000000000000, 0.000000000000000000 ) ) ;
#45 = ORIENTED_EDGE ( 'NONE', *, *, #269, .F. ) ;
#46 = DIRECTION ( 'NONE',  ( 1.000000000000000000, 0.000000000000000000, 0.000000000000000000 ) ) ;
#47 = COLOUR_RGB ( '',1.000000000000000000, 0.000000000000000000, 0.000000000000000000 ) ;
#48 = DIMENSIONAL_EXPONENTS ( 1.000000000000000000, 0.000000000000000000, 0.000000000000000000, 0.000000000000000000, 0.000000000000000000, 0.000000000000000000, 0.000000000000000000 ) ;
#49 = DIRECTION ( 'NONE',  ( -0.000000000000000000, -1.000000000000000000, -0.000000000000000000 ) ) ;
#50 = CARTESIAN_POINT ( 'NONE',  ( 2.296212748401286493E-17, 0.000000000000000000, 0.1874999999999999445 ) ) ;
#51 = MECHANICAL_DESIGN_GEOMETRIC_PRESENTATION_REPRESENTATION (  '', ( #346 ), #8 ) ;
#52 = PRODUCT_DEFINITION ( 'UNKNOWN', '', #170, #115 ) ;
#53 = DIRECTION ( 'NONE',  ( 0.000000000000000000, 0.000000000000000000, -1.000000000000000000 ) ) ;
#54 = COLOUR_RGB ( '',1.000000000000000000, 0.000000000000000000, 0.000000000000000000 ) ;
#55 = CARTESIAN_POINT ( 'NONE',  ( 2.793702596253717253E-16, 0.7499999999999998890, 0.000000000000000000 ) ) ;
#56 = ORIENTED_EDGE ( 'NONE', *, *, #138, .T. ) ;
#57 = DIMENSIONAL_EXPONENTS ( 1.000000000000000000, 0.000000000000000000, 0.000000000000000000, 0.000000000000000000, 0.000000000000000000, 0.000000000000000000, 0.000000000000000000 ) ;
#58 = PLANE ( 'NONE',  #319 ) ;
#59 = PRESENTATION_LAYER_ASSIGNMENT (  '', '', ( #354 ) ) ;
#60 = COLOUR_RGB ( '',1.000000000000000000, 0.000000000000000000, 0.000000000000000000 ) ;
#61 =( NAMED_UNIT ( * ) PLANE_ANGLE_UNIT ( ) SI_UNIT ( $, .RADIAN. ) );
#62 = PRESENTATION_STYLE_ASSIGNMENT (( #204 ) ) ;
#63 =( LENGTH_UNIT ( ) NAMED_UNIT ( * ) SI_UNIT ( $, .METRE. ) );
#64 = AXIS2_PLACEMENT_3D ( 'NONE', #167, #12, #34 ) ;
#65 = LINE ( 'NONE', #326, #311 ) ;
#66 = LENGTH_MEASURE_WITH_UNIT ( LENGTH_MEASURE( 0.02539999999999999897 ), #126 );
#67 = DIRECTION ( 'NONE',  ( -1.246502398102879949E-16, 1.000000000000000000, -0.000000000000000000 ) ) ;
#68 = ORIENTED_EDGE ( 'NONE', *, *, #179, .T. ) ;
#69 = CARTESIAN_POINT ( 'NONE',  ( 0.000000000000000000, 0.1875000000000000555, 0.000000000000000000 ) ) ;
#70 = DIRECTION ( 'NONE',  ( 1.000000000000000000, 0.000000000000000000, 0.000000000000000000 ) ) ;
#71 = ORIENTED_EDGE ( 'NONE', *, *, #277, .F. ) ;
#72 = DIMENSIONAL_EXPONENTS ( 1.000000000000000000, 0.000000000000000000, 0.000000000000000000, 0.000000000000000000, 0.000000000000000000, 0.000000000000000000, 0.000000000000000000 ) ;
#73 = DIRECTION ( 'NONE',  ( 0.000000000000000000, 0.000000000000000000, -1.000000000000000000 ) ) ;
#74 =( GEOMETRIC_REPRESENTATION_CONTEXT ( 3 ) GLOBAL_UNCERTAINTY_ASSIGNED_CONTEXT ( ( #159 ) ) GLOBAL_UNIT_ASSIGNED_CONTEXT ( ( #256, #261, #195 ) ) REPRESENTATION_CONTEXT ( 'NONE', 'WORKASPACE' ) );
#75 = DIRECTION ( 'NONE',  ( -1.000000000000000000, 0.000000000000000000, 0.000000000000000000 ) ) ;
#76 = UNCERTAINTY_MEASURE_WITH_UNIT (LENGTH_MEASURE( 1.000000000000000082E-05 ), #178, 'distance_accuracy_value', 'NONE');
#77 = DIRECTION ( 'NONE',  ( -1.246502398102879949E-16, 1.000000000000000000, -0.000000000000000000 ) ) ;
#78 = VERTEX_POINT ( 'NONE', #163 ) ;
#79 = AXIS2_PLACEMENT_3D ( 'NONE', #123, #309, #112 ) ;
#80 = ADVANCED_FACE ( 'NONE', ( #192 ), #373, .T. ) ;
#81 = COLOUR_RGB ( '',1.000000000000000000, 0.000000000000000000, 0.000000000000000000 ) ;
#82 = MECHANICAL_DESIGN_GEOMETRIC_PRESENTATION_REPRESENTATION (  '', ( #197 ), #29 ) ;
#83 = DIRECTION ( 'NONE',  ( -1.246502398102879949E-16, 1.000000000000000000, 0.000000000000000000 ) ) ;
#84 = CARTESIAN_POINT ( 'NONE',  ( 0.000000000000000000, 0.7500000000000001110, 0.000000000000000000 ) ) ;
#85 = DIRECTION ( 'NONE',  ( 0.000000000000000000, 1.000000000000000000, 0.000000000000000000 ) ) ;
#86 =( NAMED_UNIT ( * ) PLANE_ANGLE_UNIT ( ) SI_UNIT ( $, .RADIAN. ) );
#87 = SURFACE_STYLE_FILL_AREA ( #36 ) ;
#88 = ORIENTED_EDGE ( 'NONE', *, *, #277, .T. ) ;
#89 =( GEOMETRIC_REPRESENTATION_CONTEXT ( 3 ) GLOBAL_UNCERTAINTY_ASSIGNED_CONTEXT ( ( #172 ) ) GLOBAL_UNIT_ASSIGNED_CONTEXT ( ( #243, #254, #362 ) ) REPRESENTATION_CONTEXT ( 'NONE', 'WORKASPACE' ) );
#90 = DIRECTION ( 'NONE',  ( 1.000000000000000000, 0.000000000000000000, -1.224646799147353207E-16 ) ) ;
#91 = ADVANCED_FACE ( 'NONE', ( #200 ), #274, .T. ) ;
#92 = PRESENTATION_STYLE_ASSIGNMENT (( #232 ) ) ;
#93 = VERTEX_POINT ( 'NONE', #265 ) ;
#94 = EDGE_CURVE ( 'NONE', #181, #125, #334, .T. ) ;
#95 = DIRECTION ( 'NONE',  ( -1.000000000000000000, 0.000000000000000000, 0.000000000000000000 ) ) ;
#96 = DIRECTION ( 'NONE',  ( 1.000000000000000000, 0.000000000000000000, 0.000000000000000000 ) ) ;
#97 = SURFACE_SIDE_STYLE ('',( #349 ) ) ;
#98 = ORIENTED_EDGE ( 'NONE', *, *, #332, .F. ) ;
#99 = MECHANICAL_DESIGN_GEOMETRIC_PRESENTATION_REPRESENTATION (  '', ( #1 ), #116 ) ;
#100 = FILL_AREA_STYLE_COLOUR ( '', #47 ) ;
#101 = FACE_OUTER_BOUND ( 'NONE', #235, .T. ) ;
#102 = DIRECTION ( 'NONE',  ( 0.000000000000000000, 0.000000000000000000, 1.000000000000000000 ) ) ;
#103 = ORIENTED_EDGE ( 'NONE', *, *, #306, .F. ) ;
#104 = STYLED_ITEM ( 'NONE', ( #62 ), #187 ) ;
#105 = CIRCLE ( 'NONE', #180, 0.1874999999999999722 ) ;
#106 = DIRECTION ( 'NONE',  ( -0.000000000000000000, -1.000000000000000000, -0.000000000000000000 ) ) ;
#107 = EDGE_CURVE ( 'NONE', #264, #171, #233, .T. ) ;
#108 = LENGTH_MEASURE_WITH_UNIT ( LENGTH_MEASURE( 0.02539999999999999897 ), #43 );
#109 = ORIENTED_EDGE ( 'NONE', *, *, #306, .T. ) ;
#110 = PRESENTATION_LAYER_ASSIGNMENT (  '', '', ( #346 ) ) ;
#111 = DIRECTION ( 'NONE',  ( -0.000000000000000000, -1.000000000000000000, -0.000000000000000000 ) ) ;
#112 = DIRECTION ( 'NONE',  ( -1.000000000000000000, 0.000000000000000000, 0.000000000000000000 ) ) ;
#113 = APPLICATION_CONTEXT ( 'automotive_design' ) ;
#114 = SURFACE_SIDE_STYLE ('',( #3 ) ) ;
#115 = PRODUCT_DEFINITION_CONTEXT ( 'detailed design', #347, 'design' ) ;
#116 =( GEOMETRIC_REPRESENTATION_CONTEXT ( 3 ) GLOBAL_UNCERTAINTY_ASSIGNED_CONTEXT ( ( #369 ) ) GLOBAL_UNIT_ASSIGNED_CONTEXT ( ( #10, #270, #234 ) ) REPRESENTATION_CONTEXT ( 'NONE', 'WORKASPACE' ) );
#117 = DIRECTION ( 'NONE',  ( -1.000000000000000000, 0.000000000000000000, 0.000000000000000000 ) ) ;
#118 = LENGTH_MEASURE_WITH_UNIT ( LENGTH_MEASURE( 0.02539999999999999897 ), #308 );
#119 = AXIS2_PLACEMENT_3D ( 'NONE', #141, #263, #53 ) ;
#120 = AXIS2_PLACEMENT_3D ( 'NONE', #143, #67, #75 ) ;
#121 = FILL_AREA_STYLE ('',( #268 ) ) ;
#122 = FILL_AREA_STYLE_COLOUR ( '', #282 ) ;
#123 = CARTESIAN_POINT ( 'NONE',  ( 2.793702596253717253E-16, 0.7499999999999998890, 0.000000000000000000 ) ) ;
#124 = DIRECTION ( 'NONE',  ( 1.224646799147353207E-16, -0.000000000000000000, 1.000000000000000000 ) ) ;
#125 = VERTEX_POINT ( 'NONE', #370 ) ;
#126 =( LENGTH_UNIT ( ) NAMED_UNIT ( * ) SI_UNIT ( $, .METRE. ) );
#127 = LENGTH_MEASURE_WITH_UNIT ( LENGTH_MEASURE( 0.02539999999999999897 ), #357 );
#128 = CIRCLE ( 'NONE', #267, 0.1874999999999998335 ) ;
#129 = FILL_AREA_STYLE_COLOUR ( '', #81 ) ;
#130 = ORIENTED_EDGE ( 'NONE', *, *, #94, .F. ) ;
#131 = DIMENSIONAL_EXPONENTS ( 1.000000000000000000, 0.000000000000000000, 0.000000000000000000, 0.000000000000000000, 0.000000000000000000, 0.000000000000000000, 0.000000000000000000 ) ;
#132 = SURFACE_STYLE_USAGE ( .BOTH. , #22 ) ;
#133 = CYLINDRICAL_SURFACE ( 'NONE', #287, 0.1874999999999999445 ) ;
#134 = AXIS2_PLACEMENT_3D ( 'NONE', #13, #124, #90 ) ;
#135 = AXIS2_PLACEMENT_3D ( 'NONE', #174, #38, #35 ) ;
#136 = VECTOR ( 'NONE', #292, 39.37007874015748143 ) ;
#137 = SURFACE_STYLE_FILL_AREA ( #15 ) ;
#138 = EDGE_CURVE ( 'NONE', #171, #264, #286, .T. ) ;
#139 = FILL_AREA_STYLE ('',( #30 ) ) ;
#140 = CIRCLE ( 'NONE', #341, 0.1874999999999998335 ) ;
#141 = CARTESIAN_POINT ( 'NONE',  ( 0.000000000000000000, 0.1875000000000000555, 0.000000000000000000 ) ) ;
#142 =( NAMED_UNIT ( * ) PLANE_ANGLE_UNIT ( ) SI_UNIT ( $, .RADIAN. ) );
#143 = CARTESIAN_POINT ( 'NONE',  ( 6.123233995736772199E-17, 2.500000000000000000, 0.000000000000000000 ) ) ;
#144 = CARTESIAN_POINT ( 'NONE',  ( 2.296212748401286493E-17, 0.7500000000000001110, 0.1874999999999999167 ) ) ;
#145 = AXIS2_PLACEMENT_3D ( 'NONE', #202, #4, #96 ) ;
#146 = FACE_OUTER_BOUND ( 'NONE', #161, .T. ) ;
#147 = FACE_OUTER_BOUND ( 'NONE', #342, .T. ) ;
#148 = CIRCLE ( 'NONE', #119, 0.1874999999999999722 ) ;
#149 = PRESENTATION_LAYER_ASSIGNMENT (  '', '', ( #104 ) ) ;
#150 = DIRECTION ( 'NONE',  ( 0.000000000000000000, -0.000000000000000000, 1.000000000000000000 ) ) ;
#151 = SHAPE_DEFINITION_REPRESENTATION ( #325, #169 ) ;
#152 = CARTESIAN_POINT ( 'NONE',  ( 0.000000000000000000, 0.000000000000000000, 0.000000000000000000 ) ) ;
#153 = VERTEX_POINT ( 'NONE', #144 ) ;
#154 = MANIFOLD_SOLID_BREP ( 'Revolve - Cutting Edge', #371 ) ;
#155 =( NAMED_UNIT ( * ) PLANE_ANGLE_UNIT ( ) SI_UNIT ( $, .RADIAN. ) );
#156 = ORIENTED_EDGE ( 'NONE', *, *, #179, .F. ) ;
#157 = DIRECTION ( 'NONE',  ( -1.000000000000000000, 0.000000000000000000, 0.000000000000000000 ) ) ;
#158 = ADVANCED_FACE ( 'NONE', ( #339 ), #58, .F. ) ;
#159 = UNCERTAINTY_MEASURE_WITH_UNIT (LENGTH_MEASURE( 1.000000000000000082E-05 ), #256, 'distance_accuracy_value', 'NONE');
#160 = FILL_AREA_STYLE ('',( #324 ) ) ;
#161 = EDGE_LOOP ( 'NONE', ( #7, #109, #266, #156, #348 ) ) ;
#162 = AXIS2_PLACEMENT_3D ( 'NONE', #291, #353, #209 ) ;
#163 = CARTESIAN_POINT ( 'NONE',  ( 0.1874999999999999167, 2.500000000000000000, 2.296212748401285260E-17 ) ) ;
#164 = AXIS2_PLACEMENT_3D ( 'NONE', #44, #102, #70 ) ;
#165 = FILL_AREA_STYLE_COLOUR ( '', #25 ) ;
#166 = CARTESIAN_POINT ( 'NONE',  ( -0.1874999999999996669, 2.500000000000000000, 0.000000000000000000 ) ) ;
#167 = CARTESIAN_POINT ( 'NONE',  ( 0.000000000000000000, 0.1875000000000000555, 0.000000000000000000 ) ) ;
#168 = PRESENTATION_LAYER_ASSIGNMENT (  '', '', ( #196 ) ) ;
#169 = ADVANCED_BREP_SHAPE_REPRESENTATION ( '82462', ( #154, #40, #164 ), #300 ) ;
#170 = PRODUCT_DEFINITION_FORMATION_WITH_SPECIFIED_SOURCE ( 'ANY', '', #372, .NOT_KNOWN. ) ;
#171 = VERTEX_POINT ( 'NONE', #290 ) ;
#172 = UNCERTAINTY_MEASURE_WITH_UNIT (LENGTH_MEASURE( 1.000000000000000082E-05 ), #243, 'distance_accuracy_value', 'NONE');
#173 =( NAMED_UNIT ( * ) SI_UNIT ( $, .STERADIAN. ) SOLID_ANGLE_UNIT ( ) );
#174 = CARTESIAN_POINT ( 'NONE',  ( 0.000000000000000000, 0.000000000000000000, 0.000000000000000000 ) ) ;
#175 = ORIENTED_EDGE ( 'NONE', *, *, #328, .T. ) ;
#176 = DIRECTION ( 'NONE',  ( -1.246502398102879949E-16, 1.000000000000000000, -0.000000000000000000 ) ) ;
#177 = PRESENTATION_LAYER_ASSIGNMENT (  '', '', ( #252 ) ) ;
#178 =( CONVERSION_BASED_UNIT ( 'INCH', #203 ) LENGTH_UNIT ( ) NAMED_UNIT ( #244 ) );
#179 = EDGE_CURVE ( 'NONE', #284, #16, #219, .T. ) ;
#180 = AXIS2_PLACEMENT_3D ( 'NONE', #191, #278, #210 ) ;
#181 = VERTEX_POINT ( 'NONE', #225 ) ;
#182 =( LENGTH_UNIT ( ) NAMED_UNIT ( * ) SI_UNIT ( $, .METRE. ) );
#183 =( CONVERSION_BASED_UNIT ( 'INCH', #127 ) LENGTH_UNIT ( ) NAMED_UNIT ( #42 ) );
#184 =( NAMED_UNIT ( * ) PLANE_ANGLE_UNIT ( ) SI_UNIT ( $, .RADIAN. ) );
#185 = DIRECTION ( 'NONE',  ( -1.246502398102879949E-16, 1.000000000000000000, -0.000000000000000000 ) ) ;
#186 = CIRCLE ( 'NONE', #134, 0.1875000000000000278 ) ;
#187 = ADVANCED_FACE ( 'NONE', ( #351 ), #272, .T. ) ;
#188 = PRESENTATION_STYLE_ASSIGNMENT (( #222 ) ) ;
#189 = CARTESIAN_POINT ( 'NONE',  ( 6.123233995736772199E-17, 2.500000000000000000, 0.000000000000000000 ) ) ;
#190 = EDGE_LOOP ( 'NONE', ( #175, #271, #130, #344 ) ) ;
#191 = CARTESIAN_POINT ( 'NONE',  ( 0.000000000000000000, 0.1875000000000000555, 0.000000000000000000 ) ) ;
#192 = FACE_OUTER_BOUND ( 'NONE', #201, .T. ) ;
#193 = DIRECTION ( 'NONE',  ( -0.000000000000000000, -1.000000000000000000, -0.000000000000000000 ) ) ;
#194 = ORIENTED_EDGE ( 'NONE', *, *, #245, .T. ) ;
#195 =( NAMED_UNIT ( * ) SI_UNIT ( $, .STERADIAN. ) SOLID_ANGLE_UNIT ( ) );
#196 = STYLED_ITEM ( 'NONE', ( #356 ), #273 ) ;
#197 = STYLED_ITEM ( 'NONE', ( #331 ), #283 ) ;
#198 = CARTESIAN_POINT ( 'NONE',  ( 6.123233995736772199E-17, 2.500000000000000000, 0.000000000000000000 ) ) ;
#199 = DIMENSIONAL_EXPONENTS ( 1.000000000000000000, 0.000000000000000000, 0.000000000000000000, 0.000000000000000000, 0.000000000000000000, 0.000000000000000000, 0.000000000000000000 ) ;
#200 = FACE_OUTER_BOUND ( 'NONE', #317, .T. ) ;
#201 = EDGE_LOOP ( 'NONE', ( #231, #103 ) ) ;
#202 = CARTESIAN_POINT ( 'NONE',  ( -2.296212748401287726E-17, 0.1875000000000000278, 0.000000000000000000 ) ) ;
#203 = LENGTH_MEASURE_WITH_UNIT ( LENGTH_MEASURE( 0.02539999999999999897 ), #226 );
#204 = SURFACE_STYLE_USAGE ( .BOTH. , #97 ) ;
#205 = APPLICATION_PROTOCOL_DEFINITION ( 'draft international standard', 'automotive_design', 1998, #113 ) ;
#206 = VECTOR ( 'NONE', #193, 39.37007874015748143 ) ;
#207 = DIRECTION ( 'NONE',  ( -0.000000000000000000, -1.000000000000000000, -0.000000000000000000 ) ) ;
#208 = ADVANCED_FACE ( 'NONE', ( #146 ), #316, .T. ) ;
#209 = DIRECTION ( 'NONE',  ( 1.000000000000000000, 1.246502398102879949E-16, 0.000000000000000000 ) ) ;
#210 = DIRECTION ( 'NONE',  ( 0.000000000000000000, 0.000000000000000000, -1.000000000000000000 ) ) ;
#211 = ORIENTED_EDGE ( 'NONE', *, *, #21, .F. ) ;
#212 = LINE ( 'NONE', #303, #305 ) ;
#213 = APPLICATION_PROTOCOL_DEFINITION ( 'draft international standard', 'automotive_design', 1998, #347 ) ;
#214 = EDGE_CURVE ( 'NONE', #284, #125, #186, .T. ) ;
#215 = CARTESIAN_POINT ( 'NONE',  ( -0.1874999999999997780, 2.500000000000000000, 0.000000000000000000 ) ) ;
#216 = SURFACE_SIDE_STYLE ('',( #250 ) ) ;
#217 = CARTESIAN_POINT ( 'NONE',  ( 6.123233995736772199E-17, 2.500000000000000000, 0.000000000000000000 ) ) ;
#218 = ORIENTED_EDGE ( 'NONE', *, *, #262, .F. ) ;
#219 = CIRCLE ( 'NONE', #64, 0.1874999999999999722 ) ;
#220 = AXIS2_PLACEMENT_3D ( 'NONE', #361, #207, #321 ) ;
#221 = DIRECTION ( 'NONE',  ( 0.000000000000000000, 0.000000000000000000, -1.000000000000000000 ) ) ;
#222 = SURFACE_STYLE_USAGE ( .BOTH. , #216 ) ;
#223 = UNCERTAINTY_MEASURE_WITH_UNIT (LENGTH_MEASURE( 1.000000000000000082E-05 ), #320, 'distance_accuracy_value', 'NONE');
#224 = ORIENTED_EDGE ( 'NONE', *, *, #315, .T. ) ;
#225 = CARTESIAN_POINT ( 'NONE',  ( 0.1874999999999999722, 0.1875000000000000555, 0.000000000000000000 ) ) ;
#226 =( LENGTH_UNIT ( ) NAMED_UNIT ( * ) SI_UNIT ( $, .METRE. ) );
#227 = ADVANCED_FACE ( 'NONE', ( #147 ), #239, .F. ) ;
#228 = DIRECTION ( 'NONE',  ( -1.000000000000000000, -1.246502398102879949E-16, 0.000000000000000000 ) ) ;
#229 = UNCERTAINTY_MEASURE_WITH_UNIT (LENGTH_MEASURE( 1.000000000000000082E-05 ), #183, 'distance_accuracy_value', 'NONE');
#230 = LENGTH_MEASURE_WITH_UNIT ( LENGTH_MEASURE( 0.02539999999999999897 ), #63 );
#231 = ORIENTED_EDGE ( 'NONE', *, *, #32, .F. ) ;
#232 = SURFACE_STYLE_USAGE ( .BOTH. , #350 ) ;
#233 = CIRCLE ( 'NONE', #310, 0.1874999999999996392 ) ;
#234 =( NAMED_UNIT ( * ) SI_UNIT ( $, .STERADIAN. ) SOLID_ANGLE_UNIT ( ) );
#235 = EDGE_LOOP ( 'NONE', ( #11, #194, #45, #211, #218 ) ) ;
#236 = CARTESIAN_POINT ( 'NONE',  ( 0.000000000000000000, 0.7500000000000001110, 0.000000000000000000 ) ) ;
#237 = ORIENTED_EDGE ( 'NONE', *, *, #138, .F. ) ;
#238 = DIRECTION ( 'NONE',  ( 0.000000000000000000, 0.000000000000000000, -1.000000000000000000 ) ) ;
#239 = PLANE ( 'NONE',  #162 ) ;
#240 = ORIENTED_EDGE ( 'NONE', *, *, #107, .F. ) ;
#241 = CIRCLE ( 'NONE', #355, 0.1874999999999999722 ) ;
#242 = DIRECTION ( 'NONE',  ( 0.000000000000000000, 0.000000000000000000, 1.000000000000000000 ) ) ;
#243 =( CONVERSION_BASED_UNIT ( 'INCH', #66 ) LENGTH_UNIT ( ) NAMED_UNIT ( #199 ) );
#244 = DIMENSIONAL_EXPONENTS ( 1.000000000000000000, 0.000000000000000000, 0.000000000000000000, 0.000000000000000000, 0.000000000000000000, 0.000000000000000000, 0.000000000000000000 ) ;
#245 = EDGE_CURVE ( 'NONE', #153, #5, #322, .T. ) ;
#246 =( CONVERSION_BASED_UNIT ( 'INCH', #108 ) LENGTH_UNIT ( ) NAMED_UNIT ( #57 ) );
#247 =( NAMED_UNIT ( * ) SI_UNIT ( $, .STERADIAN. ) SOLID_ANGLE_UNIT ( ) );
#248 = ORIENTED_EDGE ( 'NONE', *, *, #258, .F. ) ;
#249 = LENGTH_MEASURE_WITH_UNIT ( LENGTH_MEASURE( 0.02539999999999999897 ), #182 );
#250 = SURFACE_STYLE_FILL_AREA ( #20 ) ;
#251 = EDGE_LOOP ( 'NONE', ( #363, #56, #6, #71 ) ) ;
#252 = STYLED_ITEM ( 'NONE', ( #188 ), #80 ) ;
#253 =( GEOMETRIC_REPRESENTATION_CONTEXT ( 3 ) GLOBAL_UNCERTAINTY_ASSIGNED_CONTEXT ( ( #76 ) ) GLOBAL_UNIT_ASSIGNED_CONTEXT ( ( #178, #86, #314 ) ) REPRESENTATION_CONTEXT ( 'NONE', 'WORKASPACE' ) );
#254 =( NAMED_UNIT ( * ) PLANE_ANGLE_UNIT ( ) SI_UNIT ( $, .RADIAN. ) );
#255 = PRESENTATION_LAYER_ASSIGNMENT (  '', '', ( #1 ) ) ;
#256 =( CONVERSION_BASED_UNIT ( 'INCH', #118 ) LENGTH_UNIT ( ) NAMED_UNIT ( #19 ) );
#257 = CYLINDRICAL_SURFACE ( 'NONE', #120, 0.1874999999999997502 ) ;
#258 = EDGE_CURVE ( 'NONE', #313, #78, #128, .T. ) ;
#259 = CARTESIAN_POINT ( 'NONE',  ( -0.1875000000000000278, 0.1875000000000000555, 2.296212748401287109E-17 ) ) ;
#260 = ORIENTED_EDGE ( 'NONE', *, *, #21, .T. ) ;
#261 =( NAMED_UNIT ( * ) PLANE_ANGLE_UNIT ( ) SI_UNIT ( $, .RADIAN. ) );
#262 = EDGE_CURVE ( 'NONE', #93, #16, #212, .T. ) ;
#263 = DIRECTION ( 'NONE',  ( -0.000000000000000000, -1.000000000000000000, -0.000000000000000000 ) ) ;
#264 = VERTEX_POINT ( 'NONE', #327 ) ;
#265 = CARTESIAN_POINT ( 'NONE',  ( 0.000000000000000000, 0.7500000000000001110, -0.1874999999999999167 ) ) ;
#266 = ORIENTED_EDGE ( 'NONE', *, *, #262, .T. ) ;
#267 = AXIS2_PLACEMENT_3D ( 'NONE', #189, #185, #157 ) ;
#268 = FILL_AREA_STYLE_COLOUR ( '', #54 ) ;
#269 = EDGE_CURVE ( 'NONE', #181, #5, #241, .T. ) ;
#270 =( NAMED_UNIT ( * ) PLANE_ANGLE_UNIT ( ) SI_UNIT ( $, .RADIAN. ) );
#271 = ORIENTED_EDGE ( 'NONE', *, *, #214, .T. ) ;
#272 = SPHERICAL_SURFACE ( 'NONE', #145, 0.1875000000000000278 ) ;
#273 = ADVANCED_FACE ( 'NONE', ( #101 ), #133, .T. ) ;
#274 = CYLINDRICAL_SURFACE ( 'NONE', #330, 0.1874999999999997502 ) ;
#275 = EDGE_LOOP ( 'NONE', ( #240, #237 ) ) ;
#276 = FACE_OUTER_BOUND ( 'NONE', #37, .T. ) ;
#277 = EDGE_CURVE ( 'NONE', #78, #313, #140, .T. ) ;
#278 = DIRECTION ( 'NONE',  ( -0.000000000000000000, -1.000000000000000000, -0.000000000000000000 ) ) ;
#279 = PRODUCT_CONTEXT ( 'NONE', #113, 'mechanical' ) ;
#280 = PRODUCT_RELATED_PRODUCT_CATEGORY ( 'part', '', ( #372 ) ) ;
#281 = CARTESIAN_POINT ( 'NONE',  ( -2.296212748401287726E-17, 0.1875000000000000278, 0.000000000000000000 ) ) ;
#282 = COLOUR_RGB ( '',1.000000000000000000, 0.000000000000000000, 0.000000000000000000 ) ;
#283 = ADVANCED_FACE ( 'NONE', ( #276 ), #366, .T. ) ;
#284 = VERTEX_POINT ( 'NONE', #259 ) ;
#285 = SURFACE_STYLE_USAGE ( .BOTH. , #114 ) ;
#286 = CIRCLE ( 'NONE', #79, 0.1874999999999996392 ) ;
#287 = AXIS2_PLACEMENT_3D ( 'NONE', #152, #106, #221 ) ;
#288 =( NAMED_UNIT ( * ) SI_UNIT ( $, .STERADIAN. ) SOLID_ANGLE_UNIT ( ) );
#289 = FILL_AREA_STYLE ('',( #165 ) ) ;
#290 = CARTESIAN_POINT ( 'NONE',  ( 0.1874999999999999167, 0.7499999999999998890, 2.296212748401285260E-17 ) ) ;
#291 = CARTESIAN_POINT ( 'NONE',  ( 0.1874999999999999167, 2.500000000000000000, 0.000000000000000000 ) ) ;
#292 = DIRECTION ( 'NONE',  ( -1.246502398102879949E-16, 1.000000000000000000, -0.000000000000000000 ) ) ;
#293 = ORIENTED_EDGE ( 'NONE', *, *, #94, .T. ) ;
#294 = CLOSED_SHELL ( 'NONE', ( #91, #158, #335, #227 ) ) ;
#295 = AXIS2_PLACEMENT_3D ( 'NONE', #281, #242, #46 ) ;
#296 =( CONVERSION_BASED_UNIT ( 'INCH', #249 ) LENGTH_UNIT ( ) NAMED_UNIT ( #131 ) );
#297 = PRESENTATION_STYLE_ASSIGNMENT (( #33 ) ) ;
#298 = SURFACE_STYLE_FILL_AREA ( #160 ) ;
#299 = ORIENTED_EDGE ( 'NONE', *, *, #258, .T. ) ;
#300 =( GEOMETRIC_REPRESENTATION_CONTEXT ( 3 ) GLOBAL_UNCERTAINTY_ASSIGNED_CONTEXT ( ( #229 ) ) GLOBAL_UNIT_ASSIGNED_CONTEXT ( ( #183, #155, #247 ) ) REPRESENTATION_CONTEXT ( 'NONE', 'WORKASPACE' ) );
#301 = SURFACE_STYLE_USAGE ( .BOTH. , #23 ) ;
#302 = DIRECTION ( 'NONE',  ( -0.000000000000000000, -1.000000000000000000, -0.000000000000000000 ) ) ;
#303 = CARTESIAN_POINT ( 'NONE',  ( 0.000000000000000000, 0.000000000000000000, -0.1874999999999999445 ) ) ;
#304 = UNCERTAINTY_MEASURE_WITH_UNIT (LENGTH_MEASURE( 1.000000000000000082E-05 ), #296, 'distance_accuracy_value', 'NONE');
#305 = VECTOR ( 'NONE', #302, 39.37007874015748143 ) ;
#306 = EDGE_CURVE ( 'NONE', #153, #93, #2, .T. ) ;
#307 = CARTESIAN_POINT ( 'NONE',  ( 2.296212748401286801E-17, 0.1875000000000000555, 0.1874999999999999722 ) ) ;
#308 =( LENGTH_UNIT ( ) NAMED_UNIT ( * ) SI_UNIT ( $, .METRE. ) );
#309 = DIRECTION ( 'NONE',  ( -1.246502398102879949E-16, 1.000000000000000000, -0.000000000000000000 ) ) ;
#310 = AXIS2_PLACEMENT_3D ( 'NONE', #55, #176, #343 ) ;
#311 = VECTOR ( 'NONE', #352, 39.37007874015748143 ) ;
#312 =( LENGTH_UNIT ( ) NAMED_UNIT ( * ) SI_UNIT ( $, .METRE. ) );
#313 = VERTEX_POINT ( 'NONE', #215 ) ;
#314 =( NAMED_UNIT ( * ) SI_UNIT ( $, .STERADIAN. ) SOLID_ANGLE_UNIT ( ) );
#315 = EDGE_CURVE ( 'NONE', #171, #78, #65, .T. ) ;
#316 = CYLINDRICAL_SURFACE ( 'NONE', #135, 0.1874999999999999445 ) ;
#317 = EDGE_LOOP ( 'NONE', ( #14, #224, #248, #98 ) ) ;
#318 = SURFACE_SIDE_STYLE ('',( #9 ) ) ;
#319 = AXIS2_PLACEMENT_3D ( 'NONE', #41, #83, #228 ) ;
#320 =( CONVERSION_BASED_UNIT ( 'INCH', #31 ) LENGTH_UNIT ( ) NAMED_UNIT ( #48 ) );
#321 = DIRECTION ( 'NONE',  ( 0.000000000000000000, 0.000000000000000000, -1.000000000000000000 ) ) ;
#322 = LINE ( 'NONE', #50, #206 ) ;
#323 = LINE ( 'NONE', #166, #136 ) ;
#324 = FILL_AREA_STYLE_COLOUR ( '', #60 ) ;
#325 = PRODUCT_DEFINITION_SHAPE ( 'NONE', 'NONE',  #52 ) ;
#326 = CARTESIAN_POINT ( 'NONE',  ( 0.1874999999999998057, 2.500000000000000000, 2.296212748401284336E-17 ) ) ;
#327 = CARTESIAN_POINT ( 'NONE',  ( -0.1874999999999993616, 0.7499999999999998890, 0.000000000000000000 ) ) ;
#328 = EDGE_CURVE ( 'NONE', #5, #284, #105, .T. ) ;
#329 = COLOUR_RGB ( '',0.7921568627450980005, 0.8196078431372548767, 0.9333333333333333481 ) ;
#330 = AXIS2_PLACEMENT_3D ( 'NONE', #198, #368, #117 ) ;
#331 = PRESENTATION_STYLE_ASSIGNMENT (( #132 ) ) ;
#332 = EDGE_CURVE ( 'NONE', #264, #313, #323, .T. ) ;
#333 = UNCERTAINTY_MEASURE_WITH_UNIT (LENGTH_MEASURE( 1.000000000000000082E-05 ), #246, 'distance_accuracy_value', 'NONE');
#334 = CIRCLE ( 'NONE', #27, 0.1875000000000000278 ) ;
#335 = ADVANCED_FACE ( 'NONE', ( #358 ), #257, .T. ) ;
#336 = PRESENTATION_LAYER_ASSIGNMENT (  '', '', ( #197 ) ) ;
#337 = CARTESIAN_POINT ( 'NONE',  ( 0.000000000000000000, 0.1875000000000000555, -0.1874999999999999722 ) ) ;
#338 = CARTESIAN_POINT ( 'NONE',  ( -2.296212748401287726E-17, 0.1875000000000000278, 0.000000000000000000 ) ) ;
#339 = FACE_OUTER_BOUND ( 'NONE', #275, .T. ) ;
#340 = AXIS2_PLACEMENT_3D ( 'NONE', #236, #85, #150 ) ;
#341 = AXIS2_PLACEMENT_3D ( 'NONE', #217, #77, #26 ) ;
#342 = EDGE_LOOP ( 'NONE', ( #299, #88 ) ) ;
#343 = DIRECTION ( 'NONE',  ( -1.000000000000000000, 0.000000000000000000, 0.000000000000000000 ) ) ;
#344 = ORIENTED_EDGE ( 'NONE', *, *, #269, .T. ) ;
#345 = MECHANICAL_DESIGN_GEOMETRIC_PRESENTATION_REPRESENTATION (  '', ( #354 ), #253 ) ;
#346 = STYLED_ITEM ( 'NONE', ( #297 ), #154 ) ;
#347 = APPLICATION_CONTEXT ( 'automotive_design' ) ;
#348 = ORIENTED_EDGE ( 'NONE', *, *, #328, .F. ) ;
#349 = SURFACE_STYLE_FILL_AREA ( #121 ) ;
#350 = SURFACE_SIDE_STYLE ('',( #87 ) ) ;
#351 = FACE_OUTER_BOUND ( 'NONE', #190, .T. ) ;
#352 = DIRECTION ( 'NONE',  ( -1.246502398102879949E-16, 1.000000000000000000, -0.000000000000000000 ) ) ;
#353 = DIRECTION ( 'NONE',  ( 1.246502398102879949E-16, -1.000000000000000000, 0.000000000000000000 ) ) ;
#354 = STYLED_ITEM ( 'NONE', ( #28 ), #40 ) ;
#355 = AXIS2_PLACEMENT_3D ( 'NONE', #69, #49, #73 ) ;
#356 = PRESENTATION_STYLE_ASSIGNMENT (( #301 ) ) ;
#357 =( LENGTH_UNIT ( ) NAMED_UNIT ( * ) SI_UNIT ( $, .METRE. ) );
#358 = FACE_OUTER_BOUND ( 'NONE', #251, .T. ) ;
#359 = AXIS2_PLACEMENT_3D ( 'NONE', #84, #111, #367 ) ;
#360 = MECHANICAL_DESIGN_GEOMETRIC_PRESENTATION_REPRESENTATION (  '', ( #104 ), #39 ) ;
#361 = CARTESIAN_POINT ( 'NONE',  ( 0.000000000000000000, 0.7500000000000001110, 0.000000000000000000 ) ) ;
#362 =( NAMED_UNIT ( * ) SI_UNIT ( $, .STERADIAN. ) SOLID_ANGLE_UNIT ( ) );
#363 = ORIENTED_EDGE ( 'NONE', *, *, #315, .F. ) ;
#364 = ORIENTED_EDGE ( 'NONE', *, *, #214, .F. ) ;
#365 = MECHANICAL_DESIGN_GEOMETRIC_PRESENTATION_REPRESENTATION (  '', ( #252 ), #74 ) ;
#366 = SPHERICAL_SURFACE ( 'NONE', #295, 0.1875000000000000278 ) ;
#367 = DIRECTION ( 'NONE',  ( 0.000000000000000000, 0.000000000000000000, -1.000000000000000000 ) ) ;
#368 = DIRECTION ( 'NONE',  ( -1.246502398102879949E-16, 1.000000000000000000, -0.000000000000000000 ) ) ;
#369 = UNCERTAINTY_MEASURE_WITH_UNIT (LENGTH_MEASURE( 1.000000000000000082E-05 ), #10, 'distance_accuracy_value', 'NONE');
#370 = CARTESIAN_POINT ( 'NONE',  ( -1.148106374200643863E-17, 0.000000000000000000, 0.000000000000000000 ) ) ;
#371 = CLOSED_SHELL ( 'NONE', ( #187, #273, #80, #208, #283 ) ) ;
#372 = PRODUCT ( '82462', '82462', '', ( #279 ) ) ;
#373 = PLANE ( 'NONE',  #340 ) ;
ENDSEC;
END-ISO-10303-21;
