ISO-10303-21;
HEADER;
FILE_DESCRIPTION (( 'STEP AP214' ),
    '1' );
FILE_NAME ('Micro_DR-046-2.STEP',
    '2021-09-01T15:31:11',
    ( '' ),
    ( '' ),
    'SwSTEP 2.0',
    'SolidWorks 2020',
    '' );
FILE_SCHEMA (( 'AUTOMOTIVE_DESIGN' ));
ENDSEC;

DATA;
#1 = DIRECTION ( 'NONE',  ( -0.8571673007021152202, 1.049727191138622147E-16, 0.5150380749100493816 ) ) ;
#2 = AXIS2_PLACEMENT_3D ( 'NONE', #40, #287, #231 ) ;
#3 = AXIS2_PLACEMENT_3D ( 'NONE', #38, #263, #308 ) ;
#4 = ORIENTED_EDGE ( 'NONE', *, *, #211, .F. ) ;
#5 = LINE ( 'NONE', #215, #71 ) ;
#6 = FACE_OUTER_BOUND ( 'NONE', #290, .T. ) ;
#7 = EDGE_CURVE ( 'NONE', #281, #300, #76, .T. ) ;
#8 = CARTESIAN_POINT ( 'NONE',  ( 0.0000000000000000000, 0.0000000000000000000, 1.500000000000000222 ) ) ;
#9 = FACE_OUTER_BOUND ( 'NONE', #102, .T. ) ;
#10 = ORIENTED_EDGE ( 'NONE', *, *, #220, .F. ) ;
#11 = DIRECTION ( 'NONE',  ( -0.0000000000000000000, -0.0000000000000000000, 1.000000000000000000 ) ) ;
#12 = ORIENTED_EDGE ( 'NONE', *, *, #233, .T. ) ;
#13 = STYLED_ITEM ( 'NONE', ( #292 ), #229 ) ;
#14 = DIRECTION ( 'NONE',  ( 1.000000000000000000, 0.0000000000000000000, 0.0000000000000000000 ) ) ;
#15 = LINE ( 'NONE', #259, #180 ) ;
#16 =( NAMED_UNIT ( * ) SI_UNIT ( $, .STERADIAN. ) SOLID_ANGLE_UNIT ( ) );
#17 = CARTESIAN_POINT ( 'NONE',  ( 0.0000000000000000000, 0.0000000000000000000, 0.7500000000000002220 ) ) ;
#18 = PRESENTATION_STYLE_ASSIGNMENT (( #35 ) ) ;
#19 = MANIFOLD_SOLID_BREP ( 'Cut-Revolve1', #44 ) ;
#20 = VERTEX_POINT ( 'NONE', #62 ) ;
#21 = EDGE_CURVE ( 'NONE', #199, #226, #94, .T. ) ;
#22 =( CONVERSION_BASED_UNIT ( 'INCH', #113 ) LENGTH_UNIT ( ) NAMED_UNIT ( #201 ) );
#23 = ADVANCED_FACE ( 'NONE', ( #260 ), #181, .T. ) ;
#24 = CARTESIAN_POINT ( 'NONE',  ( 0.02344999999999999862, 2.871796744000542613E-18, 1.485000000000000986 ) ) ;
#25 = PRODUCT_CONTEXT ( 'NONE', #320, 'mechanical' ) ;
#26 = CARTESIAN_POINT ( 'NONE',  ( 0.0000000000000000000, 0.0000000000000000000, 0.01406013848524471921 ) ) ;
#27 = PRODUCT_DEFINITION_FORMATION_WITH_SPECIFIED_SOURCE ( 'ANY', '', #156, .NOT_KNOWN. ) ;
#28 = CONICAL_SURFACE ( 'NONE', #3, 65.52281426576925583, 1.029744258676660085 ) ;
#29 = EDGE_LOOP ( 'NONE', ( #92, #119, #196, #90 ) ) ;
#30 = CARTESIAN_POINT ( 'NONE',  ( -0.008450000000000830111, 0.0000000000000000000, 1.500000000000000222 ) ) ;
#31 = ORIENTED_EDGE ( 'NONE', *, *, #244, .T. ) ;
#32 = DIRECTION ( 'NONE',  ( 1.000000000000000000, 0.0000000000000000000, 0.0000000000000000000 ) ) ;
#33 = DIRECTION ( 'NONE',  ( 0.0000000000000000000, 0.0000000000000000000, -1.000000000000000000 ) ) ;
#34 = DIRECTION ( 'NONE',  ( 1.000000000000000000, 0.0000000000000000000, 0.0000000000000000000 ) ) ;
#35 = SURFACE_STYLE_USAGE ( .BOTH. , #60 ) ;
#36 =( NAMED_UNIT ( * ) SI_UNIT ( $, .STERADIAN. ) SOLID_ANGLE_UNIT ( ) );
#37 = CARTESIAN_POINT ( 'NONE',  ( 0.0000000000000000000, 0.0000000000000000000, 0.7500000000000002220 ) ) ;
#38 = CARTESIAN_POINT ( 'NONE',  ( 0.0000000000000000000, 0.0000000000000000000, 39.37007874015748143 ) ) ;
#39 =( GEOMETRIC_REPRESENTATION_CONTEXT ( 3 ) GLOBAL_UNCERTAINTY_ASSIGNED_CONTEXT ( ( #295 ) ) GLOBAL_UNIT_ASSIGNED_CONTEXT ( ( #316, #183, #36 ) ) REPRESENTATION_CONTEXT ( 'NONE', 'WORKASPACE' ) );
#40 = CARTESIAN_POINT ( 'NONE',  ( 0.0000000000000000000, 0.0000000000000000000, 0.7500866025403780668 ) ) ;
#41 = EDGE_LOOP ( 'NONE', ( #274, #149, #73, #104 ) ) ;
#42 = COLOUR_RGB ( '',0.7921568627450980005, 0.8196078431372548767, 0.9333333333333333481 ) ;
#43 = EDGE_CURVE ( 'NONE', #300, #281, #45, .T. ) ;
#44 = CLOSED_SHELL ( 'NONE', ( #159, #288, #321, #247, #52, #82, #242, #261, #23, #297, #79 ) ) ;
#45 = CIRCLE ( 'NONE', #228, 0.02344999999999999862 ) ;
#46 = AXIS2_PLACEMENT_3D ( 'NONE', #254, #33, #105 ) ;
#47 = APPLICATION_CONTEXT ( 'automotive_design' ) ;
#48 = EDGE_LOOP ( 'NONE', ( #69, #142, #91, #255 ) ) ;
#49 = CARTESIAN_POINT ( 'NONE',  ( -0.02344999999999999862, 0.0000000000000000000, 1.500000000000000222 ) ) ;
#50 = DIRECTION ( 'NONE',  ( 0.4999999999999973910, 0.0000000000000000000, 0.8660254037844402619 ) ) ;
#51 = DIRECTION ( 'NONE',  ( 0.7071067811865477948, 8.659560562354935323E-17, -0.7071067811865472397 ) ) ;
#52 = ADVANCED_FACE ( 'NONE', ( #262 ), #110, .T. ) ;
#53 = APPLICATION_PROTOCOL_DEFINITION ( 'draft international standard', 'automotive_design', 1998, #320 ) ;
#54 = CIRCLE ( 'NONE', #112, 0.008450000000000830111 ) ;
#55 = LINE ( 'NONE', #127, #210 ) ;
#56 = DIRECTION ( 'NONE',  ( 1.000000000000000000, 0.0000000000000000000, -0.0000000000000000000 ) ) ;
#57 = ORIENTED_EDGE ( 'NONE', *, *, #258, .T. ) ;
#58 = FACE_OUTER_BOUND ( 'NONE', #168, .T. ) ;
#59 = CIRCLE ( 'NONE', #68, 0.02339999999999997291 ) ;
#60 = SURFACE_SIDE_STYLE ('',( #239 ) ) ;
#61 = CARTESIAN_POINT ( 'NONE',  ( -0.008450000000000830111, 0.0000000000000000000, 1.500000000000000222 ) ) ;
#62 = CARTESIAN_POINT ( 'NONE',  ( 0.0000000000000000000, 0.0000000000000000000, 0.0000000000000000000 ) ) ;
#63 = DIRECTION ( 'NONE',  ( -0.0000000000000000000, -0.0000000000000000000, -1.000000000000000000 ) ) ;
#64 = MECHANICAL_DESIGN_GEOMETRIC_PRESENTATION_REPRESENTATION (  '', ( #198 ), #214 ) ;
#65 = EDGE_CURVE ( 'NONE', #226, #199, #115, .T. ) ;
#66 = CYLINDRICAL_SURFACE ( 'NONE', #286, 0.02340000000000012903 ) ;
#67 = VECTOR ( 'NONE', #50, 39.37007874015748854 ) ;
#68 = AXIS2_PLACEMENT_3D ( 'NONE', #256, #289, #133 ) ;
#69 = ORIENTED_EDGE ( 'NONE', *, *, #233, .F. ) ;
#70 = DIRECTION ( 'NONE',  ( -0.0000000000000000000, -0.0000000000000000000, 1.000000000000000000 ) ) ;
#71 = VECTOR ( 'NONE', #126, 39.37007874015748143 ) ;
#72 = CYLINDRICAL_SURFACE ( 'NONE', #101, 0.02344999999999999862 ) ;
#73 = ORIENTED_EDGE ( 'NONE', *, *, #117, .F. ) ;
#74 = DIRECTION ( 'NONE',  ( 0.0000000000000000000, 0.0000000000000000000, -1.000000000000000000 ) ) ;
#75 = DIRECTION ( 'NONE',  ( 1.000000000000000000, 0.0000000000000000000, 0.0000000000000000000 ) ) ;
#76 = CIRCLE ( 'NONE', #2, 0.02344999999999999862 ) ;
#77 = ORIENTED_EDGE ( 'NONE', *, *, #220, .T. ) ;
#78 = CARTESIAN_POINT ( 'NONE',  ( 0.0000000000000000000, 0.0000000000000000000, 1.500000000000000222 ) ) ;
#79 = ADVANCED_FACE ( 'NONE', ( #294 ), #66, .T. ) ;
#80 = FACE_OUTER_BOUND ( 'NONE', #125, .T. ) ;
#81 = DIRECTION ( 'NONE',  ( -0.0000000000000000000, -0.0000000000000000000, 1.000000000000000000 ) ) ;
#82 = ADVANCED_FACE ( 'NONE', ( #9 ), #72, .T. ) ;
#83 = AXIS2_PLACEMENT_3D ( 'NONE', #8, #144, #32 ) ;
#84 = CARTESIAN_POINT ( 'NONE',  ( 0.0000000000000000000, 0.0000000000000000000, 0.7500000000000002220 ) ) ;
#85 = DIRECTION ( 'NONE',  ( 1.000000000000000000, 0.0000000000000000000, 0.0000000000000000000 ) ) ;
#86 = EDGE_CURVE ( 'NONE', #253, #309, #186, .T. ) ;
#87 = SURFACE_STYLE_USAGE ( .BOTH. , #134 ) ;
#88 =( CONVERSION_BASED_UNIT ( 'INCH', #238 ) LENGTH_UNIT ( ) NAMED_UNIT ( #280 ) );
#89 = EDGE_CURVE ( 'NONE', #309, #226, #275, .T. ) ;
#90 = ORIENTED_EDGE ( 'NONE', *, *, #307, .F. ) ;
#91 = ORIENTED_EDGE ( 'NONE', *, *, #167, .T. ) ;
#92 = ORIENTED_EDGE ( 'NONE', *, *, #86, .T. ) ;
#93 = CARTESIAN_POINT ( 'NONE',  ( -0.02340000000000028862, 2.865673510004841991E-18, 0.7500000000000002220 ) ) ;
#94 = CIRCLE ( 'NONE', #285, 0.02340000000000028862 ) ;
#95 = ORIENTED_EDGE ( 'NONE', *, *, #117, .T. ) ;
#96 = CARTESIAN_POINT ( 'NONE',  ( 0.0000000000000000000, 0.0000000000000000000, 1.485000000000000986 ) ) ;
#97 = ORIENTED_EDGE ( 'NONE', *, *, #107, .F. ) ;
#98 = DIRECTION ( 'NONE',  ( -0.7071067811865477948, 0.0000000000000000000, -0.7071067811865472397 ) ) ;
#99 = ORIENTED_EDGE ( 'NONE', *, *, #138, .F. ) ;
#100 = DIRECTION ( 'NONE',  ( 1.000000000000000000, 0.0000000000000000000, 0.0000000000000000000 ) ) ;
#101 = AXIS2_PLACEMENT_3D ( 'NONE', #249, #169, #273 ) ;
#102 = EDGE_LOOP ( 'NONE', ( #4, #283, #148, #153 ) ) ;
#103 = DIRECTION ( 'NONE',  ( -0.0000000000000000000, -0.0000000000000000000, 1.000000000000000000 ) ) ;
#104 = ORIENTED_EDGE ( 'NONE', *, *, #166, .F. ) ;
#105 = DIRECTION ( 'NONE',  ( -1.000000000000000000, 0.0000000000000000000, 0.0000000000000000000 ) ) ;
#106 = CARTESIAN_POINT ( 'NONE',  ( 0.0000000000000000000, 0.0000000000000000000, 1.500000000000000222 ) ) ;
#107 = EDGE_CURVE ( 'NONE', #205, #281, #301, .T. ) ;
#108 = VECTOR ( 'NONE', #1, 39.37007874015748143 ) ;
#109 = CARTESIAN_POINT ( 'NONE',  ( -0.02339999999999997637, 2.865673510004803472E-18, 0.01406013848524471921 ) ) ;
#110 = CYLINDRICAL_SURFACE ( 'NONE', #243, 0.02344999999999999862 ) ;
#111 = EDGE_LOOP ( 'NONE', ( #296, #57, #175, #187 ) ) ;
#112 = AXIS2_PLACEMENT_3D ( 'NONE', #78, #176, #282 ) ;
#113 = LENGTH_MEASURE_WITH_UNIT ( LENGTH_MEASURE( 0.02539999999999999897 ), #208 );
#114 =( NAMED_UNIT ( * ) PLANE_ANGLE_UNIT ( ) SI_UNIT ( $, .RADIAN. ) );
#115 = CIRCLE ( 'NONE', #140, 0.02340000000000028862 ) ;
#116 = CARTESIAN_POINT ( 'NONE',  ( 0.02340000000000028862, 0.0000000000000000000, 0.7500000000000002220 ) ) ;
#117 = EDGE_CURVE ( 'NONE', #205, #178, #318, .T. ) ;
#118 = APPLICATION_PROTOCOL_DEFINITION ( 'draft international standard', 'automotive_design', 1998, #47 ) ;
#119 = ORIENTED_EDGE ( 'NONE', *, *, #89, .T. ) ;
#120 = CARTESIAN_POINT ( 'NONE',  ( -0.02340000000000012903, 2.865673510004822731E-18, 1.485000000000000986 ) ) ;
#121 = CONICAL_SURFACE ( 'NONE', #312, 65.52281426576925583, 1.029744258676660085 ) ;
#122 = CONICAL_SURFACE ( 'NONE', #314, 0.008450000000000830111, 0.7853981633974487231 ) ;
#123 = EDGE_LOOP ( 'NONE', ( #95, #272, #212, #97 ) ) ;
#124 = CARTESIAN_POINT ( 'NONE',  ( 0.0000000000000000000, 0.0000000000000000000, 0.0000000000000000000 ) ) ;
#125 = EDGE_LOOP ( 'NONE', ( #271, #99, #303, #266 ) ) ;
#126 = DIRECTION ( 'NONE',  ( -0.0000000000000000000, -0.0000000000000000000, -1.000000000000000000 ) ) ;
#127 = CARTESIAN_POINT ( 'NONE',  ( 0.008450000000000830111, 1.034826545279615092E-18, 1.500000000000000222 ) ) ;
#128 = AXIS2_PLACEMENT_3D ( 'NONE', #26, #70, #75 ) ;
#129 =( NAMED_UNIT ( * ) PLANE_ANGLE_UNIT ( ) SI_UNIT ( $, .RADIAN. ) );
#130 = DIRECTION ( 'NONE',  ( 1.000000000000000000, 0.0000000000000000000, 0.0000000000000000000 ) ) ;
#131 = FILL_AREA_STYLE ('',( #191 ) ) ;
#132 = DIRECTION ( 'NONE',  ( -0.0000000000000000000, -0.0000000000000000000, 1.000000000000000000 ) ) ;
#133 = DIRECTION ( 'NONE',  ( 1.000000000000000000, 0.0000000000000000000, 0.0000000000000000000 ) ) ;
#134 = SURFACE_SIDE_STYLE ('',( #204 ) ) ;
#135 = ORIENTED_EDGE ( 'NONE', *, *, #311, .T. ) ;
#136 = CARTESIAN_POINT ( 'NONE',  ( 0.0000000000000000000, 0.0000000000000000000, 39.37007874015748143 ) ) ;
#137 = FILL_AREA_STYLE_COLOUR ( '', #323 ) ;
#138 = EDGE_CURVE ( 'NONE', #276, #278, #218, .T. ) ;
#139 = AXIS2_PLACEMENT_3D ( 'NONE', #245, #304, #100 ) ;
#140 = AXIS2_PLACEMENT_3D ( 'NONE', #17, #163, #209 ) ;
#141 = EDGE_CURVE ( 'NONE', #178, #205, #170, .T. ) ;
#142 = ORIENTED_EDGE ( 'NONE', *, *, #65, .T. ) ;
#143 = VECTOR ( 'NONE', #171, 39.37007874015748143 ) ;
#144 = DIRECTION ( 'NONE',  ( 0.0000000000000000000, 0.0000000000000000000, 1.000000000000000000 ) ) ;
#145 = PRODUCT_DEFINITION_SHAPE ( 'NONE', 'NONE',  #185 ) ;
#146 = DIRECTION ( 'NONE',  ( 1.000000000000000000, 0.0000000000000000000, 0.0000000000000000000 ) ) ;
#147 = CARTESIAN_POINT ( 'NONE',  ( 0.0000000000000000000, 0.0000000000000000000, 1.485000000000000986 ) ) ;
#148 = ORIENTED_EDGE ( 'NONE', *, *, #107, .T. ) ;
#149 = ORIENTED_EDGE ( 'NONE', *, *, #192, .T. ) ;
#150 = CARTESIAN_POINT ( 'NONE',  ( -0.02344999999999999862, 0.0000000000000000000, 1.485000000000000986 ) ) ;
#151 = FACE_OUTER_BOUND ( 'NONE', #41, .T. ) ;
#152 = PRODUCT_RELATED_PRODUCT_CATEGORY ( 'part', '', ( #156 ) ) ;
#153 = ORIENTED_EDGE ( 'NONE', *, *, #7, .T. ) ;
#154 = CARTESIAN_POINT ( 'NONE',  ( 0.0000000000000000000, 0.0000000000000000000, 0.7500000000000002220 ) ) ;
#155 = MECHANICAL_DESIGN_GEOMETRIC_PRESENTATION_REPRESENTATION (  '', ( #13 ), #267 ) ;
#156 = PRODUCT ( 'Micro_DR-046-2', 'Micro_DR-046-2', '', ( #25 ) ) ;
#157 = PRESENTATION_LAYER_ASSIGNMENT (  '', '', ( #198 ) ) ;
#158 =( LENGTH_UNIT ( ) NAMED_UNIT ( * ) SI_UNIT ( $, .METRE. ) );
#159 = ADVANCED_FACE ( 'NONE', ( #190 ), #188, .T. ) ;
#160 =( LENGTH_UNIT ( ) NAMED_UNIT ( * ) SI_UNIT ( $, .METRE. ) );
#161 = LENGTH_MEASURE_WITH_UNIT ( LENGTH_MEASURE( 0.02539999999999999897 ), #160 );
#162 = DIRECTION ( 'NONE',  ( -1.000000000000000000, 0.0000000000000000000, 0.0000000000000000000 ) ) ;
#163 = DIRECTION ( 'NONE',  ( -0.0000000000000000000, -0.0000000000000000000, 1.000000000000000000 ) ) ;
#164 = ORIENTED_EDGE ( 'NONE', *, *, #138, .T. ) ;
#165 = VECTOR ( 'NONE', #98, 39.37007874015748143 ) ;
#166 = EDGE_CURVE ( 'NONE', #276, #205, #277, .T. ) ;
#167 = EDGE_CURVE ( 'NONE', #199, #300, #252, .T. ) ;
#168 = EDGE_LOOP ( 'NONE', ( #10, #135, #222 ) ) ;
#169 = DIRECTION ( 'NONE',  ( -0.0000000000000000000, -0.0000000000000000000, -1.000000000000000000 ) ) ;
#170 = CIRCLE ( 'NONE', #139, 0.02344999999999999862 ) ;
#171 = DIRECTION ( 'NONE',  ( -0.0000000000000000000, -0.0000000000000000000, -1.000000000000000000 ) ) ;
#172 = DIRECTION ( 'NONE',  ( 1.000000000000000000, 0.0000000000000000000, 0.0000000000000000000 ) ) ;
#173 = DIRECTION ( 'NONE',  ( 1.000000000000000000, 0.0000000000000000000, 0.0000000000000000000 ) ) ;
#174 = CARTESIAN_POINT ( 'NONE',  ( 0.0000000000000000000, 0.0000000000000000000, 0.0000000000000000000 ) ) ;
#175 = ORIENTED_EDGE ( 'NONE', *, *, #307, .T. ) ;
#176 = DIRECTION ( 'NONE',  ( 0.0000000000000000000, 0.0000000000000000000, 1.000000000000000000 ) ) ;
#177 = DIRECTION ( 'NONE',  ( 0.8571673007021152202, 0.0000000000000000000, 0.5150380749100493816 ) ) ;
#178 = VERTEX_POINT ( 'NONE', #24 ) ;
#179 = LINE ( 'NONE', #313, #219 ) ;
#180 = VECTOR ( 'NONE', #177, 39.37007874015748143 ) ;
#181 = CONICAL_SURFACE ( 'NONE', #189, 0.02340000000000028862, 0.5235987755982958181 ) ;
#182 = DIRECTION ( 'NONE',  ( 1.000000000000000000, 0.0000000000000000000, 0.0000000000000000000 ) ) ;
#183 =( NAMED_UNIT ( * ) PLANE_ANGLE_UNIT ( ) SI_UNIT ( $, .RADIAN. ) );
#184 = DIRECTION ( 'NONE',  ( -0.0000000000000000000, -0.0000000000000000000, 1.000000000000000000 ) ) ;
#185 = PRODUCT_DEFINITION ( 'UNKNOWN', '', #27, #232 ) ;
#186 = CIRCLE ( 'NONE', #128, 0.02339999999999997291 ) ;
#187 = ORIENTED_EDGE ( 'NONE', *, *, #65, .F. ) ;
#188 = CYLINDRICAL_SURFACE ( 'NONE', #268, 0.02340000000000012903 ) ;
#189 = AXIS2_PLACEMENT_3D ( 'NONE', #37, #132, #14 ) ;
#190 = FACE_OUTER_BOUND ( 'NONE', #29, .T. ) ;
#191 = FILL_AREA_STYLE_COLOUR ( '', #42 ) ;
#192 = EDGE_CURVE ( 'NONE', #278, #178, #55, .T. ) ;
#193 = ORIENTED_EDGE ( 'NONE', *, *, #311, .F. ) ;
#194 = PLANE ( 'NONE',  #257 ) ;
#195 = DIMENSIONAL_EXPONENTS ( 1.000000000000000000, 0.0000000000000000000, 0.0000000000000000000, 0.0000000000000000000, 0.0000000000000000000, 0.0000000000000000000, 0.0000000000000000000 ) ;
#196 = ORIENTED_EDGE ( 'NONE', *, *, #21, .F. ) ;
#197 = LINE ( 'NONE', #93, #298 ) ;
#198 = STYLED_ITEM ( 'NONE', ( #18 ), #19 ) ;
#199 = VERTEX_POINT ( 'NONE', #116 ) ;
#200 = CARTESIAN_POINT ( 'NONE',  ( 0.02339999999999997637, 0.0000000000000000000, 0.01406013848524471921 ) ) ;
#201 = DIMENSIONAL_EXPONENTS ( 1.000000000000000000, 0.0000000000000000000, 0.0000000000000000000, 0.0000000000000000000, 0.0000000000000000000, 0.0000000000000000000, 0.0000000000000000000 ) ;
#202 = FACE_OUTER_BOUND ( 'NONE', #270, .T. ) ;
#203 = DIRECTION ( 'NONE',  ( 0.0000000000000000000, 0.0000000000000000000, -1.000000000000000000 ) ) ;
#204 = SURFACE_STYLE_FILL_AREA ( #131 ) ;
#205 = VERTEX_POINT ( 'NONE', #150 ) ;
#206 = CARTESIAN_POINT ( 'NONE',  ( 0.008450000000000830111, 1.953311644640079045E-18, 1.500000000000000222 ) ) ;
#207 = CARTESIAN_POINT ( 'NONE',  ( 0.0000000000000000000, 0.0000000000000000000, 1.500000000000000222 ) ) ;
#208 =( LENGTH_UNIT ( ) NAMED_UNIT ( * ) SI_UNIT ( $, .METRE. ) );
#209 = DIRECTION ( 'NONE',  ( 1.000000000000000000, 0.0000000000000000000, 0.0000000000000000000 ) ) ;
#210 = VECTOR ( 'NONE', #51, 39.37007874015748143 ) ;
#211 = EDGE_CURVE ( 'NONE', #178, #300, #5, .T. ) ;
#212 = ORIENTED_EDGE ( 'NONE', *, *, #43, .T. ) ;
#213 = PRESENTATION_LAYER_ASSIGNMENT (  '', '', ( #13 ) ) ;
#214 =( GEOMETRIC_REPRESENTATION_CONTEXT ( 3 ) GLOBAL_UNCERTAINTY_ASSIGNED_CONTEXT ( ( #317 ) ) GLOBAL_UNIT_ASSIGNED_CONTEXT ( ( #88, #129, #16 ) ) REPRESENTATION_CONTEXT ( 'NONE', 'WORKASPACE' ) );
#215 = CARTESIAN_POINT ( 'NONE',  ( 0.02344999999999999862, 2.871796744000542613E-18, 1.500000000000000222 ) ) ;
#216 = ORIENTED_EDGE ( 'NONE', *, *, #86, .F. ) ;
#217 = DIRECTION ( 'NONE',  ( 1.000000000000000000, 0.0000000000000000000, 0.0000000000000000000 ) ) ;
#218 = CIRCLE ( 'NONE', #83, 0.008450000000000830111 ) ;
#219 = VECTOR ( 'NONE', #11, 39.37007874015748143 ) ;
#220 = EDGE_CURVE ( 'NONE', #20, #309, #225, .T. ) ;
#221 = SHAPE_DEFINITION_REPRESENTATION ( #145, #229 ) ;
#222 = ORIENTED_EDGE ( 'NONE', *, *, #258, .F. ) ;
#223 = CARTESIAN_POINT ( 'NONE',  ( -0.02340000000000028862, 2.868735127002691339E-18, 0.7500000000000002220 ) ) ;
#224 = ORIENTED_EDGE ( 'NONE', *, *, #167, .F. ) ;
#225 = LINE ( 'NONE', #124, #108 ) ;
#226 = VERTEX_POINT ( 'NONE', #223 ) ;
#227 = DIRECTION ( 'NONE',  ( -0.0000000000000000000, -0.0000000000000000000, 1.000000000000000000 ) ) ;
#228 = AXIS2_PLACEMENT_3D ( 'NONE', #315, #184, #85 ) ;
#229 = ADVANCED_BREP_SHAPE_REPRESENTATION ( 'Micro_DR-046-2', ( #19, #241 ), #39 ) ;
#230 = DIRECTION ( 'NONE',  ( -0.0000000000000000000, -0.0000000000000000000, 1.000000000000000000 ) ) ;
#231 = DIRECTION ( 'NONE',  ( 1.000000000000000000, 0.0000000000000000000, 0.0000000000000000000 ) ) ;
#232 = PRODUCT_DEFINITION_CONTEXT ( 'detailed design', #47, 'design' ) ;
#233 = EDGE_CURVE ( 'NONE', #226, #281, #197, .T. ) ;
#234 = CARTESIAN_POINT ( 'NONE',  ( 0.02344999999999999862, 2.871796744000542613E-18, 0.7500866025403780668 ) ) ;
#235 = AXIS2_PLACEMENT_3D ( 'NONE', #154, #230, #34 ) ;
#236 = AXIS2_PLACEMENT_3D ( 'NONE', #96, #74, #173 ) ;
#237 = DIRECTION ( 'NONE',  ( -0.0000000000000000000, -0.0000000000000000000, 1.000000000000000000 ) ) ;
#238 = LENGTH_MEASURE_WITH_UNIT ( LENGTH_MEASURE( 0.02539999999999999897 ), #158 );
#239 = SURFACE_STYLE_FILL_AREA ( #264 ) ;
#240 = UNCERTAINTY_MEASURE_WITH_UNIT (LENGTH_MEASURE( 1.000000000000000082E-05 ), #22, 'distance_accuracy_value', 'NONE');
#241 = AXIS2_PLACEMENT_3D ( 'NONE', #174, #250, #146 ) ;
#242 = ADVANCED_FACE ( 'NONE', ( #6 ), #194, .T. ) ;
#243 = AXIS2_PLACEMENT_3D ( 'NONE', #207, #63, #162 ) ;
#244 = EDGE_CURVE ( 'NONE', #278, #276, #54, .T. ) ;
#245 = CARTESIAN_POINT ( 'NONE',  ( 0.0000000000000000000, 0.0000000000000000000, 1.485000000000000986 ) ) ;
#246 = DIRECTION ( 'NONE',  ( -0.4999999999999973910, 6.123233995736733988E-17, 0.8660254037844402619 ) ) ;
#247 = ADVANCED_FACE ( 'NONE', ( #151 ), #269, .T. ) ;
#248 = ORIENTED_EDGE ( 'NONE', *, *, #43, .F. ) ;
#249 = CARTESIAN_POINT ( 'NONE',  ( 0.0000000000000000000, 0.0000000000000000000, 1.500000000000000222 ) ) ;
#250 = DIRECTION ( 'NONE',  ( 0.0000000000000000000, 0.0000000000000000000, 1.000000000000000000 ) ) ;
#251 = EDGE_LOOP ( 'NONE', ( #193, #77, #216 ) ) ;
#252 = LINE ( 'NONE', #279, #67 ) ;
#253 = VERTEX_POINT ( 'NONE', #200 ) ;
#254 = CARTESIAN_POINT ( 'NONE',  ( 0.0000000000000000000, 0.0000000000000000000, 1.500000000000000222 ) ) ;
#255 = ORIENTED_EDGE ( 'NONE', *, *, #7, .F. ) ;
#256 = CARTESIAN_POINT ( 'NONE',  ( 0.0000000000000000000, 0.0000000000000000000, 0.01406013848524471921 ) ) ;
#257 = AXIS2_PLACEMENT_3D ( 'NONE', #305, #306, #56 ) ;
#258 = EDGE_CURVE ( 'NONE', #309, #253, #59, .T. ) ;
#259 = CARTESIAN_POINT ( 'NONE',  ( 0.0000000000000000000, 0.0000000000000000000, 0.0000000000000000000 ) ) ;
#260 = FACE_OUTER_BOUND ( 'NONE', #48, .T. ) ;
#261 = ADVANCED_FACE ( 'NONE', ( #80 ), #122, .T. ) ;
#262 = FACE_OUTER_BOUND ( 'NONE', #123, .T. ) ;
#263 = DIRECTION ( 'NONE',  ( -0.0000000000000000000, -0.0000000000000000000, 1.000000000000000000 ) ) ;
#264 = FILL_AREA_STYLE ('',( #137 ) ) ;
#265 = CARTESIAN_POINT ( 'NONE',  ( 0.0000000000000000000, 0.0000000000000000000, 1.485000000000000986 ) ) ;
#266 = ORIENTED_EDGE ( 'NONE', *, *, #141, .F. ) ;
#267 =( GEOMETRIC_REPRESENTATION_CONTEXT ( 3 ) GLOBAL_UNCERTAINTY_ASSIGNED_CONTEXT ( ( #240 ) ) GLOBAL_UNIT_ASSIGNED_CONTEXT ( ( #22, #114, #299 ) ) REPRESENTATION_CONTEXT ( 'NONE', 'WORKASPACE' ) );
#268 = AXIS2_PLACEMENT_3D ( 'NONE', #147, #227, #217 ) ;
#269 = CONICAL_SURFACE ( 'NONE', #46, 0.008450000000000830111, 0.7853981633974487231 ) ;
#270 = EDGE_LOOP ( 'NONE', ( #319, #12, #248, #224 ) ) ;
#271 = ORIENTED_EDGE ( 'NONE', *, *, #192, .F. ) ;
#272 = ORIENTED_EDGE ( 'NONE', *, *, #211, .T. ) ;
#273 = DIRECTION ( 'NONE',  ( -1.000000000000000000, 0.0000000000000000000, 0.0000000000000000000 ) ) ;
#274 = ORIENTED_EDGE ( 'NONE', *, *, #244, .F. ) ;
#275 = LINE ( 'NONE', #120, #293 ) ;
#276 = VERTEX_POINT ( 'NONE', #61 ) ;
#277 = LINE ( 'NONE', #30, #165 ) ;
#278 = VERTEX_POINT ( 'NONE', #206 ) ;
#279 = CARTESIAN_POINT ( 'NONE',  ( 0.02340000000000028862, 0.0000000000000000000, 0.7500000000000002220 ) ) ;
#280 = DIMENSIONAL_EXPONENTS ( 1.000000000000000000, 0.0000000000000000000, 0.0000000000000000000, 0.0000000000000000000, 0.0000000000000000000, 0.0000000000000000000, 0.0000000000000000000 ) ;
#281 = VERTEX_POINT ( 'NONE', #291 ) ;
#282 = DIRECTION ( 'NONE',  ( 1.000000000000000000, 0.0000000000000000000, 0.0000000000000000000 ) ) ;
#283 = ORIENTED_EDGE ( 'NONE', *, *, #141, .T. ) ;
#284 = FACE_OUTER_BOUND ( 'NONE', #251, .T. ) ;
#285 = AXIS2_PLACEMENT_3D ( 'NONE', #84, #237, #182 ) ;
#286 = AXIS2_PLACEMENT_3D ( 'NONE', #265, #302, #172 ) ;
#287 = DIRECTION ( 'NONE',  ( -0.0000000000000000000, -0.0000000000000000000, 1.000000000000000000 ) ) ;
#288 = ADVANCED_FACE ( 'NONE', ( #284 ), #28, .T. ) ;
#289 = DIRECTION ( 'NONE',  ( -0.0000000000000000000, -0.0000000000000000000, 1.000000000000000000 ) ) ;
#290 = EDGE_LOOP ( 'NONE', ( #164, #31 ) ) ;
#291 = CARTESIAN_POINT ( 'NONE',  ( -0.02344999999999999862, 0.0000000000000000000, 0.7500866025403780668 ) ) ;
#292 = PRESENTATION_STYLE_ASSIGNMENT (( #87 ) ) ;
#293 = VECTOR ( 'NONE', #103, 39.37007874015748143 ) ;
#294 = FACE_OUTER_BOUND ( 'NONE', #111, .T. ) ;
#295 = UNCERTAINTY_MEASURE_WITH_UNIT (LENGTH_MEASURE( 1.000000000000000082E-05 ), #316, 'distance_accuracy_value', 'NONE');
#296 = ORIENTED_EDGE ( 'NONE', *, *, #89, .F. ) ;
#297 = ADVANCED_FACE ( 'NONE', ( #58 ), #121, .T. ) ;
#298 = VECTOR ( 'NONE', #246, 39.37007874015748854 ) ;
#299 =( NAMED_UNIT ( * ) SI_UNIT ( $, .STERADIAN. ) SOLID_ANGLE_UNIT ( ) );
#300 = VERTEX_POINT ( 'NONE', #234 ) ;
#301 = LINE ( 'NONE', #49, #143 ) ;
#302 = DIRECTION ( 'NONE',  ( -0.0000000000000000000, -0.0000000000000000000, 1.000000000000000000 ) ) ;
#303 = ORIENTED_EDGE ( 'NONE', *, *, #166, .T. ) ;
#304 = DIRECTION ( 'NONE',  ( 0.0000000000000000000, 0.0000000000000000000, -1.000000000000000000 ) ) ;
#305 = CARTESIAN_POINT ( 'NONE',  ( 0.0000000000000000000, 0.0000000000000000000, 1.500000000000000222 ) ) ;
#306 = DIRECTION ( 'NONE',  ( 0.0000000000000000000, 0.0000000000000000000, 1.000000000000000000 ) ) ;
#307 = EDGE_CURVE ( 'NONE', #253, #199, #179, .T. ) ;
#308 = DIRECTION ( 'NONE',  ( 1.000000000000000000, 0.0000000000000000000, 0.0000000000000000000 ) ) ;
#309 = VERTEX_POINT ( 'NONE', #109 ) ;
#310 = DIRECTION ( 'NONE',  ( -1.000000000000000000, 0.0000000000000000000, 0.0000000000000000000 ) ) ;
#311 = EDGE_CURVE ( 'NONE', #20, #253, #15, .T. ) ;
#312 = AXIS2_PLACEMENT_3D ( 'NONE', #136, #81, #130 ) ;
#313 = CARTESIAN_POINT ( 'NONE',  ( 0.02340000000000012903, 0.0000000000000000000, 1.485000000000000986 ) ) ;
#314 = AXIS2_PLACEMENT_3D ( 'NONE', #106, #203, #310 ) ;
#315 = CARTESIAN_POINT ( 'NONE',  ( 0.0000000000000000000, 0.0000000000000000000, 0.7500866025403780668 ) ) ;
#316 =( CONVERSION_BASED_UNIT ( 'INCH', #161 ) LENGTH_UNIT ( ) NAMED_UNIT ( #195 ) );
#317 = UNCERTAINTY_MEASURE_WITH_UNIT (LENGTH_MEASURE( 1.000000000000000082E-05 ), #88, 'distance_accuracy_value', 'NONE');
#318 = CIRCLE ( 'NONE', #236, 0.02344999999999999862 ) ;
#319 = ORIENTED_EDGE ( 'NONE', *, *, #21, .T. ) ;
#320 = APPLICATION_CONTEXT ( 'automotive_design' ) ;
#321 = ADVANCED_FACE ( 'NONE', ( #202 ), #322, .T. ) ;
#322 = CONICAL_SURFACE ( 'NONE', #235, 0.02340000000000028862, 0.5235987755982958181 ) ;
#323 = COLOUR_RGB ( '',0.7921568627450980005, 0.8196078431372548767, 0.9333333333333333481 ) ;
ENDSEC;
END-ISO-10303-21;
