ISO-10303-21;
HEADER;
FILE_DESCRIPTION (( 'STEP AP214' ),
    '1' );
FILE_NAME ('Micro_AEMM-040-4X.STEP',
    '2022-03-15T14:25:39',
    ( '' ),
    ( '' ),
    'SwSTEP 2.0',
    'SolidWorks 2022',
    '' );
FILE_SCHEMA (( 'AUTOMOTIVE_DESIGN' ));
ENDSEC;

DATA;
#1 = PRODUCT_DEFINITION_SHAPE ( 'NONE', 'NONE',  #108 ) ;
#2 = DIRECTION ( 'NONE',  ( 0.000000000000000000, 0.000000000000000000, 1.000000000000000000 ) ) ;
#3 = ADVANCED_FACE ( 'NONE', ( #121 ), #192, .T. ) ;
#4 = DIRECTION ( 'NONE',  ( 0.000000000000000000, 0.000000000000000000, -1.000000000000000000 ) ) ;
#5 = CARTESIAN_POINT ( 'NONE',  ( -0.1181100000000000066, 0.000000000000000000, 2.244094000000000033 ) ) ;
#6 = ORIENTED_EDGE ( 'NONE', *, *, #134, .T. ) ;
#7 = CARTESIAN_POINT ( 'NONE',  ( 0.07866126000000003837, 0.000000000000000000, 0.4330709999999999837 ) ) ;
#8 = AXIS2_PLACEMENT_3D ( 'NONE', #40, #180, #297 ) ;
#9 = PRODUCT_DEFINITION_FORMATION_WITH_SPECIFIED_SOURCE ( 'ANY', '', #55, .NOT_KNOWN. ) ;
#10 = ADVANCED_FACE ( 'NONE', ( #39 ), #206, .T. ) ;
#11 = ORIENTED_EDGE ( 'NONE', *, *, #139, .F. ) ;
#12 = ORIENTED_EDGE ( 'NONE', *, *, #103, .F. ) ;
#13 = VECTOR ( 'NONE', #61, 39.37007874015748143 ) ;
#14 = ORIENTED_EDGE ( 'NONE', *, *, #197, .F. ) ;
#15 = PRODUCT_RELATED_PRODUCT_CATEGORY ( 'part', '', ( #55 ) ) ;
#16 = CARTESIAN_POINT ( 'NONE',  ( 5.303590139535433909E-17, 0.000000000000000000, 0.4330709999999999837 ) ) ;
#17 = DIRECTION ( 'NONE',  ( -1.000000000000000000, 0.000000000000000000, 0.000000000000000000 ) ) ;
#18 = EDGE_CURVE ( 'NONE', #196, #116, #20, .T. ) ;
#19 = DIRECTION ( 'NONE',  ( 0.000000000000000000, 0.000000000000000000, 1.000000000000000000 ) ) ;
#20 = LINE ( 'NONE', #205, #50 ) ;
#21 = AXIS2_PLACEMENT_3D ( 'NONE', #273, #266, #41 ) ;
#22 = FACE_OUTER_BOUND ( 'NONE', #95, .T. ) ;
#23 =( NAMED_UNIT ( * ) PLANE_ANGLE_UNIT ( ) SI_UNIT ( $, .RADIAN. ) );
#24 = ADVANCED_FACE ( 'NONE', ( #246 ), #123, .T. ) ;
#25 = LENGTH_MEASURE_WITH_UNIT ( LENGTH_MEASURE( 0.02539999999999999897 ), #225 );
#26 = DIRECTION ( 'NONE',  ( -0.1736481776669311916, 2.126576849575783316E-17, 0.9848077530122080203 ) ) ;
#27 = CARTESIAN_POINT ( 'NONE',  ( 5.303590139535433909E-17, 0.000000000000000000, 0.4330709999999999837 ) ) ;
#28 = UNCERTAINTY_MEASURE_WITH_UNIT (LENGTH_MEASURE( 1.000000000000000082E-05 ), #198, 'distance_accuracy_value', 'NONE');
#29 = ORIENTED_EDGE ( 'NONE', *, *, #134, .F. ) ;
#30 = LINE ( 'NONE', #96, #199 ) ;
#31 = ORIENTED_EDGE ( 'NONE', *, *, #49, .T. ) ;
#32 = AXIS2_PLACEMENT_3D ( 'NONE', #71, #90, #256 ) ;
#33 = EDGE_LOOP ( 'NONE', ( #118, #166 ) ) ;
#34 = ORIENTED_EDGE ( 'NONE', *, *, #103, .T. ) ;
#35 = ORIENTED_EDGE ( 'NONE', *, *, #197, .T. ) ;
#36 = ADVANCED_FACE ( 'NONE', ( #247 ), #269, .T. ) ;
#37 = CIRCLE ( 'NONE', #45, 0.1181100000000000066 ) ;
#38 = CIRCLE ( 'NONE', #171, 0.07866125999999999674 ) ;
#39 = FACE_OUTER_BOUND ( 'NONE', #142, .T. ) ;
#40 = CARTESIAN_POINT ( 'NONE',  ( 8.043430235321561285E-17, 0.000000000000000000, 0.6567959219688248584 ) ) ;
#41 = DIRECTION ( 'NONE',  ( -1.000000000000000000, 0.000000000000000000, 1.224646799147352961E-16 ) ) ;
#42 = AXIS2_PLACEMENT_3D ( 'NONE', #16, #129, #177 ) ;
#43 = LINE ( 'NONE', #128, #46 ) ;
#44 = DIRECTION ( 'NONE',  ( -1.000000000000000000, 0.000000000000000000, 1.224646799147352961E-16 ) ) ;
#45 = AXIS2_PLACEMENT_3D ( 'NONE', #226, #229, #67 ) ;
#46 = VECTOR ( 'NONE', #181, 39.37007874015748854 ) ;
#47 = DIRECTION ( 'NONE',  ( -1.224646799147353207E-16, -0.000000000000000000, -1.000000000000000000 ) ) ;
#48 = CARTESIAN_POINT ( 'NONE',  ( 5.303590139535433909E-17, 0.000000000000000000, 0.4330709999999999837 ) ) ;
#49 = EDGE_CURVE ( 'NONE', #149, #116, #37, .T. ) ;
#50 = VECTOR ( 'NONE', #125, 39.37007874015748854 ) ;
#51 = CIRCLE ( 'NONE', #130, 0.07866125999999999674 ) ;
#52 = DIRECTION ( 'NONE',  ( -1.224646799147353207E-16, -0.000000000000000000, -1.000000000000000000 ) ) ;
#53 = ADVANCED_BREP_SHAPE_REPRESENTATION ( 'Micro_AEMM-040-4X', ( #173, #136 ), #274 ) ;
#54 = ORIENTED_EDGE ( 'NONE', *, *, #275, .F. ) ;
#55 = PRODUCT ( 'Micro_AEMM-040-4X', 'Micro_AEMM-040-4X', '', ( #115 ) ) ;
#56 = ORIENTED_EDGE ( 'NONE', *, *, #49, .F. ) ;
#57 = APPLICATION_PROTOCOL_DEFINITION ( 'draft international standard', 'automotive_design', 1998, #215 ) ;
#58 = EDGE_LOOP ( 'NONE', ( #218, #244, #34, #144 ) ) ;
#59 = EDGE_CURVE ( 'NONE', #285, #81, #154, .T. ) ;
#60 = VERTEX_POINT ( 'NONE', #127 ) ;
#61 = DIRECTION ( 'NONE',  ( -0.000000000000000000, -0.000000000000000000, -1.000000000000000000 ) ) ;
#62 = AXIS2_PLACEMENT_3D ( 'NONE', #102, #204, #224 ) ;
#63 =( NAMED_UNIT ( * ) PLANE_ANGLE_UNIT ( ) SI_UNIT ( $, .RADIAN. ) );
#64 = CARTESIAN_POINT ( 'NONE',  ( 0.000000000000000000, 0.000000000000000000, 2.244094000000000033 ) ) ;
#65 = LINE ( 'NONE', #157, #13 ) ;
#66 = AXIS2_PLACEMENT_3D ( 'NONE', #48, #255, #188 ) ;
#67 = DIRECTION ( 'NONE',  ( 1.000000000000000000, 0.000000000000000000, 0.000000000000000000 ) ) ;
#68 = EDGE_CURVE ( 'NONE', #60, #196, #189, .T. ) ;
#69 = DIRECTION ( 'NONE',  ( 0.1736481776669313859, 0.000000000000000000, 0.9848077530122077983 ) ) ;
#70 = DIMENSIONAL_EXPONENTS ( 1.000000000000000000, 0.000000000000000000, 0.000000000000000000, 0.000000000000000000, 0.000000000000000000, 0.000000000000000000, 0.000000000000000000 ) ;
#71 = CARTESIAN_POINT ( 'NONE',  ( 0.000000000000000000, 0.000000000000000000, 0.000000000000000000 ) ) ;
#72 = CARTESIAN_POINT ( 'NONE',  ( 0.07866125999999999674, 9.633226027589770864E-18, -9.633226027589770864E-18 ) ) ;
#73 = MECHANICAL_DESIGN_GEOMETRIC_PRESENTATION_REPRESENTATION (  '', ( #231 ), #152 ) ;
#74 = AXIS2_PLACEMENT_3D ( 'NONE', #156, #249, #44 ) ;
#75 = ORIENTED_EDGE ( 'NONE', *, *, #286, .F. ) ;
#76 =( GEOMETRIC_REPRESENTATION_CONTEXT ( 3 ) GLOBAL_UNCERTAINTY_ASSIGNED_CONTEXT ( ( #170 ) ) GLOBAL_UNIT_ASSIGNED_CONTEXT ( ( #296, #23, #77 ) ) REPRESENTATION_CONTEXT ( 'NONE', 'WORKASPACE' ) );
#77 =( NAMED_UNIT ( * ) SI_UNIT ( $, .STERADIAN. ) SOLID_ANGLE_UNIT ( ) );
#78 = ORIENTED_EDGE ( 'NONE', *, *, #279, .T. ) ;
#79 = ORIENTED_EDGE ( 'NONE', *, *, #18, .T. ) ;
#80 = ORIENTED_EDGE ( 'NONE', *, *, #210, .T. ) ;
#81 = VERTEX_POINT ( 'NONE', #295 ) ;
#82 = CARTESIAN_POINT ( 'NONE',  ( 5.303590139535433909E-17, 0.000000000000000000, 0.4330709999999999837 ) ) ;
#83 = EDGE_CURVE ( 'NONE', #116, #149, #161, .T. ) ;
#84 = PRESENTATION_LAYER_ASSIGNMENT (  '', '', ( #268 ) ) ;
#85 =( LENGTH_UNIT ( ) NAMED_UNIT ( * ) SI_UNIT ( $, .METRE. ) );
#86 = DIRECTION ( 'NONE',  ( 1.000000000000000000, 0.000000000000000000, 0.000000000000000000 ) ) ;
#87 = CARTESIAN_POINT ( 'NONE',  ( -0.1181100000000000066, 0.000000000000000000, 2.229093999999999465 ) ) ;
#88 = VECTOR ( 'NONE', #237, 39.37007874015748143 ) ;
#89 = DIRECTION ( 'NONE',  ( 1.000000000000000000, 0.000000000000000000, -0.000000000000000000 ) ) ;
#90 = DIRECTION ( 'NONE',  ( 0.000000000000000000, 0.000000000000000000, 1.000000000000000000 ) ) ;
#91 = CARTESIAN_POINT ( 'NONE',  ( 8.043430235321561285E-17, 0.000000000000000000, 0.6567959219688248584 ) ) ;
#92 = CARTESIAN_POINT ( 'NONE',  ( 0.000000000000000000, 0.000000000000000000, 0.000000000000000000 ) ) ;
#93 = CARTESIAN_POINT ( 'NONE',  ( 0.000000000000000000, 0.000000000000000000, 2.244094000000000033 ) ) ;
#94 =( LENGTH_UNIT ( ) NAMED_UNIT ( * ) SI_UNIT ( $, .METRE. ) );
#95 = EDGE_LOOP ( 'NONE', ( #221, #239 ) ) ;
#96 = CARTESIAN_POINT ( 'NONE',  ( 0.07866126000000003837, 0.000000000000000000, 0.4330709999999999837 ) ) ;
#97 = APPLICATION_PROTOCOL_DEFINITION ( 'draft international standard', 'automotive_design', 1998, #150 ) ;
#98 = ORIENTED_EDGE ( 'NONE', *, *, #251, .F. ) ;
#99 = ADVANCED_FACE ( 'NONE', ( #159 ), #124, .T. ) ;
#100 = ORIENTED_EDGE ( 'NONE', *, *, #208, .T. ) ;
#101 = AXIS2_PLACEMENT_3D ( 'NONE', #227, #19, #105 ) ;
#102 = CARTESIAN_POINT ( 'NONE',  ( 0.000000000000000000, 0.000000000000000000, 2.244094000000000033 ) ) ;
#103 = EDGE_CURVE ( 'NONE', #60, #149, #43, .T. ) ;
#104 = SURFACE_SIDE_STYLE ('',( #153 ) ) ;
#105 = DIRECTION ( 'NONE',  ( 1.000000000000000000, 0.000000000000000000, 0.000000000000000000 ) ) ;
#106 = DIRECTION ( 'NONE',  ( 0.000000000000000000, 0.000000000000000000, -1.000000000000000000 ) ) ;
#107 = CARTESIAN_POINT ( 'NONE',  ( 0.1181100000000000066, 1.446430334472939084E-17, 2.229093999999999465 ) ) ;
#108 = PRODUCT_DEFINITION ( 'UNKNOWN', '', #9, #241 ) ;
#109 = PLANE ( 'NONE',  #212 ) ;
#110 = DIRECTION ( 'NONE',  ( -1.224646799147353207E-16, -0.000000000000000000, -1.000000000000000000 ) ) ;
#111 = CONICAL_SURFACE ( 'NONE', #66, 0.07866125999999999674, 0.1745329251994338915 ) ;
#112 = CARTESIAN_POINT ( 'NONE',  ( 0.000000000000000000, 0.000000000000000000, 0.000000000000000000 ) ) ;
#113 = EDGE_CURVE ( 'NONE', #196, #60, #155, .T. ) ;
#114 = CARTESIAN_POINT ( 'NONE',  ( -0.07866125999999994123, 9.633226027589770864E-18, 0.4330709999999999837 ) ) ;
#115 = PRODUCT_CONTEXT ( 'NONE', #150, 'mechanical' ) ;
#116 = VERTEX_POINT ( 'NONE', #107 ) ;
#117 = DIRECTION ( 'NONE',  ( -1.224646799147353207E-16, -0.000000000000000000, -1.000000000000000000 ) ) ;
#118 = ORIENTED_EDGE ( 'NONE', *, *, #59, .T. ) ;
#119 = SHAPE_DEFINITION_REPRESENTATION ( #1, #53 ) ;
#120 = ORIENTED_EDGE ( 'NONE', *, *, #113, .F. ) ;
#121 = FACE_OUTER_BOUND ( 'NONE', #200, .T. ) ;
#122 = EDGE_LOOP ( 'NONE', ( #120, #79, #56, #12 ) ) ;
#123 = CONICAL_SURFACE ( 'NONE', #298, 0.1031100000000002570, 0.7853981633974318477 ) ;
#124 = CONICAL_SURFACE ( 'NONE', #42, 0.07866125999999999674, 0.1745329251994338915 ) ;
#125 = DIRECTION ( 'NONE',  ( 0.7071067811865358044, 8.659560562354788645E-17, -0.7071067811865590080 ) ) ;
#126 = DIRECTION ( 'NONE',  ( -1.000000000000000000, 0.000000000000000000, 0.000000000000000000 ) ) ;
#127 = CARTESIAN_POINT ( 'NONE',  ( -0.1031100000000002570, 0.000000000000000000, 2.244094000000000033 ) ) ;
#128 = CARTESIAN_POINT ( 'NONE',  ( -0.1031100000000002570, 0.000000000000000000, 2.244094000000000033 ) ) ;
#129 = DIRECTION ( 'NONE',  ( 1.224646799147353207E-16, 0.000000000000000000, 1.000000000000000000 ) ) ;
#130 = AXIS2_PLACEMENT_3D ( 'NONE', #82, #110, #135 ) ;
#131 = FACE_OUTER_BOUND ( 'NONE', #148, .T. ) ;
#132 =( CONVERSION_BASED_UNIT ( 'INCH', #25 ) LENGTH_UNIT ( ) NAMED_UNIT ( #267 ) );
#133 = CARTESIAN_POINT ( 'NONE',  ( -0.07866125999999999674, 0.000000000000000000, 1.926645205517954173E-17 ) ) ;
#134 = EDGE_CURVE ( 'NONE', #236, #172, #158, .T. ) ;
#135 = DIRECTION ( 'NONE',  ( -1.000000000000000000, 0.000000000000000000, 0.000000000000000000 ) ) ;
#136 = AXIS2_PLACEMENT_3D ( 'NONE', #92, #145, #147 ) ;
#137 = AXIS2_PLACEMENT_3D ( 'NONE', #283, #262, #176 ) ;
#138 = MECHANICAL_DESIGN_GEOMETRIC_PRESENTATION_REPRESENTATION (  '', ( #268 ), #76 ) ;
#139 = EDGE_CURVE ( 'NONE', #116, #172, #65, .T. ) ;
#140 = DIRECTION ( 'NONE',  ( -1.000000000000000000, 0.000000000000000000, 1.224646799147352961E-16 ) ) ;
#141 =( NAMED_UNIT ( * ) SI_UNIT ( $, .STERADIAN. ) SOLID_ANGLE_UNIT ( ) );
#142 = EDGE_LOOP ( 'NONE', ( #31, #216, #29, #242 ) ) ;
#143 = CARTESIAN_POINT ( 'NONE',  ( 1.179729942015078748E-33, 0.000000000000000000, 9.633226027589770864E-18 ) ) ;
#144 = ORIENTED_EDGE ( 'NONE', *, *, #83, .F. ) ;
#145 = DIRECTION ( 'NONE',  ( 0.000000000000000000, 0.000000000000000000, 1.000000000000000000 ) ) ;
#146 = EDGE_LOOP ( 'NONE', ( #14, #263, #260, #288 ) ) ;
#147 = DIRECTION ( 'NONE',  ( 1.000000000000000000, 0.000000000000000000, 0.000000000000000000 ) ) ;
#148 = EDGE_LOOP ( 'NONE', ( #169, #35, #6, #75 ) ) ;
#149 = VERTEX_POINT ( 'NONE', #87 ) ;
#150 = APPLICATION_CONTEXT ( 'automotive_design' ) ;
#151 = DIMENSIONAL_EXPONENTS ( 1.000000000000000000, 0.000000000000000000, 0.000000000000000000, 0.000000000000000000, 0.000000000000000000, 0.000000000000000000, 0.000000000000000000 ) ;
#152 =( GEOMETRIC_REPRESENTATION_CONTEXT ( 3 ) GLOBAL_UNCERTAINTY_ASSIGNED_CONTEXT ( ( #28 ) ) GLOBAL_UNIT_ASSIGNED_CONTEXT ( ( #198, #265, #141 ) ) REPRESENTATION_CONTEXT ( 'NONE', 'WORKASPACE' ) );
#153 = SURFACE_STYLE_FILL_AREA ( #291 ) ;
#154 = CIRCLE ( 'NONE', #21, 0.07866125999999999674 ) ;
#155 = CIRCLE ( 'NONE', #62, 0.1031100000000002570 ) ;
#156 = CARTESIAN_POINT ( 'NONE',  ( 0.000000000000000000, 0.000000000000000000, 0.000000000000000000 ) ) ;
#157 = CARTESIAN_POINT ( 'NONE',  ( 0.1181100000000000066, 1.446430334472939084E-17, 2.244094000000000033 ) ) ;
#158 = CIRCLE ( 'NONE', #8, 0.1181100000000000066 ) ;
#159 = FACE_OUTER_BOUND ( 'NONE', #146, .T. ) ;
#160 = PLANE ( 'NONE',  #32 ) ;
#161 = CIRCLE ( 'NONE', #234, 0.1181100000000000066 ) ;
#162 = DIRECTION ( 'NONE',  ( -1.000000000000000000, 0.000000000000000000, 0.000000000000000000 ) ) ;
#163 = DIRECTION ( 'NONE',  ( -1.000000000000000000, 0.000000000000000000, 1.224646799147352961E-16 ) ) ;
#164 = CARTESIAN_POINT ( 'NONE',  ( 0.1031100000000002570, 1.354581824536888722E-17, 2.244094000000000033 ) ) ;
#165 = CIRCLE ( 'NONE', #254, 0.1181100000000000066 ) ;
#166 = ORIENTED_EDGE ( 'NONE', *, *, #251, .T. ) ;
#167 = LINE ( 'NONE', #5, #88 ) ;
#168 = ORIENTED_EDGE ( 'NONE', *, *, #175, .T. ) ;
#169 = ORIENTED_EDGE ( 'NONE', *, *, #210, .F. ) ;
#170 = UNCERTAINTY_MEASURE_WITH_UNIT (LENGTH_MEASURE( 1.000000000000000082E-05 ), #296, 'distance_accuracy_value', 'NONE');
#171 = AXIS2_PLACEMENT_3D ( 'NONE', #27, #211, #281 ) ;
#172 = VERTEX_POINT ( 'NONE', #294 ) ;
#173 = MANIFOLD_SOLID_BREP ( 'Cut-Revolve1', #253 ) ;
#174 = EDGE_LOOP ( 'NONE', ( #80, #280, #187, #194 ) ) ;
#175 = EDGE_CURVE ( 'NONE', #219, #240, #51, .T. ) ;
#176 = DIRECTION ( 'NONE',  ( -1.000000000000000000, 0.000000000000000000, 0.000000000000000000 ) ) ;
#177 = DIRECTION ( 'NONE',  ( 1.000000000000000000, 0.000000000000000000, 0.000000000000000000 ) ) ;
#178 = VECTOR ( 'NONE', #26, 39.37007874015747433 ) ;
#179 = LENGTH_MEASURE_WITH_UNIT ( LENGTH_MEASURE( 0.02539999999999999897 ), #85 );
#180 = DIRECTION ( 'NONE',  ( -1.224646799147353207E-16, -0.000000000000000000, -1.000000000000000000 ) ) ;
#181 = DIRECTION ( 'NONE',  ( -0.7071067811865358044, 0.000000000000000000, -0.7071067811865590080 ) ) ;
#182 = LINE ( 'NONE', #114, #178 ) ;
#183 = ADVANCED_FACE ( 'NONE', ( #213 ), #160, .F. ) ;
#184 = CARTESIAN_POINT ( 'NONE',  ( -0.07866125999999999674, 0.000000000000000000, 9.633226027589770864E-18 ) ) ;
#185 = DIRECTION ( 'NONE',  ( 1.000000000000000000, 0.000000000000000000, 0.000000000000000000 ) ) ;
#186 = SURFACE_SIDE_STYLE ('',( #243 ) ) ;
#187 = ORIENTED_EDGE ( 'NONE', *, *, #59, .F. ) ;
#188 = DIRECTION ( 'NONE',  ( 1.000000000000000000, 0.000000000000000000, 0.000000000000000000 ) ) ;
#189 = CIRCLE ( 'NONE', #101, 0.1031100000000002570 ) ;
#190 = ADVANCED_FACE ( 'NONE', ( #193 ), #207, .T. ) ;
#191 = AXIS2_PLACEMENT_3D ( 'NONE', #93, #4, #162 ) ;
#192 = CYLINDRICAL_SURFACE ( 'NONE', #137, 0.1181100000000000066 ) ;
#193 = FACE_OUTER_BOUND ( 'NONE', #58, .T. ) ;
#194 = ORIENTED_EDGE ( 'NONE', *, *, #208, .F. ) ;
#195 =( NAMED_UNIT ( * ) SI_UNIT ( $, .STERADIAN. ) SOLID_ANGLE_UNIT ( ) );
#196 = VERTEX_POINT ( 'NONE', #164 ) ;
#197 = EDGE_CURVE ( 'NONE', #240, #236, #182, .T. ) ;
#198 =( CONVERSION_BASED_UNIT ( 'INCH', #238 ) LENGTH_UNIT ( ) NAMED_UNIT ( #70 ) );
#199 = VECTOR ( 'NONE', #69, 39.37007874015748143 ) ;
#200 = EDGE_LOOP ( 'NONE', ( #11, #290, #78, #264 ) ) ;
#201 = FILL_AREA_STYLE_COLOUR ( '', #289 ) ;
#202 = CARTESIAN_POINT ( 'NONE',  ( 0.000000000000000000, 0.000000000000000000, 2.229093999999999465 ) ) ;
#203 = EDGE_CURVE ( 'NONE', #172, #236, #165, .T. ) ;
#204 = DIRECTION ( 'NONE',  ( 0.000000000000000000, 0.000000000000000000, 1.000000000000000000 ) ) ;
#205 = CARTESIAN_POINT ( 'NONE',  ( 0.1031100000000002570, 1.262733314600838667E-17, 2.244094000000000033 ) ) ;
#206 = CYLINDRICAL_SURFACE ( 'NONE', #259, 0.1181100000000000066 ) ;
#207 = CONICAL_SURFACE ( 'NONE', #191, 0.1031100000000002570, 0.7853981633974318477 ) ;
#208 = EDGE_CURVE ( 'NONE', #240, #285, #233, .T. ) ;
#209 = CARTESIAN_POINT ( 'NONE',  ( 0.000000000000000000, 0.000000000000000000, 2.244094000000000033 ) ) ;
#210 = EDGE_CURVE ( 'NONE', #240, #219, #38, .T. ) ;
#211 = DIRECTION ( 'NONE',  ( -1.224646799147353207E-16, -0.000000000000000000, -1.000000000000000000 ) ) ;
#212 = AXIS2_PLACEMENT_3D ( 'NONE', #209, #2, #89 ) ;
#213 = FACE_OUTER_BOUND ( 'NONE', #33, .T. ) ;
#214 = CARTESIAN_POINT ( 'NONE',  ( -0.07866125999999994123, 1.204876468615957931E-17, 0.4330709999999999837 ) ) ;
#215 = APPLICATION_CONTEXT ( 'automotive_design' ) ;
#216 = ORIENTED_EDGE ( 'NONE', *, *, #139, .T. ) ;
#217 = CIRCLE ( 'NONE', #245, 0.07866125999999999674 ) ;
#218 = ORIENTED_EDGE ( 'NONE', *, *, #18, .F. ) ;
#219 = VERTEX_POINT ( 'NONE', #7 ) ;
#220 = FILL_AREA_STYLE ('',( #287 ) ) ;
#221 = ORIENTED_EDGE ( 'NONE', *, *, #68, .T. ) ;
#222 = AXIS2_PLACEMENT_3D ( 'NONE', #112, #277, #163 ) ;
#223 = EDGE_LOOP ( 'NONE', ( #54, #168, #100, #98 ) ) ;
#224 = DIRECTION ( 'NONE',  ( 1.000000000000000000, 0.000000000000000000, 0.000000000000000000 ) ) ;
#225 =( LENGTH_UNIT ( ) NAMED_UNIT ( * ) SI_UNIT ( $, .METRE. ) );
#226 = CARTESIAN_POINT ( 'NONE',  ( 0.000000000000000000, 0.000000000000000000, 2.229093999999999465 ) ) ;
#227 = CARTESIAN_POINT ( 'NONE',  ( 0.000000000000000000, 0.000000000000000000, 2.244094000000000033 ) ) ;
#228 = SURFACE_STYLE_USAGE ( .BOTH. , #104 ) ;
#229 = DIRECTION ( 'NONE',  ( 0.000000000000000000, 0.000000000000000000, -1.000000000000000000 ) ) ;
#230 = ADVANCED_FACE ( 'NONE', ( #131 ), #111, .T. ) ;
#231 = STYLED_ITEM ( 'NONE', ( #284 ), #53 ) ;
#232 = FACE_OUTER_BOUND ( 'NONE', #223, .T. ) ;
#233 = LINE ( 'NONE', #184, #250 ) ;
#234 = AXIS2_PLACEMENT_3D ( 'NONE', #202, #106, #86 ) ;
#235 = DIRECTION ( 'NONE',  ( -1.224646799147353207E-16, -0.000000000000000000, -1.000000000000000000 ) ) ;
#236 = VERTEX_POINT ( 'NONE', #261 ) ;
#237 = DIRECTION ( 'NONE',  ( -0.000000000000000000, -0.000000000000000000, -1.000000000000000000 ) ) ;
#238 = LENGTH_MEASURE_WITH_UNIT ( LENGTH_MEASURE( 0.02539999999999999897 ), #94 );
#239 = ORIENTED_EDGE ( 'NONE', *, *, #113, .T. ) ;
#240 = VERTEX_POINT ( 'NONE', #214 ) ;
#241 = PRODUCT_DEFINITION_CONTEXT ( 'detailed design', #215, 'design' ) ;
#242 = ORIENTED_EDGE ( 'NONE', *, *, #279, .F. ) ;
#243 = SURFACE_STYLE_FILL_AREA ( #220 ) ;
#244 = ORIENTED_EDGE ( 'NONE', *, *, #68, .F. ) ;
#245 = AXIS2_PLACEMENT_3D ( 'NONE', #143, #52, #140 ) ;
#246 = FACE_OUTER_BOUND ( 'NONE', #122, .T. ) ;
#247 = FACE_OUTER_BOUND ( 'NONE', #174, .T. ) ;
#248 = DIRECTION ( 'NONE',  ( 0.000000000000000000, 0.000000000000000000, -1.000000000000000000 ) ) ;
#249 = DIRECTION ( 'NONE',  ( -1.224646799147353207E-16, -0.000000000000000000, -1.000000000000000000 ) ) ;
#250 = VECTOR ( 'NONE', #117, 39.37007874015748143 ) ;
#251 = EDGE_CURVE ( 'NONE', #81, #285, #217, .T. ) ;
#252 = CARTESIAN_POINT ( 'NONE',  ( 0.000000000000000000, 0.000000000000000000, 2.244094000000000033 ) ) ;
#253 = CLOSED_SHELL ( 'NONE', ( #36, #230, #24, #10, #3, #292, #190, #99, #272, #183 ) ) ;
#254 = AXIS2_PLACEMENT_3D ( 'NONE', #91, #47, #185 ) ;
#255 = DIRECTION ( 'NONE',  ( 1.224646799147353207E-16, 0.000000000000000000, 1.000000000000000000 ) ) ;
#256 = DIRECTION ( 'NONE',  ( 1.000000000000000000, 0.000000000000000000, -0.000000000000000000 ) ) ;
#257 = UNCERTAINTY_MEASURE_WITH_UNIT (LENGTH_MEASURE( 1.000000000000000082E-05 ), #132, 'distance_accuracy_value', 'NONE');
#258 = LINE ( 'NONE', #72, #282 ) ;
#259 = AXIS2_PLACEMENT_3D ( 'NONE', #252, #270, #126 ) ;
#260 = ORIENTED_EDGE ( 'NONE', *, *, #286, .T. ) ;
#261 = CARTESIAN_POINT ( 'NONE',  ( -0.1181099999999999234, 0.000000000000000000, 0.6567959219688248584 ) ) ;
#262 = DIRECTION ( 'NONE',  ( -0.000000000000000000, -0.000000000000000000, -1.000000000000000000 ) ) ;
#263 = ORIENTED_EDGE ( 'NONE', *, *, #175, .F. ) ;
#264 = ORIENTED_EDGE ( 'NONE', *, *, #203, .F. ) ;
#265 =( NAMED_UNIT ( * ) PLANE_ANGLE_UNIT ( ) SI_UNIT ( $, .RADIAN. ) );
#266 = DIRECTION ( 'NONE',  ( -1.224646799147353207E-16, -0.000000000000000000, -1.000000000000000000 ) ) ;
#267 = DIMENSIONAL_EXPONENTS ( 1.000000000000000000, 0.000000000000000000, 0.000000000000000000, 0.000000000000000000, 0.000000000000000000, 0.000000000000000000, 0.000000000000000000 ) ;
#268 = STYLED_ITEM ( 'NONE', ( #293 ), #173 ) ;
#269 = CYLINDRICAL_SURFACE ( 'NONE', #74, 0.07866125999999999674 ) ;
#270 = DIRECTION ( 'NONE',  ( -0.000000000000000000, -0.000000000000000000, -1.000000000000000000 ) ) ;
#271 = PRESENTATION_LAYER_ASSIGNMENT (  '', '', ( #231 ) ) ;
#272 = ADVANCED_FACE ( 'NONE', ( #232 ), #276, .T. ) ;
#273 = CARTESIAN_POINT ( 'NONE',  ( 1.179729942015078748E-33, 0.000000000000000000, 9.633226027589770864E-18 ) ) ;
#274 =( GEOMETRIC_REPRESENTATION_CONTEXT ( 3 ) GLOBAL_UNCERTAINTY_ASSIGNED_CONTEXT ( ( #257 ) ) GLOBAL_UNIT_ASSIGNED_CONTEXT ( ( #132, #63, #195 ) ) REPRESENTATION_CONTEXT ( 'NONE', 'WORKASPACE' ) );
#275 = EDGE_CURVE ( 'NONE', #219, #81, #258, .T. ) ;
#276 = CYLINDRICAL_SURFACE ( 'NONE', #222, 0.07866125999999999674 ) ;
#277 = DIRECTION ( 'NONE',  ( -1.224646799147353207E-16, -0.000000000000000000, -1.000000000000000000 ) ) ;
#278 = SURFACE_STYLE_USAGE ( .BOTH. , #186 ) ;
#279 = EDGE_CURVE ( 'NONE', #149, #236, #167, .T. ) ;
#280 = ORIENTED_EDGE ( 'NONE', *, *, #275, .T. ) ;
#281 = DIRECTION ( 'NONE',  ( -1.000000000000000000, 0.000000000000000000, 0.000000000000000000 ) ) ;
#282 = VECTOR ( 'NONE', #235, 39.37007874015748143 ) ;
#283 = CARTESIAN_POINT ( 'NONE',  ( 0.000000000000000000, 0.000000000000000000, 2.244094000000000033 ) ) ;
#284 = PRESENTATION_STYLE_ASSIGNMENT (( #278 ) ) ;
#285 = VERTEX_POINT ( 'NONE', #133 ) ;
#286 = EDGE_CURVE ( 'NONE', #219, #172, #30, .T. ) ;
#287 = FILL_AREA_STYLE_COLOUR ( '', #299 ) ;
#288 = ORIENTED_EDGE ( 'NONE', *, *, #203, .T. ) ;
#289 = COLOUR_RGB ( '',0.7921568627450980005, 0.8196078431372548767, 0.9333333333333333481 ) ;
#290 = ORIENTED_EDGE ( 'NONE', *, *, #83, .T. ) ;
#291 = FILL_AREA_STYLE ('',( #201 ) ) ;
#292 = ADVANCED_FACE ( 'NONE', ( #22 ), #109, .T. ) ;
#293 = PRESENTATION_STYLE_ASSIGNMENT (( #228 ) ) ;
#294 = CARTESIAN_POINT ( 'NONE',  ( 0.1181100000000000899, 1.446430334472940009E-17, 0.6567959219688248584 ) ) ;
#295 = CARTESIAN_POINT ( 'NONE',  ( 0.07866125999999999674, 9.633226027589770864E-18, 0.000000000000000000 ) ) ;
#296 =( CONVERSION_BASED_UNIT ( 'INCH', #179 ) LENGTH_UNIT ( ) NAMED_UNIT ( #151 ) );
#297 = DIRECTION ( 'NONE',  ( 1.000000000000000000, 0.000000000000000000, 0.000000000000000000 ) ) ;
#298 = AXIS2_PLACEMENT_3D ( 'NONE', #64, #248, #17 ) ;
#299 = COLOUR_RGB ( '',0.7921568627450980005, 0.8196078431372548767, 0.9333333333333333481 ) ;
ENDSEC;
END-ISO-10303-21;
