ISO-10303-21;
HEADER;
FILE_DESCRIPTION (( 'STEP AP214' ),
    '1' );
FILE_NAME ('59911.STEP',
    '2023-06-23T00:01:59',
    ( '' ),
    ( '' ),
    'SwSTEP 2.0',
    'SolidWorks 2023',
    '' );
FILE_SCHEMA (( 'AUTOMOTIVE_DESIGN' ));
ENDSEC;

DATA;
#1 = EDGE_CURVE ( 'NONE', #119, #55, #299, .T. ) ;
#2 =( LENGTH_UNIT ( ) NAMED_UNIT ( * ) SI_UNIT ( $, .METRE. ) );
#3 = DIRECTION ( 'NONE',  ( -1.000000000000000000, 0.000000000000000000, 0.000000000000000000 ) ) ;
#4 = PRESENTATION_LAYER_ASSIGNMENT (  '', '', ( #166 ) ) ;
#5 =( NAMED_UNIT ( * ) SI_UNIT ( $, .STERADIAN. ) SOLID_ANGLE_UNIT ( ) );
#6 = CARTESIAN_POINT ( 'NONE',  ( 0.2500000000000000555, 4.000000000000000000, 3.061616997868384251E-17 ) ) ;
#7 = FACE_OUTER_BOUND ( 'NONE', #245, .T. ) ;
#8 = CARTESIAN_POINT ( 'NONE',  ( -0.2500000000000002776, 4.000000000000000000, 0.000000000000000000 ) ) ;
#9 = ORIENTED_EDGE ( 'NONE', *, *, #110, .T. ) ;
#10 = VECTOR ( 'NONE', #281, 39.37007874015748143 ) ;
#11 = CARTESIAN_POINT ( 'NONE',  ( 0.000000000000000000, 0.000000000000000000, 0.000000000000000000 ) ) ;
#12 = MANIFOLD_SOLID_BREP ( 'Revolve - Cutting Edge', #83 ) ;
#13 = SURFACE_SIDE_STYLE ('',( #131 ) ) ;
#14 = CLOSED_SHELL ( 'NONE', ( #168, #67, #50, #289 ) ) ;
#15 = LENGTH_MEASURE_WITH_UNIT ( LENGTH_MEASURE( 0.02539999999999999897 ), #91 );
#16 =( NAMED_UNIT ( * ) PLANE_ANGLE_UNIT ( ) SI_UNIT ( $, .RADIAN. ) );
#17 = FACE_OUTER_BOUND ( 'NONE', #291, .T. ) ;
#18 = CARTESIAN_POINT ( 'NONE',  ( 0.2499999999999999167, 4.000000000000000000, 3.061616997868383634E-17 ) ) ;
#19 = SURFACE_STYLE_USAGE ( .BOTH. , #194 ) ;
#20 = CARTESIAN_POINT ( 'NONE',  ( 3.061616997868383018E-17, 1.625000000000000000, 0.2500000000000000000 ) ) ;
#21 = EDGE_LOOP ( 'NONE', ( #36, #103 ) ) ;
#22 = STYLED_ITEM ( 'NONE', ( #34 ), #12 ) ;
#23 = SURFACE_STYLE_USAGE ( .BOTH. , #141 ) ;
#24 = CIRCLE ( 'NONE', #162, 0.2500000000000000000 ) ;
#25 = ADVANCED_FACE ( 'NONE', ( #161 ), #309, .T. ) ;
#26 = UNCERTAINTY_MEASURE_WITH_UNIT (LENGTH_MEASURE( 1.000000000000000082E-05 ), #158, 'distance_accuracy_value', 'NONE');
#27 = PRESENTATION_STYLE_ASSIGNMENT (( #94 ) ) ;
#28 = ORIENTED_EDGE ( 'NONE', *, *, #226, .T. ) ;
#29 = ORIENTED_EDGE ( 'NONE', *, *, #38, .T. ) ;
#30 = DIMENSIONAL_EXPONENTS ( 1.000000000000000000, 0.000000000000000000, 0.000000000000000000, 0.000000000000000000, 0.000000000000000000, 0.000000000000000000, 0.000000000000000000 ) ;
#31 = CIRCLE ( 'NONE', #143, 0.2500000000000000000 ) ;
#32 = ORIENTED_EDGE ( 'NONE', *, *, #211, .F. ) ;
#33 = CIRCLE ( 'NONE', #206, 0.2500000000000001110 ) ;
#34 = PRESENTATION_STYLE_ASSIGNMENT (( #165 ) ) ;
#35 = APPLICATION_CONTEXT ( 'automotive_design' ) ;
#36 = ORIENTED_EDGE ( 'NONE', *, *, #52, .F. ) ;
#37 = DIRECTION ( 'NONE',  ( 1.000000000000000000, 0.000000000000000000, 0.000000000000000000 ) ) ;
#38 = EDGE_CURVE ( 'NONE', #49, #119, #277, .T. ) ;
#39 =( NAMED_UNIT ( * ) PLANE_ANGLE_UNIT ( ) SI_UNIT ( $, .RADIAN. ) );
#40 = MECHANICAL_DESIGN_GEOMETRIC_PRESENTATION_REPRESENTATION (  '', ( #166 ), #151 ) ;
#41 = ADVANCED_FACE ( 'NONE', ( #204 ), #305, .T. ) ;
#42 = FILL_AREA_STYLE_COLOUR ( '', #293 ) ;
#43 =( CONVERSION_BASED_UNIT ( 'INCH', #227 ) LENGTH_UNIT ( ) NAMED_UNIT ( #187 ) );
#44 = FILL_AREA_STYLE_COLOUR ( '', #295 ) ;
#45 = SHAPE_DEFINITION_REPRESENTATION ( #145, #290 ) ;
#46 = DIRECTION ( 'NONE',  ( 0.000000000000000000, -0.000000000000000000, 1.000000000000000000 ) ) ;
#47 = MECHANICAL_DESIGN_GEOMETRIC_PRESENTATION_REPRESENTATION (  '', ( #71 ), #78 ) ;
#48 = DIMENSIONAL_EXPONENTS ( 1.000000000000000000, 0.000000000000000000, 0.000000000000000000, 0.000000000000000000, 0.000000000000000000, 0.000000000000000000, 0.000000000000000000 ) ;
#49 = VERTEX_POINT ( 'NONE', #222 ) ;
#50 = ADVANCED_FACE ( 'NONE', ( #7 ), #294, .T. ) ;
#51 = VECTOR ( 'NONE', #285, 39.37007874015748143 ) ;
#52 = EDGE_CURVE ( 'NONE', #49, #282, #181, .T. ) ;
#53 = DIRECTION ( 'NONE',  ( 0.000000000000000000, 0.000000000000000000, -1.000000000000000000 ) ) ;
#54 = DIMENSIONAL_EXPONENTS ( 1.000000000000000000, 0.000000000000000000, 0.000000000000000000, 0.000000000000000000, 0.000000000000000000, 0.000000000000000000, 0.000000000000000000 ) ;
#55 = VERTEX_POINT ( 'NONE', #6 ) ;
#56 = UNCERTAINTY_MEASURE_WITH_UNIT (LENGTH_MEASURE( 1.000000000000000082E-05 ), #79, 'distance_accuracy_value', 'NONE');
#57 = DIRECTION ( 'NONE',  ( -5.156407575357275299E-17, 1.000000000000000000, -0.000000000000000000 ) ) ;
#58 = COLOUR_RGB ( '',1.000000000000000000, 0.000000000000000000, 0.000000000000000000 ) ;
#59 = APPLICATION_PROTOCOL_DEFINITION ( 'draft international standard', 'automotive_design', 1998, #35 ) ;
#60 = SURFACE_STYLE_USAGE ( .BOTH. , #13 ) ;
#61 =( LENGTH_UNIT ( ) NAMED_UNIT ( * ) SI_UNIT ( $, .METRE. ) );
#62 = EDGE_CURVE ( 'NONE', #282, #49, #266, .T. ) ;
#63 = PRESENTATION_LAYER_ASSIGNMENT (  '', '', ( #22 ) ) ;
#64 = CIRCLE ( 'NONE', #307, 0.2500000000000000000 ) ;
#65 = DIRECTION ( 'NONE',  ( 1.000000000000000000, 5.156407575357275916E-17, 0.000000000000000000 ) ) ;
#66 = CARTESIAN_POINT ( 'NONE',  ( 0.000000000000000000, 0.000000000000000000, 0.000000000000000000 ) ) ;
#67 = ADVANCED_FACE ( 'NONE', ( #104 ), #276, .F. ) ;
#68 = CARTESIAN_POINT ( 'NONE',  ( 0.000000000000000000, 1.625000000000000000, 0.000000000000000000 ) ) ;
#69 = DIRECTION ( 'NONE',  ( 0.000000000000000000, 0.000000000000000000, -1.000000000000000000 ) ) ;
#70 = ORIENTED_EDGE ( 'NONE', *, *, #87, .T. ) ;
#71 = STYLED_ITEM ( 'NONE', ( #108 ), #116 ) ;
#72 = EDGE_LOOP ( 'NONE', ( #216, #70, #96, #213 ) ) ;
#73 =( GEOMETRIC_REPRESENTATION_CONTEXT ( 3 ) GLOBAL_UNCERTAINTY_ASSIGNED_CONTEXT ( ( #262 ) ) GLOBAL_UNIT_ASSIGNED_CONTEXT ( ( #195, #246, #164 ) ) REPRESENTATION_CONTEXT ( 'NONE', 'WORKASPACE' ) );
#74 = ORIENTED_EDGE ( 'NONE', *, *, #259, .F. ) ;
#75 = CARTESIAN_POINT ( 'NONE',  ( 0.000000000000000000, 1.625000000000000000, 0.000000000000000000 ) ) ;
#76 = ORIENTED_EDGE ( 'NONE', *, *, #244, .F. ) ;
#77 = FILL_AREA_STYLE_COLOUR ( '', #175 ) ;
#78 =( GEOMETRIC_REPRESENTATION_CONTEXT ( 3 ) GLOBAL_UNCERTAINTY_ASSIGNED_CONTEXT ( ( #296 ) ) GLOBAL_UNIT_ASSIGNED_CONTEXT ( ( #275, #39, #148 ) ) REPRESENTATION_CONTEXT ( 'NONE', 'WORKASPACE' ) );
#79 =( CONVERSION_BASED_UNIT ( 'INCH', #252 ) LENGTH_UNIT ( ) NAMED_UNIT ( #242 ) );
#80 = DIRECTION ( 'NONE',  ( 0.000000000000000000, 0.000000000000000000, -1.000000000000000000 ) ) ;
#81 = APPLICATION_PROTOCOL_DEFINITION ( 'draft international standard', 'automotive_design', 1998, #223 ) ;
#82 =( LENGTH_UNIT ( ) NAMED_UNIT ( * ) SI_UNIT ( $, .METRE. ) );
#83 = CLOSED_SHELL ( 'NONE', ( #236, #135, #41, #25 ) ) ;
#84 = MECHANICAL_DESIGN_GEOMETRIC_PRESENTATION_REPRESENTATION (  '', ( #248 ), #241 ) ;
#85 = PRODUCT_DEFINITION_FORMATION_WITH_SPECIFIED_SOURCE ( 'ANY', '', #113, .NOT_KNOWN. ) ;
#86 = DIRECTION ( 'NONE',  ( 0.000000000000000000, 0.000000000000000000, 1.000000000000000000 ) ) ;
#87 = EDGE_CURVE ( 'NONE', #189, #163, #31, .T. ) ;
#88 = DIRECTION ( 'NONE',  ( 0.000000000000000000, -1.000000000000000000, -0.000000000000000000 ) ) ;
#89 = DIRECTION ( 'NONE',  ( -0.000000000000000000, -1.000000000000000000, -0.000000000000000000 ) ) ;
#90 = DIRECTION ( 'NONE',  ( -5.156407575357275299E-17, 1.000000000000000000, -0.000000000000000000 ) ) ;
#91 =( LENGTH_UNIT ( ) NAMED_UNIT ( * ) SI_UNIT ( $, .METRE. ) );
#92 =( NAMED_UNIT ( * ) SI_UNIT ( $, .STERADIAN. ) SOLID_ANGLE_UNIT ( ) );
#93 = LINE ( 'NONE', #302, #300 ) ;
#94 = SURFACE_STYLE_USAGE ( .BOTH. , #182 ) ;
#95 =( NAMED_UNIT ( * ) SI_UNIT ( $, .STERADIAN. ) SOLID_ANGLE_UNIT ( ) );
#96 = ORIENTED_EDGE ( 'NONE', *, *, #184, .T. ) ;
#97 = AXIS2_PLACEMENT_3D ( 'NONE', #100, #146, #3 ) ;
#98 = DIRECTION ( 'NONE',  ( -5.156407575357275299E-17, 1.000000000000000000, -0.000000000000000000 ) ) ;
#99 = CARTESIAN_POINT ( 'NONE',  ( 0.000000000000000000, 1.625000000000000000, 0.000000000000000000 ) ) ;
#100 = CARTESIAN_POINT ( 'NONE',  ( 3.032960542342103792E-32, 1.625000000000000000, 0.000000000000000000 ) ) ;
#101 = AXIS2_PLACEMENT_3D ( 'NONE', #75, #121, #46 ) ;
#102 = AXIS2_PLACEMENT_3D ( 'NONE', #228, #86, #37 ) ;
#103 = ORIENTED_EDGE ( 'NONE', *, *, #62, .F. ) ;
#104 = FACE_OUTER_BOUND ( 'NONE', #21, .T. ) ;
#105 = DIRECTION ( 'NONE',  ( -5.156407575357275916E-17, 1.000000000000000000, -0.000000000000000000 ) ) ;
#106 = CARTESIAN_POINT ( 'NONE',  ( 0.000000000000000000, 0.000000000000000000, -0.2500000000000000000 ) ) ;
#107 = STYLED_ITEM ( 'NONE', ( #273 ), #41 ) ;
#108 = PRESENTATION_STYLE_ASSIGNMENT (( #60 ) ) ;
#109 = DIRECTION ( 'NONE',  ( 0.000000000000000000, 0.000000000000000000, -1.000000000000000000 ) ) ;
#110 = EDGE_CURVE ( 'NONE', #163, #189, #64, .T. ) ;
#111 = DIRECTION ( 'NONE',  ( -0.000000000000000000, -1.000000000000000000, -0.000000000000000000 ) ) ;
#112 = AXIS2_PLACEMENT_3D ( 'NONE', #185, #111, #69 ) ;
#113 = PRODUCT ( '59911', '59911', '', ( #130 ) ) ;
#114 = SURFACE_STYLE_FILL_AREA ( #159 ) ;
#115 = LINE ( 'NONE', #212, #51 ) ;
#116 = MANIFOLD_SOLID_BREP ( 'Revolve - Tool Body (Straight Shanked)', #14 ) ;
#117 = DIMENSIONAL_EXPONENTS ( 1.000000000000000000, 0.000000000000000000, 0.000000000000000000, 0.000000000000000000, 0.000000000000000000, 0.000000000000000000, 0.000000000000000000 ) ;
#118 = ORIENTED_EDGE ( 'NONE', *, *, #184, .F. ) ;
#119 = VERTEX_POINT ( 'NONE', #8 ) ;
#120 = PRODUCT_DEFINITION_CONTEXT ( 'detailed design', #35, 'design' ) ;
#121 = DIRECTION ( 'NONE',  ( 0.000000000000000000, 1.000000000000000000, 0.000000000000000000 ) ) ;
#122 = ORIENTED_EDGE ( 'NONE', *, *, #1, .T. ) ;
#123 = MECHANICAL_DESIGN_GEOMETRIC_PRESENTATION_REPRESENTATION (  '', ( #219 ), #230 ) ;
#124 = CARTESIAN_POINT ( 'NONE',  ( 3.032960542342103792E-32, 1.625000000000000000, 0.000000000000000000 ) ) ;
#125 = FILL_AREA_STYLE ('',( #267 ) ) ;
#126 = ORIENTED_EDGE ( 'NONE', *, *, #233, .T. ) ;
#127 = CIRCLE ( 'NONE', #112, 0.2500000000000000000 ) ;
#128 =( CONVERSION_BASED_UNIT ( 'INCH', #15 ) LENGTH_UNIT ( ) NAMED_UNIT ( #197 ) );
#129 = FILL_AREA_STYLE ('',( #42 ) ) ;
#130 = PRODUCT_CONTEXT ( 'NONE', #223, 'mechanical' ) ;
#131 = SURFACE_STYLE_FILL_AREA ( #205 ) ;
#132 =( NAMED_UNIT ( * ) SI_UNIT ( $, .STERADIAN. ) SOLID_ANGLE_UNIT ( ) );
#133 = PRESENTATION_LAYER_ASSIGNMENT (  '', '', ( #107 ) ) ;
#134 = LENGTH_MEASURE_WITH_UNIT ( LENGTH_MEASURE( 0.02539999999999999897 ), #186 );
#135 = ADVANCED_FACE ( 'NONE', ( #152 ), #178, .T. ) ;
#136 =( LENGTH_UNIT ( ) NAMED_UNIT ( * ) SI_UNIT ( $, .METRE. ) );
#137 = DIRECTION ( 'NONE',  ( -1.000000000000000000, 0.000000000000000000, 0.000000000000000000 ) ) ;
#138 =( NAMED_UNIT ( * ) PLANE_ANGLE_UNIT ( ) SI_UNIT ( $, .RADIAN. ) );
#139 = ORIENTED_EDGE ( 'NONE', *, *, #211, .T. ) ;
#140 = DIRECTION ( 'NONE',  ( 0.000000000000000000, 0.000000000000000000, -1.000000000000000000 ) ) ;
#141 = SURFACE_SIDE_STYLE ('',( #160 ) ) ;
#142 =( GEOMETRIC_REPRESENTATION_CONTEXT ( 3 ) GLOBAL_UNCERTAINTY_ASSIGNED_CONTEXT ( ( #265 ) ) GLOBAL_UNIT_ASSIGNED_CONTEXT ( ( #288, #279, #95 ) ) REPRESENTATION_CONTEXT ( 'NONE', 'WORKASPACE' ) );
#143 = AXIS2_PLACEMENT_3D ( 'NONE', #68, #258, #140 ) ;
#144 = MECHANICAL_DESIGN_GEOMETRIC_PRESENTATION_REPRESENTATION (  '', ( #107 ), #73 ) ;
#145 = PRODUCT_DEFINITION_SHAPE ( 'NONE', 'NONE',  #268 ) ;
#146 = DIRECTION ( 'NONE',  ( -5.156407575357275299E-17, 1.000000000000000000, -0.000000000000000000 ) ) ;
#147 = DIRECTION ( 'NONE',  ( -1.000000000000000000, 0.000000000000000000, 0.000000000000000000 ) ) ;
#148 =( NAMED_UNIT ( * ) SI_UNIT ( $, .STERADIAN. ) SOLID_ANGLE_UNIT ( ) );
#149 =( NAMED_UNIT ( * ) SI_UNIT ( $, .STERADIAN. ) SOLID_ANGLE_UNIT ( ) );
#150 = COLOUR_RGB ( '',0.7921568627450980005, 0.8196078431372548767, 0.9333333333333333481 ) ;
#151 =( GEOMETRIC_REPRESENTATION_CONTEXT ( 3 ) GLOBAL_UNCERTAINTY_ASSIGNED_CONTEXT ( ( #280 ) ) GLOBAL_UNIT_ASSIGNED_CONTEXT ( ( #128, #179, #132 ) ) REPRESENTATION_CONTEXT ( 'NONE', 'WORKASPACE' ) );
#152 = FACE_OUTER_BOUND ( 'NONE', #209, .T. ) ;
#153 = CYLINDRICAL_SURFACE ( 'NONE', #225, 0.2500000000000000555 ) ;
#154 = CARTESIAN_POINT ( 'NONE',  ( 3.323567385400236968E-34, 1.625000000000000000, 0.000000000000000000 ) ) ;
#155 = DIRECTION ( 'NONE',  ( -0.000000000000000000, -1.000000000000000000, -0.000000000000000000 ) ) ;
#156 = DIRECTION ( 'NONE',  ( -1.000000000000000000, -5.156407575357275916E-17, 0.000000000000000000 ) ) ;
#157 = CARTESIAN_POINT ( 'NONE',  ( 3.061616997868383018E-17, 0.000000000000000000, 0.2500000000000000000 ) ) ;
#158 =( CONVERSION_BASED_UNIT ( 'INCH', #134 ) LENGTH_UNIT ( ) NAMED_UNIT ( #54 ) );
#159 = FILL_AREA_STYLE ('',( #254 ) ) ;
#160 = SURFACE_STYLE_FILL_AREA ( #232 ) ;
#161 = FACE_OUTER_BOUND ( 'NONE', #169, .T. ) ;
#162 = AXIS2_PLACEMENT_3D ( 'NONE', #66, #155, #109 ) ;
#163 = VERTEX_POINT ( 'NONE', #215 ) ;
#164 =( NAMED_UNIT ( * ) SI_UNIT ( $, .STERADIAN. ) SOLID_ANGLE_UNIT ( ) );
#165 = SURFACE_STYLE_USAGE ( .BOTH. , #247 ) ;
#166 = STYLED_ITEM ( 'NONE', ( #298 ), #236 ) ;
#167 = ORIENTED_EDGE ( 'NONE', *, *, #62, .T. ) ;
#168 = ADVANCED_FACE ( 'NONE', ( #306 ), #153, .T. ) ;
#169 = EDGE_LOOP ( 'NONE', ( #234, #28 ) ) ;
#170 = DIRECTION ( 'NONE',  ( -5.156407575357275916E-17, 1.000000000000000000, 0.000000000000000000 ) ) ;
#171 = PRESENTATION_LAYER_ASSIGNMENT (  '', '', ( #71 ) ) ;
#172 =( LENGTH_UNIT ( ) NAMED_UNIT ( * ) SI_UNIT ( $, .METRE. ) );
#173 =( NAMED_UNIT ( * ) PLANE_ANGLE_UNIT ( ) SI_UNIT ( $, .RADIAN. ) );
#174 = PRODUCT_RELATED_PRODUCT_CATEGORY ( 'part', '', ( #113 ) ) ;
#175 = COLOUR_RGB ( '',1.000000000000000000, 0.000000000000000000, 0.000000000000000000 ) ;
#176 = DIRECTION ( 'NONE',  ( 5.156407575357275916E-17, -1.000000000000000000, 0.000000000000000000 ) ) ;
#177 = DIRECTION ( 'NONE',  ( 0.000000000000000000, 0.000000000000000000, -1.000000000000000000 ) ) ;
#178 = PLANE ( 'NONE',  #101 ) ;
#179 =( NAMED_UNIT ( * ) PLANE_ANGLE_UNIT ( ) SI_UNIT ( $, .RADIAN. ) );
#180 = CARTESIAN_POINT ( 'NONE',  ( 0.000000000000000000, 0.000000000000000000, 0.000000000000000000 ) ) ;
#181 = CIRCLE ( 'NONE', #97, 0.2500000000000000000 ) ;
#182 = SURFACE_SIDE_STYLE ('',( #231 ) ) ;
#183 = PRESENTATION_STYLE_ASSIGNMENT (( #19 ) ) ;
#184 = EDGE_CURVE ( 'NONE', #163, #303, #115, .T. ) ;
#185 = CARTESIAN_POINT ( 'NONE',  ( 0.000000000000000000, 0.000000000000000000, 0.000000000000000000 ) ) ;
#186 =( LENGTH_UNIT ( ) NAMED_UNIT ( * ) SI_UNIT ( $, .METRE. ) );
#187 = DIMENSIONAL_EXPONENTS ( 1.000000000000000000, 0.000000000000000000, 0.000000000000000000, 0.000000000000000000, 0.000000000000000000, 0.000000000000000000, 0.000000000000000000 ) ;
#188 = LINE ( 'NONE', #18, #10 ) ;
#189 = VERTEX_POINT ( 'NONE', #20 ) ;
#190 = DIRECTION ( 'NONE',  ( -1.000000000000000000, 0.000000000000000000, 0.000000000000000000 ) ) ;
#191 = AXIS2_PLACEMENT_3D ( 'NONE', #274, #98, #218 ) ;
#192 = DIRECTION ( 'NONE',  ( -5.156407575357275299E-17, 1.000000000000000000, -0.000000000000000000 ) ) ;
#193 = ORIENTED_EDGE ( 'NONE', *, *, #38, .F. ) ;
#194 = SURFACE_SIDE_STYLE ('',( #264 ) ) ;
#195 =( CONVERSION_BASED_UNIT ( 'INCH', #243 ) LENGTH_UNIT ( ) NAMED_UNIT ( #117 ) );
#196 = ORIENTED_EDGE ( 'NONE', *, *, #259, .T. ) ;
#197 = DIMENSIONAL_EXPONENTS ( 1.000000000000000000, 0.000000000000000000, 0.000000000000000000, 0.000000000000000000, 0.000000000000000000, 0.000000000000000000, 0.000000000000000000 ) ;
#198 = MECHANICAL_DESIGN_GEOMETRIC_PRESENTATION_REPRESENTATION (  '', ( #22 ), #142 ) ;
#199 = LENGTH_MEASURE_WITH_UNIT ( LENGTH_MEASURE( 0.02539999999999999897 ), #2 );
#200 = AXIS2_PLACEMENT_3D ( 'NONE', #154, #170, #156 ) ;
#201 = DIRECTION ( 'NONE',  ( -5.156407575357275299E-17, 1.000000000000000000, -0.000000000000000000 ) ) ;
#202 = SURFACE_STYLE_FILL_AREA ( #125 ) ;
#203 = CARTESIAN_POINT ( 'NONE',  ( 0.2500000000000000000, 4.000000000000000000, 0.000000000000000000 ) ) ;
#204 = FACE_OUTER_BOUND ( 'NONE', #72, .T. ) ;
#205 = FILL_AREA_STYLE ('',( #44 ) ) ;
#206 = AXIS2_PLACEMENT_3D ( 'NONE', #208, #90, #190 ) ;
#207 = UNCERTAINTY_MEASURE_WITH_UNIT (LENGTH_MEASURE( 1.000000000000000082E-05 ), #43, 'distance_accuracy_value', 'NONE');
#208 = CARTESIAN_POINT ( 'NONE',  ( -1.224646799147352714E-16, 4.000000000000000000, 0.000000000000000000 ) ) ;
#209 = EDGE_LOOP ( 'NONE', ( #263, #239 ) ) ;
#210 = SURFACE_STYLE_USAGE ( .BOTH. , #301 ) ;
#211 = EDGE_CURVE ( 'NONE', #282, #55, #188, .T. ) ;
#212 = CARTESIAN_POINT ( 'NONE',  ( 0.000000000000000000, 0.000000000000000000, -0.2500000000000000000 ) ) ;
#213 = ORIENTED_EDGE ( 'NONE', *, *, #226, .F. ) ;
#214 = CARTESIAN_POINT ( 'NONE',  ( 0.2500000000000000555, 1.625000000000000000, 3.061616997868384251E-17 ) ) ;
#215 = CARTESIAN_POINT ( 'NONE',  ( 0.000000000000000000, 1.625000000000000000, -0.2500000000000000000 ) ) ;
#216 = ORIENTED_EDGE ( 'NONE', *, *, #233, .F. ) ;
#217 = DIRECTION ( 'NONE',  ( -0.000000000000000000, -1.000000000000000000, -0.000000000000000000 ) ) ;
#218 = DIRECTION ( 'NONE',  ( -1.000000000000000000, 0.000000000000000000, 0.000000000000000000 ) ) ;
#219 = STYLED_ITEM ( 'NONE', ( #183 ), #25 ) ;
#220 = VECTOR ( 'NONE', #105, 39.37007874015748143 ) ;
#221 =( GEOMETRIC_REPRESENTATION_CONTEXT ( 3 ) GLOBAL_UNCERTAINTY_ASSIGNED_CONTEXT ( ( #56 ) ) GLOBAL_UNIT_ASSIGNED_CONTEXT ( ( #79, #173, #149 ) ) REPRESENTATION_CONTEXT ( 'NONE', 'WORKASPACE' ) );
#222 = CARTESIAN_POINT ( 'NONE',  ( -0.2500000000000000000, 1.625000000000000000, 0.000000000000000000 ) ) ;
#223 = APPLICATION_CONTEXT ( 'automotive_design' ) ;
#224 = CARTESIAN_POINT ( 'NONE',  ( -0.2500000000000002220, 4.000000000000000000, 0.000000000000000000 ) ) ;
#225 = AXIS2_PLACEMENT_3D ( 'NONE', #251, #192, #137 ) ;
#226 = EDGE_CURVE ( 'NONE', #271, #303, #127, .T. ) ;
#227 = LENGTH_MEASURE_WITH_UNIT ( LENGTH_MEASURE( 0.02539999999999999897 ), #136 );
#228 = CARTESIAN_POINT ( 'NONE',  ( 0.000000000000000000, 0.000000000000000000, 0.000000000000000000 ) ) ;
#229 = DIRECTION ( 'NONE',  ( 0.000000000000000000, 0.000000000000000000, -1.000000000000000000 ) ) ;
#230 =( GEOMETRIC_REPRESENTATION_CONTEXT ( 3 ) GLOBAL_UNCERTAINTY_ASSIGNED_CONTEXT ( ( #207 ) ) GLOBAL_UNIT_ASSIGNED_CONTEXT ( ( #43, #16, #92 ) ) REPRESENTATION_CONTEXT ( 'NONE', 'WORKASPACE' ) );
#231 = SURFACE_STYLE_FILL_AREA ( #129 ) ;
#232 = FILL_AREA_STYLE ('',( #240 ) ) ;
#233 = EDGE_CURVE ( 'NONE', #189, #271, #93, .T. ) ;
#234 = ORIENTED_EDGE ( 'NONE', *, *, #244, .T. ) ;
#235 = COLOUR_RGB ( '',1.000000000000000000, 0.000000000000000000, 0.000000000000000000 ) ;
#236 = ADVANCED_FACE ( 'NONE', ( #17 ), #297, .T. ) ;
#237 = FILL_AREA_STYLE ('',( #77 ) ) ;
#238 = EDGE_LOOP ( 'NONE', ( #304, #139, #257, #193 ) ) ;
#239 = ORIENTED_EDGE ( 'NONE', *, *, #87, .F. ) ;
#240 = FILL_AREA_STYLE_COLOUR ( '', #58 ) ;
#241 =( GEOMETRIC_REPRESENTATION_CONTEXT ( 3 ) GLOBAL_UNCERTAINTY_ASSIGNED_CONTEXT ( ( #26 ) ) GLOBAL_UNIT_ASSIGNED_CONTEXT ( ( #158, #138, #5 ) ) REPRESENTATION_CONTEXT ( 'NONE', 'WORKASPACE' ) );
#242 = DIMENSIONAL_EXPONENTS ( 1.000000000000000000, 0.000000000000000000, 0.000000000000000000, 0.000000000000000000, 0.000000000000000000, 0.000000000000000000, 0.000000000000000000 ) ;
#243 = LENGTH_MEASURE_WITH_UNIT ( LENGTH_MEASURE( 0.02539999999999999897 ), #172 );
#244 = EDGE_CURVE ( 'NONE', #303, #271, #24, .T. ) ;
#245 = EDGE_LOOP ( 'NONE', ( #32, #167, #29, #74 ) ) ;
#246 =( NAMED_UNIT ( * ) PLANE_ANGLE_UNIT ( ) SI_UNIT ( $, .RADIAN. ) );
#247 = SURFACE_SIDE_STYLE ('',( #202 ) ) ;
#248 = STYLED_ITEM ( 'NONE', ( #27 ), #135 ) ;
#249 = PLANE ( 'NONE',  #308 ) ;
#250 = AXIS2_PLACEMENT_3D ( 'NONE', #11, #88, #177 ) ;
#251 = CARTESIAN_POINT ( 'NONE',  ( -1.224646799147352714E-16, 4.000000000000000000, 0.000000000000000000 ) ) ;
#252 = LENGTH_MEASURE_WITH_UNIT ( LENGTH_MEASURE( 0.02539999999999999897 ), #82 );
#253 = LENGTH_MEASURE_WITH_UNIT ( LENGTH_MEASURE( 0.02539999999999999897 ), #61 );
#254 = FILL_AREA_STYLE_COLOUR ( '', #235 ) ;
#255 = PRESENTATION_LAYER_ASSIGNMENT (  '', '', ( #248 ) ) ;
#256 = DIRECTION ( 'NONE',  ( -0.000000000000000000, -1.000000000000000000, -0.000000000000000000 ) ) ;
#257 = ORIENTED_EDGE ( 'NONE', *, *, #1, .F. ) ;
#258 = DIRECTION ( 'NONE',  ( -0.000000000000000000, -1.000000000000000000, -0.000000000000000000 ) ) ;
#259 = EDGE_CURVE ( 'NONE', #55, #119, #33, .T. ) ;
#260 = PRESENTATION_LAYER_ASSIGNMENT (  '', '', ( #219 ) ) ;
#261 = AXIS2_PLACEMENT_3D ( 'NONE', #269, #278, #229 ) ;
#262 = UNCERTAINTY_MEASURE_WITH_UNIT (LENGTH_MEASURE( 1.000000000000000082E-05 ), #195, 'distance_accuracy_value', 'NONE');
#263 = ORIENTED_EDGE ( 'NONE', *, *, #110, .F. ) ;
#264 = SURFACE_STYLE_FILL_AREA ( #237 ) ;
#265 = UNCERTAINTY_MEASURE_WITH_UNIT (LENGTH_MEASURE( 1.000000000000000082E-05 ), #288, 'distance_accuracy_value', 'NONE');
#266 = CIRCLE ( 'NONE', #272, 0.2500000000000000000 ) ;
#267 = FILL_AREA_STYLE_COLOUR ( '', #150 ) ;
#268 = PRODUCT_DEFINITION ( 'UNKNOWN', '', #85, #120 ) ;
#269 = CARTESIAN_POINT ( 'NONE',  ( 0.000000000000000000, 0.000000000000000000, 0.000000000000000000 ) ) ;
#270 = CARTESIAN_POINT ( 'NONE',  ( -1.224646799147352714E-16, 4.000000000000000000, 0.000000000000000000 ) ) ;
#271 = VERTEX_POINT ( 'NONE', #157 ) ;
#272 = AXIS2_PLACEMENT_3D ( 'NONE', #124, #201, #292 ) ;
#273 = PRESENTATION_STYLE_ASSIGNMENT (( #23 ) ) ;
#274 = CARTESIAN_POINT ( 'NONE',  ( -1.224646799147352714E-16, 4.000000000000000000, 0.000000000000000000 ) ) ;
#275 =( CONVERSION_BASED_UNIT ( 'INCH', #253 ) LENGTH_UNIT ( ) NAMED_UNIT ( #48 ) );
#276 = PLANE ( 'NONE',  #200 ) ;
#277 = LINE ( 'NONE', #224, #220 ) ;
#278 = DIRECTION ( 'NONE',  ( -0.000000000000000000, -1.000000000000000000, -0.000000000000000000 ) ) ;
#279 =( NAMED_UNIT ( * ) PLANE_ANGLE_UNIT ( ) SI_UNIT ( $, .RADIAN. ) );
#280 = UNCERTAINTY_MEASURE_WITH_UNIT (LENGTH_MEASURE( 1.000000000000000082E-05 ), #128, 'distance_accuracy_value', 'NONE');
#281 = DIRECTION ( 'NONE',  ( -5.156407575357275916E-17, 1.000000000000000000, -0.000000000000000000 ) ) ;
#282 = VERTEX_POINT ( 'NONE', #214 ) ;
#283 = FACE_OUTER_BOUND ( 'NONE', #286, .T. ) ;
#284 = AXIS2_PLACEMENT_3D ( 'NONE', #180, #217, #53 ) ;
#285 = DIRECTION ( 'NONE',  ( -0.000000000000000000, -1.000000000000000000, -0.000000000000000000 ) ) ;
#286 = EDGE_LOOP ( 'NONE', ( #122, #196 ) ) ;
#287 = AXIS2_PLACEMENT_3D ( 'NONE', #270, #57, #147 ) ;
#288 =( CONVERSION_BASED_UNIT ( 'INCH', #199 ) LENGTH_UNIT ( ) NAMED_UNIT ( #30 ) );
#289 = ADVANCED_FACE ( 'NONE', ( #283 ), #249, .F. ) ;
#290 = ADVANCED_BREP_SHAPE_REPRESENTATION ( '59911', ( #12, #116, #102 ), #221 ) ;
#291 = EDGE_LOOP ( 'NONE', ( #9, #126, #76, #118 ) ) ;
#292 = DIRECTION ( 'NONE',  ( -1.000000000000000000, 0.000000000000000000, 0.000000000000000000 ) ) ;
#293 = COLOUR_RGB ( '',1.000000000000000000, 0.000000000000000000, 0.000000000000000000 ) ;
#294 = CYLINDRICAL_SURFACE ( 'NONE', #191, 0.2500000000000000555 ) ;
#295 = COLOUR_RGB ( '',0.7921568627450980005, 0.8196078431372548767, 0.9333333333333333481 ) ;
#296 = UNCERTAINTY_MEASURE_WITH_UNIT (LENGTH_MEASURE( 1.000000000000000082E-05 ), #275, 'distance_accuracy_value', 'NONE');
#297 = CYLINDRICAL_SURFACE ( 'NONE', #261, 0.2500000000000000000 ) ;
#298 = PRESENTATION_STYLE_ASSIGNMENT (( #210 ) ) ;
#299 = CIRCLE ( 'NONE', #287, 0.2500000000000001110 ) ;
#300 = VECTOR ( 'NONE', #256, 39.37007874015748143 ) ;
#301 = SURFACE_SIDE_STYLE ('',( #114 ) ) ;
#302 = CARTESIAN_POINT ( 'NONE',  ( 3.061616997868383018E-17, 0.000000000000000000, 0.2500000000000000000 ) ) ;
#303 = VERTEX_POINT ( 'NONE', #106 ) ;
#304 = ORIENTED_EDGE ( 'NONE', *, *, #52, .T. ) ;
#305 = CYLINDRICAL_SURFACE ( 'NONE', #284, 0.2500000000000000000 ) ;
#306 = FACE_OUTER_BOUND ( 'NONE', #238, .T. ) ;
#307 = AXIS2_PLACEMENT_3D ( 'NONE', #99, #89, #80 ) ;
#308 = AXIS2_PLACEMENT_3D ( 'NONE', #203, #176, #65 ) ;
#309 = PLANE ( 'NONE',  #250 ) ;
ENDSEC;
END-ISO-10303-21;
