ISO-10303-21;
HEADER;
FILE_DESCRIPTION (( 'STEP AP214' ),
    '1' );
FILE_NAME ('84095.STEP',
    '2023-06-23T12:00:55',
    ( '' ),
    ( '' ),
    'SwSTEP 2.0',
    'SolidWorks 2023',
    '' );
FILE_SCHEMA (( 'AUTOMOTIVE_DESIGN' ));
ENDSEC;

DATA;
#1 = DIRECTION ( 'NONE',  ( -0.000000000000000000, -1.000000000000000000, -0.000000000000000000 ) ) ;
#2 = EDGE_LOOP ( 'NONE', ( #197, #276, #54, #29 ) ) ;
#3 = LINE ( 'NONE', #112, #83 ) ;
#4 = ORIENTED_EDGE ( 'NONE', *, *, #221, .T. ) ;
#5 = APPLICATION_CONTEXT ( 'automotive_design' ) ;
#6 = FACE_OUTER_BOUND ( 'NONE', #247, .T. ) ;
#7 = CARTESIAN_POINT ( 'NONE',  ( 0.09375000000000001388, 0.4374999999999998890, 1.339457436567417686E-17 ) ) ;
#8 = DIMENSIONAL_EXPONENTS ( 1.000000000000000000, 0.000000000000000000, 0.000000000000000000, 0.000000000000000000, 0.000000000000000000, 0.000000000000000000, 0.000000000000000000 ) ;
#9 =( NAMED_UNIT ( * ) PLANE_ANGLE_UNIT ( ) SI_UNIT ( $, .RADIAN. ) );
#10 =( GEOMETRIC_REPRESENTATION_CONTEXT ( 3 ) GLOBAL_UNCERTAINTY_ASSIGNED_CONTEXT ( ( #206 ) ) GLOBAL_UNIT_ASSIGNED_CONTEXT ( ( #41, #9, #233 ) ) REPRESENTATION_CONTEXT ( 'NONE', 'WORKASPACE' ) );
#11 = COLOUR_RGB ( '',1.000000000000000000, 0.000000000000000000, 0.000000000000000000 ) ;
#12 =( CONVERSION_BASED_UNIT ( 'INCH', #122 ) LENGTH_UNIT ( ) NAMED_UNIT ( #311 ) );
#13 = CARTESIAN_POINT ( 'NONE',  ( 4.131569649206219968E-35, 0.4375000000000000000, 0.000000000000000000 ) ) ;
#14 =( NAMED_UNIT ( * ) PLANE_ANGLE_UNIT ( ) SI_UNIT ( $, .RADIAN. ) );
#15 = DIRECTION ( 'NONE',  ( 0.000000000000000000, 0.000000000000000000, -1.000000000000000000 ) ) ;
#16 = UNCERTAINTY_MEASURE_WITH_UNIT (LENGTH_MEASURE( 1.000000000000000082E-05 ), #337, 'distance_accuracy_value', 'NONE');
#17 = LENGTH_MEASURE_WITH_UNIT ( LENGTH_MEASURE( 0.02539999999999999897 ), #272 );
#18 = DIRECTION ( 'NONE',  ( 0.000000000000000000, -0.000000000000000000, 1.000000000000000000 ) ) ;
#19 = CARTESIAN_POINT ( 'NONE',  ( -0.09375000000000001388, 0.4374999999999998890, 0.000000000000000000 ) ) ;
#20 = SURFACE_SIDE_STYLE ('',( #271 ) ) ;
#21 = ORIENTED_EDGE ( 'NONE', *, *, #268, .T. ) ;
#22 = CONICAL_SURFACE ( 'NONE', #74, 0.09375000000000001388, 0.2617993877991498519 ) ;
#23 = CYLINDRICAL_SURFACE ( 'NONE', #62, 0.1250000000000000278 ) ;
#24 = ORIENTED_EDGE ( 'NONE', *, *, #72, .F. ) ;
#25 = EDGE_CURVE ( 'NONE', #253, #165, #323, .T. ) ;
#26 = CARTESIAN_POINT ( 'NONE',  ( 0.000000000000000000, 0.000000000000000000, 0.000000000000000000 ) ) ;
#27 = CARTESIAN_POINT ( 'NONE',  ( 7.582401355855259480E-33, 0.4374999999999998890, 0.000000000000000000 ) ) ;
#28 = VERTEX_POINT ( 'NONE', #116 ) ;
#29 = ORIENTED_EDGE ( 'NONE', *, *, #221, .F. ) ;
#30 = UNCERTAINTY_MEASURE_WITH_UNIT (LENGTH_MEASURE( 1.000000000000000082E-05 ), #71, 'distance_accuracy_value', 'NONE');
#31 = DIRECTION ( 'NONE',  ( -0.000000000000000000, -1.000000000000000000, -0.000000000000000000 ) ) ;
#32 = LENGTH_MEASURE_WITH_UNIT ( LENGTH_MEASURE( 0.02539999999999999897 ), #355 );
#33 = DIRECTION ( 'NONE',  ( -1.000000000000000000, 0.000000000000000000, 0.000000000000000000 ) ) ;
#34 = DIRECTION ( 'NONE',  ( 0.000000000000000000, 0.000000000000000000, -1.000000000000000000 ) ) ;
#35 = CIRCLE ( 'NONE', #177, 0.1250000000000000278 ) ;
#36 = DIRECTION ( 'NONE',  ( 0.000000000000000000, 0.000000000000000000, -1.000000000000000000 ) ) ;
#37 = EDGE_CURVE ( 'NONE', #225, #227, #35, .T. ) ;
#38 = CARTESIAN_POINT ( 'NONE',  ( 0.000000000000000000, 0.000000000000000000, 0.000000000000000000 ) ) ;
#39 = CARTESIAN_POINT ( 'NONE',  ( 0.000000000000000000, 0.4375000000000000000, 0.000000000000000000 ) ) ;
#40 = DIMENSIONAL_EXPONENTS ( 1.000000000000000000, 0.000000000000000000, 0.000000000000000000, 0.000000000000000000, 0.000000000000000000, 0.000000000000000000, 0.000000000000000000 ) ;
#41 =( CONVERSION_BASED_UNIT ( 'INCH', #212 ) LENGTH_UNIT ( ) NAMED_UNIT ( #148 ) );
#42 = COLOUR_RGB ( '',1.000000000000000000, 0.000000000000000000, 0.000000000000000000 ) ;
#43 = ADVANCED_FACE ( 'NONE', ( #64 ), #22, .T. ) ;
#44 = MECHANICAL_DESIGN_GEOMETRIC_PRESENTATION_REPRESENTATION (  '', ( #79 ), #75 ) ;
#45 = CARTESIAN_POINT ( 'NONE',  ( -0.1250000000000001388, 2.500000000000000000, 0.000000000000000000 ) ) ;
#46 = MANIFOLD_SOLID_BREP ( 'Revolve - Cutting Edge', #273 ) ;
#47 = DIMENSIONAL_EXPONENTS ( 1.000000000000000000, 0.000000000000000000, 0.000000000000000000, 0.000000000000000000, 0.000000000000000000, 0.000000000000000000, 0.000000000000000000 ) ;
#48 = APPLICATION_CONTEXT ( 'automotive_design' ) ;
#49 = AXIS2_PLACEMENT_3D ( 'NONE', #129, #134, #239 ) ;
#50 = AXIS2_PLACEMENT_3D ( 'NONE', #200, #324, #248 ) ;
#51 = CARTESIAN_POINT ( 'NONE',  ( -6.123233995736766036E-17, 2.500000000000000000, 0.000000000000000000 ) ) ;
#52 = VERTEX_POINT ( 'NONE', #124 ) ;
#53 = DIRECTION ( 'NONE',  ( -0.2588190451025211836, 0.9659258262890679791, 0.000000000000000000 ) ) ;
#54 = ORIENTED_EDGE ( 'NONE', *, *, #37, .F. ) ;
#55 = DIRECTION ( 'NONE',  ( -1.000000000000000000, 0.000000000000000000, 0.000000000000000000 ) ) ;
#56 = AXIS2_PLACEMENT_3D ( 'NONE', #262, #341, #36 ) ;
#57 = AXIS2_PLACEMENT_3D ( 'NONE', #38, #126, #265 ) ;
#58 = DIRECTION ( 'NONE',  ( -2.968840725205704707E-17, 1.000000000000000000, -0.000000000000000000 ) ) ;
#59 = FACE_OUTER_BOUND ( 'NONE', #117, .T. ) ;
#60 = SURFACE_SIDE_STYLE ('',( #194 ) ) ;
#61 = SURFACE_STYLE_FILL_AREA ( #146 ) ;
#62 = AXIS2_PLACEMENT_3D ( 'NONE', #51, #160, #270 ) ;
#63 = FILL_AREA_STYLE_COLOUR ( '', #279 ) ;
#64 = FACE_OUTER_BOUND ( 'NONE', #2, .T. ) ;
#65 = UNCERTAINTY_MEASURE_WITH_UNIT (LENGTH_MEASURE( 1.000000000000000082E-05 ), #226, 'distance_accuracy_value', 'NONE');
#66 = CARTESIAN_POINT ( 'NONE',  ( 7.582401355855259480E-33, 0.4374999999999998890, 0.000000000000000000 ) ) ;
#67 = DIRECTION ( 'NONE',  ( -2.968840725205704707E-17, 1.000000000000000000, -0.000000000000000000 ) ) ;
#68 = EDGE_LOOP ( 'NONE', ( #224, #219, #321, #192 ) ) ;
#69 =( NAMED_UNIT ( * ) SI_UNIT ( $, .STERADIAN. ) SOLID_ANGLE_UNIT ( ) );
#70 = PRESENTATION_LAYER_ASSIGNMENT (  '', '', ( #105 ) ) ;
#71 =( CONVERSION_BASED_UNIT ( 'INCH', #155 ) LENGTH_UNIT ( ) NAMED_UNIT ( #40 ) );
#72 = EDGE_CURVE ( 'NONE', #28, #52, #353, .T. ) ;
#73 =( NAMED_UNIT ( * ) PLANE_ANGLE_UNIT ( ) SI_UNIT ( $, .RADIAN. ) );
#74 = AXIS2_PLACEMENT_3D ( 'NONE', #27, #67, #33 ) ;
#75 =( GEOMETRIC_REPRESENTATION_CONTEXT ( 3 ) GLOBAL_UNCERTAINTY_ASSIGNED_CONTEXT ( ( #65 ) ) GLOBAL_UNIT_ASSIGNED_CONTEXT ( ( #226, #143, #86 ) ) REPRESENTATION_CONTEXT ( 'NONE', 'WORKASPACE' ) );
#76 = SURFACE_STYLE_FILL_AREA ( #294 ) ;
#77 = DIRECTION ( 'NONE',  ( -2.968840725205704707E-17, 1.000000000000000000, -0.000000000000000000 ) ) ;
#78 = PLANE ( 'NONE',  #90 ) ;
#79 = STYLED_ITEM ( 'NONE', ( #297 ), #313 ) ;
#80 = FILL_AREA_STYLE_COLOUR ( '', #339 ) ;
#81 = FACE_OUTER_BOUND ( 'NONE', #331, .T. ) ;
#82 = COLOUR_RGB ( '',1.000000000000000000, 0.000000000000000000, 0.000000000000000000 ) ;
#83 = VECTOR ( 'NONE', #31, 39.37007874015748143 ) ;
#84 =( CONVERSION_BASED_UNIT ( 'INCH', #172 ) LENGTH_UNIT ( ) NAMED_UNIT ( #47 ) );
#85 = ORIENTED_EDGE ( 'NONE', *, *, #107, .F. ) ;
#86 =( NAMED_UNIT ( * ) SI_UNIT ( $, .STERADIAN. ) SOLID_ANGLE_UNIT ( ) );
#87 = ORIENTED_EDGE ( 'NONE', *, *, #101, .F. ) ;
#88 = EDGE_CURVE ( 'NONE', #225, #94, #343, .T. ) ;
#89 = DIRECTION ( 'NONE',  ( -2.968840725205704707E-17, 1.000000000000000000, -0.000000000000000000 ) ) ;
#90 = AXIS2_PLACEMENT_3D ( 'NONE', #108, #237, #18 ) ;
#91 = CIRCLE ( 'NONE', #251, 0.09375000000000001388 ) ;
#92 = ORIENTED_EDGE ( 'NONE', *, *, #88, .F. ) ;
#93 = SHAPE_DEFINITION_REPRESENTATION ( #121, #159 ) ;
#94 = VERTEX_POINT ( 'NONE', #45 ) ;
#95 = EDGE_CURVE ( 'NONE', #186, #52, #118, .T. ) ;
#96 = DIRECTION ( 'NONE',  ( 0.000000000000000000, 0.000000000000000000, -1.000000000000000000 ) ) ;
#97 =( LENGTH_UNIT ( ) NAMED_UNIT ( * ) SI_UNIT ( $, .METRE. ) );
#98 = AXIS2_PLACEMENT_3D ( 'NONE', #13, #235, #128 ) ;
#99 = STYLED_ITEM ( 'NONE', ( #207 ), #356 ) ;
#100 = CARTESIAN_POINT ( 'NONE',  ( 0.000000000000000000, 0.4375000000000000000, -0.09375000000000001388 ) ) ;
#101 = EDGE_CURVE ( 'NONE', #170, #28, #149, .T. ) ;
#102 =( NAMED_UNIT ( * ) PLANE_ANGLE_UNIT ( ) SI_UNIT ( $, .RADIAN. ) );
#103 = SURFACE_STYLE_FILL_AREA ( #340 ) ;
#104 = CARTESIAN_POINT ( 'NONE',  ( -0.1250000000000001110, 2.500000000000000000, 0.000000000000000000 ) ) ;
#105 = STYLED_ITEM ( 'NONE', ( #302 ), #46 ) ;
#106 = CARTESIAN_POINT ( 'NONE',  ( 0.1249999999999999584, 2.500000000000000000, 1.530808498934191817E-17 ) ) ;
#107 = EDGE_CURVE ( 'NONE', #165, #227, #154, .T. ) ;
#108 = CARTESIAN_POINT ( 'NONE',  ( 0.000000000000000000, 0.4375000000000000000, 0.000000000000000000 ) ) ;
#109 = STYLED_ITEM ( 'NONE', ( #218 ), #282 ) ;
#110 = FACE_OUTER_BOUND ( 'NONE', #275, .T. ) ;
#111 = CARTESIAN_POINT ( 'NONE',  ( 0.1250000000000000278, 2.500000000000000000, 1.530808498934192125E-17 ) ) ;
#112 = CARTESIAN_POINT ( 'NONE',  ( 0.000000000000000000, 0.000000000000000000, -0.09375000000000001388 ) ) ;
#113 = ORIENTED_EDGE ( 'NONE', *, *, #95, .T. ) ;
#114 = MECHANICAL_DESIGN_GEOMETRIC_PRESENTATION_REPRESENTATION (  '', ( #105 ), #349 ) ;
#115 = ORIENTED_EDGE ( 'NONE', *, *, #329, .F. ) ;
#116 = CARTESIAN_POINT ( 'NONE',  ( 1.148106374200643863E-17, 0.4375000000000000000, 0.09375000000000001388 ) ) ;
#117 = EDGE_LOOP ( 'NONE', ( #202, #139, #307, #257 ) ) ;
#118 = CIRCLE ( 'NONE', #56, 0.09375000000000001388 ) ;
#119 = FILL_AREA_STYLE ('',( #63 ) ) ;
#120 = EDGE_LOOP ( 'NONE', ( #166, #359 ) ) ;
#121 = PRODUCT_DEFINITION_SHAPE ( 'NONE', 'NONE',  #301 ) ;
#122 = LENGTH_MEASURE_WITH_UNIT ( LENGTH_MEASURE( 0.02539999999999999897 ), #97 );
#123 = DIRECTION ( 'NONE',  ( -0.000000000000000000, -1.000000000000000000, -0.000000000000000000 ) ) ;
#124 = CARTESIAN_POINT ( 'NONE',  ( 1.148106374200643863E-17, 0.000000000000000000, 0.09375000000000001388 ) ) ;
#125 = AXIS2_PLACEMENT_3D ( 'NONE', #208, #150, #34 ) ;
#126 = DIRECTION ( 'NONE',  ( 0.000000000000000000, 0.000000000000000000, 1.000000000000000000 ) ) ;
#127 = DIRECTION ( 'NONE',  ( -0.000000000000000000, -1.000000000000000000, -0.000000000000000000 ) ) ;
#128 = DIRECTION ( 'NONE',  ( -1.000000000000000000, -2.968840725205704707E-17, 0.000000000000000000 ) ) ;
#129 = CARTESIAN_POINT ( 'NONE',  ( 0.1250000000000000000, 2.500000000000000000, 0.000000000000000000 ) ) ;
#130 = MECHANICAL_DESIGN_GEOMETRIC_PRESENTATION_REPRESENTATION (  '', ( #232 ), #10 ) ;
#131 = LINE ( 'NONE', #350, #296 ) ;
#132 = ORIENTED_EDGE ( 'NONE', *, *, #169, .F. ) ;
#133 = VECTOR ( 'NONE', #266, 39.37007874015748143 ) ;
#134 = DIRECTION ( 'NONE',  ( 2.968840725205704707E-17, -1.000000000000000000, 0.000000000000000000 ) ) ;
#135 = FACE_OUTER_BOUND ( 'NONE', #68, .T. ) ;
#136 = DIRECTION ( 'NONE',  ( -2.968840725205704707E-17, 1.000000000000000000, -0.000000000000000000 ) ) ;
#137 = DIRECTION ( 'NONE',  ( 0.000000000000000000, 0.000000000000000000, -1.000000000000000000 ) ) ;
#138 = PRODUCT_RELATED_PRODUCT_CATEGORY ( 'part', '', ( #199 ) ) ;
#139 = ORIENTED_EDGE ( 'NONE', *, *, #72, .T. ) ;
#140 = VECTOR ( 'NONE', #286, 39.37007874015748143 ) ;
#141 = CYLINDRICAL_SURFACE ( 'NONE', #50, 0.1250000000000000278 ) ;
#142 = ORIENTED_EDGE ( 'NONE', *, *, #25, .F. ) ;
#143 =( NAMED_UNIT ( * ) PLANE_ANGLE_UNIT ( ) SI_UNIT ( $, .RADIAN. ) );
#144 = SURFACE_SIDE_STYLE ('',( #61 ) ) ;
#145 = FACE_OUTER_BOUND ( 'NONE', #300, .T. ) ;
#146 = FILL_AREA_STYLE ('',( #222 ) ) ;
#147 = AXIS2_PLACEMENT_3D ( 'NONE', #290, #123, #338 ) ;
#148 = DIMENSIONAL_EXPONENTS ( 1.000000000000000000, 0.000000000000000000, 0.000000000000000000, 0.000000000000000000, 0.000000000000000000, 0.000000000000000000, 0.000000000000000000 ) ;
#149 = CIRCLE ( 'NONE', #258, 0.09375000000000001388 ) ;
#150 = DIRECTION ( 'NONE',  ( 0.000000000000000000, -1.000000000000000000, -0.000000000000000000 ) ) ;
#151 =( GEOMETRIC_REPRESENTATION_CONTEXT ( 3 ) GLOBAL_UNCERTAINTY_ASSIGNED_CONTEXT ( ( #210 ) ) GLOBAL_UNIT_ASSIGNED_CONTEXT ( ( #84, #303, #191 ) ) REPRESENTATION_CONTEXT ( 'NONE', 'WORKASPACE' ) );
#152 = FACE_OUTER_BOUND ( 'NONE', #195, .T. ) ;
#153 = APPLICATION_PROTOCOL_DEFINITION ( 'draft international standard', 'automotive_design', 1998, #5 ) ;
#154 = LINE ( 'NONE', #260, #133 ) ;
#155 = LENGTH_MEASURE_WITH_UNIT ( LENGTH_MEASURE( 0.02539999999999999897 ), #289 );
#156 = UNCERTAINTY_MEASURE_WITH_UNIT (LENGTH_MEASURE( 1.000000000000000082E-05 ), #185, 'distance_accuracy_value', 'NONE');
#157 = MECHANICAL_DESIGN_GEOMETRIC_PRESENTATION_REPRESENTATION (  '', ( #109 ), #151 ) ;
#158 = CARTESIAN_POINT ( 'NONE',  ( 1.148106374200643863E-17, 0.000000000000000000, 0.09375000000000001388 ) ) ;
#159 = ADVANCED_BREP_SHAPE_REPRESENTATION ( '84095', ( #46, #282, #57 ), #335 ) ;
#160 = DIRECTION ( 'NONE',  ( -2.968840725205704707E-17, 1.000000000000000000, -0.000000000000000000 ) ) ;
#161 =( NAMED_UNIT ( * ) PLANE_ANGLE_UNIT ( ) SI_UNIT ( $, .RADIAN. ) );
#162 = VECTOR ( 'NONE', #179, 39.37007874015748143 ) ;
#163 = CARTESIAN_POINT ( 'NONE',  ( -6.123233995736766036E-17, 2.500000000000000000, 0.000000000000000000 ) ) ;
#164 = PLANE ( 'NONE',  #49 ) ;
#165 = VERTEX_POINT ( 'NONE', #7 ) ;
#166 = ORIENTED_EDGE ( 'NONE', *, *, #283, .T. ) ;
#167 = ADVANCED_FACE ( 'NONE', ( #6 ), #231, .F. ) ;
#168 =( LENGTH_UNIT ( ) NAMED_UNIT ( * ) SI_UNIT ( $, .METRE. ) );
#169 = EDGE_CURVE ( 'NONE', #52, #186, #198, .T. ) ;
#170 = VERTEX_POINT ( 'NONE', #100 ) ;
#171 = CLOSED_SHELL ( 'NONE', ( #244, #43, #167, #295, #332, #261 ) ) ;
#172 = LENGTH_MEASURE_WITH_UNIT ( LENGTH_MEASURE( 0.02539999999999999897 ), #168 );
#173 = DIRECTION ( 'NONE',  ( -1.000000000000000000, 0.000000000000000000, 0.000000000000000000 ) ) ;
#174 = UNCERTAINTY_MEASURE_WITH_UNIT (LENGTH_MEASURE( 1.000000000000000082E-05 ), #12, 'distance_accuracy_value', 'NONE');
#175 = DIMENSIONAL_EXPONENTS ( 1.000000000000000000, 0.000000000000000000, 0.000000000000000000, 0.000000000000000000, 0.000000000000000000, 0.000000000000000000, 0.000000000000000000 ) ;
#176 = SURFACE_SIDE_STYLE ('',( #103 ) ) ;
#177 = AXIS2_PLACEMENT_3D ( 'NONE', #309, #89, #173 ) ;
#178 =( NAMED_UNIT ( * ) SI_UNIT ( $, .STERADIAN. ) SOLID_ANGLE_UNIT ( ) );
#179 = DIRECTION ( 'NONE',  ( -0.000000000000000000, -1.000000000000000000, -0.000000000000000000 ) ) ;
#180 = CYLINDRICAL_SURFACE ( 'NONE', #182, 0.09375000000000001388 ) ;
#181 = SURFACE_STYLE_USAGE ( .BOTH. , #336 ) ;
#182 = AXIS2_PLACEMENT_3D ( 'NONE', #264, #127, #15 ) ;
#183 = ADVANCED_FACE ( 'NONE', ( #152 ), #180, .T. ) ;
#184 = PRESENTATION_STYLE_ASSIGNMENT (( #351 ) ) ;
#185 =( CONVERSION_BASED_UNIT ( 'INCH', #17 ) LENGTH_UNIT ( ) NAMED_UNIT ( #8 ) );
#186 = VERTEX_POINT ( 'NONE', #316 ) ;
#187 = FILL_AREA_STYLE ('',( #80 ) ) ;
#188 = SURFACE_STYLE_USAGE ( .BOTH. , #60 ) ;
#189 = EDGE_CURVE ( 'NONE', #227, #225, #284, .T. ) ;
#190 = CIRCLE ( 'NONE', #298, 0.1250000000000000555 ) ;
#191 =( NAMED_UNIT ( * ) SI_UNIT ( $, .STERADIAN. ) SOLID_ANGLE_UNIT ( ) );
#192 = ORIENTED_EDGE ( 'NONE', *, *, #193, .F. ) ;
#193 = EDGE_CURVE ( 'NONE', #250, #94, #217, .T. ) ;
#194 = SURFACE_STYLE_FILL_AREA ( #119 ) ;
#195 = EDGE_LOOP ( 'NONE', ( #24, #229, #278, #132 ) ) ;
#196 = DIRECTION ( 'NONE',  ( 0.000000000000000000, 0.000000000000000000, -1.000000000000000000 ) ) ;
#197 = ORIENTED_EDGE ( 'NONE', *, *, #25, .T. ) ;
#198 = CIRCLE ( 'NONE', #147, 0.09375000000000001388 ) ;
#199 = PRODUCT ( '84095', '84095', '', ( #285 ) ) ;
#200 = CARTESIAN_POINT ( 'NONE',  ( -6.123233995736766036E-17, 2.500000000000000000, 0.000000000000000000 ) ) ;
#201 = DIRECTION ( 'NONE',  ( -1.000000000000000000, 0.000000000000000000, 0.000000000000000000 ) ) ;
#202 = ORIENTED_EDGE ( 'NONE', *, *, #101, .T. ) ;
#203 = EDGE_CURVE ( 'NONE', #227, #250, #245, .T. ) ;
#204 =( GEOMETRIC_REPRESENTATION_CONTEXT ( 3 ) GLOBAL_UNCERTAINTY_ASSIGNED_CONTEXT ( ( #156 ) ) GLOBAL_UNIT_ASSIGNED_CONTEXT ( ( #185, #161, #240 ) ) REPRESENTATION_CONTEXT ( 'NONE', 'WORKASPACE' ) );
#205 = SURFACE_STYLE_USAGE ( .BOTH. , #176 ) ;
#206 = UNCERTAINTY_MEASURE_WITH_UNIT (LENGTH_MEASURE( 1.000000000000000082E-05 ), #41, 'distance_accuracy_value', 'NONE');
#207 = PRESENTATION_STYLE_ASSIGNMENT (( #181 ) ) ;
#208 = CARTESIAN_POINT ( 'NONE',  ( 0.000000000000000000, 0.000000000000000000, 0.000000000000000000 ) ) ;
#209 = FILL_AREA_STYLE_COLOUR ( '', #82 ) ;
#210 = UNCERTAINTY_MEASURE_WITH_UNIT (LENGTH_MEASURE( 1.000000000000000082E-05 ), #84, 'distance_accuracy_value', 'NONE');
#211 = AXIS2_PLACEMENT_3D ( 'NONE', #277, #136, #201 ) ;
#212 = LENGTH_MEASURE_WITH_UNIT ( LENGTH_MEASURE( 0.02539999999999999897 ), #312 );
#213 = CARTESIAN_POINT ( 'NONE',  ( 0.1250000000000000000, 0.5541265877365271209, 1.530808498934191509E-17 ) ) ;
#214 = FILL_AREA_STYLE_COLOUR ( '', #42 ) ;
#215 = ADVANCED_FACE ( 'NONE', ( #81 ), #78, .T. ) ;
#216 = CARTESIAN_POINT ( 'NONE',  ( 7.582401355855259480E-33, 0.4374999999999998890, 0.000000000000000000 ) ) ;
#217 = CIRCLE ( 'NONE', #249, 0.1250000000000000555 ) ;
#218 = PRESENTATION_STYLE_ASSIGNMENT (( #317 ) ) ;
#219 = ORIENTED_EDGE ( 'NONE', *, *, #189, .T. ) ;
#220 = DIRECTION ( 'NONE',  ( -1.000000000000000000, 0.000000000000000000, 0.000000000000000000 ) ) ;
#221 = EDGE_CURVE ( 'NONE', #253, #225, #131, .T. ) ;
#222 = FILL_AREA_STYLE_COLOUR ( '', #344 ) ;
#223 = CARTESIAN_POINT ( 'NONE',  ( 0.000000000000000000, 0.4375000000000000000, 0.000000000000000000 ) ) ;
#224 = ORIENTED_EDGE ( 'NONE', *, *, #203, .F. ) ;
#225 = VERTEX_POINT ( 'NONE', #318 ) ;
#226 =( CONVERSION_BASED_UNIT ( 'INCH', #352 ) LENGTH_UNIT ( ) NAMED_UNIT ( #175 ) );
#227 = VERTEX_POINT ( 'NONE', #213 ) ;
#228 = CONICAL_SURFACE ( 'NONE', #242, 0.09375000000000001388, 0.2617993877991498519 ) ;
#229 = ORIENTED_EDGE ( 'NONE', *, *, #329, .T. ) ;
#230 = PRESENTATION_STYLE_ASSIGNMENT (( #205 ) ) ;
#231 = PLANE ( 'NONE',  #98 ) ;
#232 = STYLED_ITEM ( 'NONE', ( #230 ), #183 ) ;
#233 =( NAMED_UNIT ( * ) SI_UNIT ( $, .STERADIAN. ) SOLID_ANGLE_UNIT ( ) );
#234 = APPLICATION_PROTOCOL_DEFINITION ( 'draft international standard', 'automotive_design', 1998, #48 ) ;
#235 = DIRECTION ( 'NONE',  ( -2.968840725205704707E-17, 1.000000000000000000, 0.000000000000000000 ) ) ;
#236 = PRODUCT_DEFINITION_FORMATION_WITH_SPECIFIED_SOURCE ( 'ANY', '', #199, .NOT_KNOWN. ) ;
#237 = DIRECTION ( 'NONE',  ( 0.000000000000000000, 1.000000000000000000, 0.000000000000000000 ) ) ;
#238 = FACE_OUTER_BOUND ( 'NONE', #120, .T. ) ;
#239 = DIRECTION ( 'NONE',  ( 1.000000000000000000, 2.968840725205704707E-17, 0.000000000000000000 ) ) ;
#240 =( NAMED_UNIT ( * ) SI_UNIT ( $, .STERADIAN. ) SOLID_ANGLE_UNIT ( ) );
#241 = MECHANICAL_DESIGN_GEOMETRIC_PRESENTATION_REPRESENTATION (  '', ( #310 ), #204 ) ;
#242 = AXIS2_PLACEMENT_3D ( 'NONE', #66, #256, #280 ) ;
#243 = ORIENTED_EDGE ( 'NONE', *, *, #268, .F. ) ;
#244 = ADVANCED_FACE ( 'NONE', ( #110 ), #23, .T. ) ;
#245 = LINE ( 'NONE', #106, #267 ) ;
#246 = DIRECTION ( 'NONE',  ( -1.000000000000000000, 0.000000000000000000, 0.000000000000000000 ) ) ;
#247 = EDGE_LOOP ( 'NONE', ( #142, #243 ) ) ;
#248 = DIRECTION ( 'NONE',  ( -1.000000000000000000, 0.000000000000000000, 0.000000000000000000 ) ) ;
#249 = AXIS2_PLACEMENT_3D ( 'NONE', #163, #292, #55 ) ;
#250 = VERTEX_POINT ( 'NONE', #111 ) ;
#251 = AXIS2_PLACEMENT_3D ( 'NONE', #223, #1, #196 ) ;
#252 = FILL_AREA_STYLE ('',( #306 ) ) ;
#253 = VERTEX_POINT ( 'NONE', #19 ) ;
#254 = DIRECTION ( 'NONE',  ( -0.000000000000000000, -1.000000000000000000, -0.000000000000000000 ) ) ;
#255 = ORIENTED_EDGE ( 'NONE', *, *, #283, .F. ) ;
#256 = DIRECTION ( 'NONE',  ( -2.968840725205704707E-17, 1.000000000000000000, -0.000000000000000000 ) ) ;
#257 = ORIENTED_EDGE ( 'NONE', *, *, #308, .F. ) ;
#258 = AXIS2_PLACEMENT_3D ( 'NONE', #39, #259, #96 ) ;
#259 = DIRECTION ( 'NONE',  ( -0.000000000000000000, -1.000000000000000000, -0.000000000000000000 ) ) ;
#260 = CARTESIAN_POINT ( 'NONE',  ( 0.09375000000000001388, 0.4374999999999998890, 1.148106374200643863E-17 ) ) ;
#261 = ADVANCED_FACE ( 'NONE', ( #238 ), #164, .F. ) ;
#262 = CARTESIAN_POINT ( 'NONE',  ( 0.000000000000000000, 0.000000000000000000, 0.000000000000000000 ) ) ;
#263 = CIRCLE ( 'NONE', #293, 0.09375000000000001388 ) ;
#264 = CARTESIAN_POINT ( 'NONE',  ( 0.000000000000000000, 0.000000000000000000, 0.000000000000000000 ) ) ;
#265 = DIRECTION ( 'NONE',  ( 1.000000000000000000, 0.000000000000000000, 0.000000000000000000 ) ) ;
#266 = DIRECTION ( 'NONE',  ( 0.2588190451025211281, 0.9659258262890682012, 3.169619151431769872E-17 ) ) ;
#267 = VECTOR ( 'NONE', #348, 39.37007874015748143 ) ;
#268 = EDGE_CURVE ( 'NONE', #165, #253, #263, .T. ) ;
#269 = SURFACE_SIDE_STYLE ('',( #76 ) ) ;
#270 = DIRECTION ( 'NONE',  ( -1.000000000000000000, 0.000000000000000000, 0.000000000000000000 ) ) ;
#271 = SURFACE_STYLE_FILL_AREA ( #187 ) ;
#272 =( LENGTH_UNIT ( ) NAMED_UNIT ( * ) SI_UNIT ( $, .METRE. ) );
#273 = CLOSED_SHELL ( 'NONE', ( #313, #215, #183, #356 ) ) ;
#274 = PRESENTATION_LAYER_ASSIGNMENT (  '', '', ( #99 ) ) ;
#275 = EDGE_LOOP ( 'NONE', ( #334, #281, #255, #92 ) ) ;
#276 = ORIENTED_EDGE ( 'NONE', *, *, #107, .T. ) ;
#277 = CARTESIAN_POINT ( 'NONE',  ( 7.582401355855259480E-33, 0.4374999999999998890, 0.000000000000000000 ) ) ;
#278 = ORIENTED_EDGE ( 'NONE', *, *, #308, .T. ) ;
#279 = COLOUR_RGB ( '',1.000000000000000000, 0.000000000000000000, 0.000000000000000000 ) ;
#280 = DIRECTION ( 'NONE',  ( -1.000000000000000000, 0.000000000000000000, 0.000000000000000000 ) ) ;
#281 = ORIENTED_EDGE ( 'NONE', *, *, #203, .T. ) ;
#282 = MANIFOLD_SOLID_BREP ( 'Revolve - Tool Body (Reduced Cut Diameter)', #171 ) ;
#283 = EDGE_CURVE ( 'NONE', #94, #250, #190, .T. ) ;
#284 = CIRCLE ( 'NONE', #287, 0.1250000000000000278 ) ;
#285 = PRODUCT_CONTEXT ( 'NONE', #48, 'mechanical' ) ;
#286 = DIRECTION ( 'NONE',  ( -2.968840725205704707E-17, 1.000000000000000000, -0.000000000000000000 ) ) ;
#287 = AXIS2_PLACEMENT_3D ( 'NONE', #346, #77, #291 ) ;
#288 = AXIS2_PLACEMENT_3D ( 'NONE', #26, #254, #137 ) ;
#289 =( LENGTH_UNIT ( ) NAMED_UNIT ( * ) SI_UNIT ( $, .METRE. ) );
#290 = CARTESIAN_POINT ( 'NONE',  ( 0.000000000000000000, 0.000000000000000000, 0.000000000000000000 ) ) ;
#291 = DIRECTION ( 'NONE',  ( -1.000000000000000000, 0.000000000000000000, 0.000000000000000000 ) ) ;
#292 = DIRECTION ( 'NONE',  ( -2.968840725205704707E-17, 1.000000000000000000, -0.000000000000000000 ) ) ;
#293 = AXIS2_PLACEMENT_3D ( 'NONE', #216, #347, #220 ) ;
#294 = FILL_AREA_STYLE ('',( #214 ) ) ;
#295 = ADVANCED_FACE ( 'NONE', ( #145 ), #228, .T. ) ;
#296 = VECTOR ( 'NONE', #53, 39.37007874015748854 ) ;
#297 = PRESENTATION_STYLE_ASSIGNMENT (( #188 ) ) ;
#298 = AXIS2_PLACEMENT_3D ( 'NONE', #320, #58, #246 ) ;
#299 = EDGE_LOOP ( 'NONE', ( #113, #328 ) ) ;
#300 = EDGE_LOOP ( 'NONE', ( #85, #21, #4, #305 ) ) ;
#301 = PRODUCT_DEFINITION ( 'UNKNOWN', '', #236, #357 ) ;
#302 = PRESENTATION_STYLE_ASSIGNMENT (( #326 ) ) ;
#303 =( NAMED_UNIT ( * ) PLANE_ANGLE_UNIT ( ) SI_UNIT ( $, .RADIAN. ) );
#304 = PRESENTATION_LAYER_ASSIGNMENT (  '', '', ( #109 ) ) ;
#305 = ORIENTED_EDGE ( 'NONE', *, *, #189, .F. ) ;
#306 = FILL_AREA_STYLE_COLOUR ( '', #11 ) ;
#307 = ORIENTED_EDGE ( 'NONE', *, *, #95, .F. ) ;
#308 = EDGE_CURVE ( 'NONE', #170, #186, #3, .T. ) ;
#309 = CARTESIAN_POINT ( 'NONE',  ( -3.462457633139772610E-18, 0.5541265877365271209, 0.000000000000000000 ) ) ;
#310 = STYLED_ITEM ( 'NONE', ( #184 ), #215 ) ;
#311 = DIMENSIONAL_EXPONENTS ( 1.000000000000000000, 0.000000000000000000, 0.000000000000000000, 0.000000000000000000, 0.000000000000000000, 0.000000000000000000, 0.000000000000000000 ) ;
#312 =( LENGTH_UNIT ( ) NAMED_UNIT ( * ) SI_UNIT ( $, .METRE. ) );
#313 = ADVANCED_FACE ( 'NONE', ( #59 ), #322, .T. ) ;
#314 =( NAMED_UNIT ( * ) SI_UNIT ( $, .STERADIAN. ) SOLID_ANGLE_UNIT ( ) );
#315 = PRESENTATION_LAYER_ASSIGNMENT (  '', '', ( #232 ) ) ;
#316 = CARTESIAN_POINT ( 'NONE',  ( 0.000000000000000000, 0.000000000000000000, -0.09375000000000001388 ) ) ;
#317 = SURFACE_STYLE_USAGE ( .BOTH. , #20 ) ;
#318 = CARTESIAN_POINT ( 'NONE',  ( -0.1250000000000000000, 0.5541265877365271209, 0.000000000000000000 ) ) ;
#319 = PRESENTATION_LAYER_ASSIGNMENT (  '', '', ( #79 ) ) ;
#320 = CARTESIAN_POINT ( 'NONE',  ( -6.123233995736766036E-17, 2.500000000000000000, 0.000000000000000000 ) ) ;
#321 = ORIENTED_EDGE ( 'NONE', *, *, #88, .T. ) ;
#322 = CYLINDRICAL_SURFACE ( 'NONE', #288, 0.09375000000000001388 ) ;
#323 = CIRCLE ( 'NONE', #211, 0.09375000000000001388 ) ;
#324 = DIRECTION ( 'NONE',  ( -2.968840725205704707E-17, 1.000000000000000000, -0.000000000000000000 ) ) ;
#325 =( GEOMETRIC_REPRESENTATION_CONTEXT ( 3 ) GLOBAL_UNCERTAINTY_ASSIGNED_CONTEXT ( ( #30 ) ) GLOBAL_UNIT_ASSIGNED_CONTEXT ( ( #71, #102, #314 ) ) REPRESENTATION_CONTEXT ( 'NONE', 'WORKASPACE' ) );
#326 = SURFACE_STYLE_USAGE ( .BOTH. , #144 ) ;
#327 = FACE_OUTER_BOUND ( 'NONE', #299, .T. ) ;
#328 = ORIENTED_EDGE ( 'NONE', *, *, #169, .T. ) ;
#329 = EDGE_CURVE ( 'NONE', #28, #170, #91, .T. ) ;
#330 =( LENGTH_UNIT ( ) NAMED_UNIT ( * ) SI_UNIT ( $, .METRE. ) );
#331 = EDGE_LOOP ( 'NONE', ( #87, #115 ) ) ;
#332 = ADVANCED_FACE ( 'NONE', ( #135 ), #141, .T. ) ;
#333 = PLANE ( 'NONE',  #125 ) ;
#334 = ORIENTED_EDGE ( 'NONE', *, *, #37, .T. ) ;
#335 =( GEOMETRIC_REPRESENTATION_CONTEXT ( 3 ) GLOBAL_UNCERTAINTY_ASSIGNED_CONTEXT ( ( #174 ) ) GLOBAL_UNIT_ASSIGNED_CONTEXT ( ( #12, #14, #69 ) ) REPRESENTATION_CONTEXT ( 'NONE', 'WORKASPACE' ) );
#336 = SURFACE_SIDE_STYLE ('',( #358 ) ) ;
#337 =( CONVERSION_BASED_UNIT ( 'INCH', #32 ) LENGTH_UNIT ( ) NAMED_UNIT ( #342 ) );
#338 = DIRECTION ( 'NONE',  ( 0.000000000000000000, 0.000000000000000000, -1.000000000000000000 ) ) ;
#339 = COLOUR_RGB ( '',0.7921568627450980005, 0.8196078431372548767, 0.9333333333333333481 ) ;
#340 = FILL_AREA_STYLE ('',( #209 ) ) ;
#341 = DIRECTION ( 'NONE',  ( -0.000000000000000000, -1.000000000000000000, -0.000000000000000000 ) ) ;
#342 = DIMENSIONAL_EXPONENTS ( 1.000000000000000000, 0.000000000000000000, 0.000000000000000000, 0.000000000000000000, 0.000000000000000000, 0.000000000000000000, 0.000000000000000000 ) ;
#343 = LINE ( 'NONE', #104, #140 ) ;
#344 = COLOUR_RGB ( '',0.7921568627450980005, 0.8196078431372548767, 0.9333333333333333481 ) ;
#345 = MECHANICAL_DESIGN_GEOMETRIC_PRESENTATION_REPRESENTATION (  '', ( #99 ), #325 ) ;
#346 = CARTESIAN_POINT ( 'NONE',  ( -3.462457633139772610E-18, 0.5541265877365271209, 0.000000000000000000 ) ) ;
#347 = DIRECTION ( 'NONE',  ( -2.968840725205704707E-17, 1.000000000000000000, -0.000000000000000000 ) ) ;
#348 = DIRECTION ( 'NONE',  ( -2.968840725205704707E-17, 1.000000000000000000, -0.000000000000000000 ) ) ;
#349 =( GEOMETRIC_REPRESENTATION_CONTEXT ( 3 ) GLOBAL_UNCERTAINTY_ASSIGNED_CONTEXT ( ( #16 ) ) GLOBAL_UNIT_ASSIGNED_CONTEXT ( ( #337, #73, #178 ) ) REPRESENTATION_CONTEXT ( 'NONE', 'WORKASPACE' ) );
#350 = CARTESIAN_POINT ( 'NONE',  ( -0.09375000000000001388, 0.4374999999999998890, 0.000000000000000000 ) ) ;
#351 = SURFACE_STYLE_USAGE ( .BOTH. , #269 ) ;
#352 = LENGTH_MEASURE_WITH_UNIT ( LENGTH_MEASURE( 0.02539999999999999897 ), #330 );
#353 = LINE ( 'NONE', #158, #162 ) ;
#354 = PRESENTATION_LAYER_ASSIGNMENT (  '', '', ( #310 ) ) ;
#355 =( LENGTH_UNIT ( ) NAMED_UNIT ( * ) SI_UNIT ( $, .METRE. ) );
#356 = ADVANCED_FACE ( 'NONE', ( #327 ), #333, .T. ) ;
#357 = PRODUCT_DEFINITION_CONTEXT ( 'detailed design', #5, 'design' ) ;
#358 = SURFACE_STYLE_FILL_AREA ( #252 ) ;
#359 = ORIENTED_EDGE ( 'NONE', *, *, #193, .T. ) ;
ENDSEC;
END-ISO-10303-21;
