ISO-10303-21;
HEADER;
FILE_DESCRIPTION (( 'STEP AP214' ),
    '1' );
FILE_NAME ('48310.STEP',
    '2023-06-22T21:22:28',
    ( '' ),
    ( '' ),
    'SwSTEP 2.0',
    'SolidWorks 2023',
    '' );
FILE_SCHEMA (( 'AUTOMOTIVE_DESIGN' ));
ENDSEC;

DATA;
#1 = CARTESIAN_POINT ( 'NONE',  ( 0.000000000000000000, 1.500000000000000222, 0.000000000000000000 ) ) ;
#2 = COLOUR_RGB ( '',1.000000000000000000, 0.000000000000000000, 0.000000000000000000 ) ;
#3 = SURFACE_SIDE_STYLE ('',( #43 ) ) ;
#4 =( NAMED_UNIT ( * ) SI_UNIT ( $, .STERADIAN. ) SOLID_ANGLE_UNIT ( ) );
#5 = ORIENTED_EDGE ( 'NONE', *, *, #14, .T. ) ;
#6 = DIRECTION ( 'NONE',  ( 0.000000000000000000, 1.000000000000000000, 0.000000000000000000 ) ) ;
#7 = FACE_OUTER_BOUND ( 'NONE', #186, .T. ) ;
#8 = LENGTH_MEASURE_WITH_UNIT ( LENGTH_MEASURE( 0.02539999999999999897 ), #32 );
#9 = FILL_AREA_STYLE_COLOUR ( '', #213 ) ;
#10 = DIRECTION ( 'NONE',  ( 0.000000000000000000, 0.000000000000000000, -1.000000000000000000 ) ) ;
#11 = FACE_OUTER_BOUND ( 'NONE', #158, .T. ) ;
#12 = DIRECTION ( 'NONE',  ( 0.000000000000000000, -1.000000000000000000, -0.000000000000000000 ) ) ;
#13 = AXIS2_PLACEMENT_3D ( 'NONE', #309, #209, #175 ) ;
#14 = EDGE_CURVE ( 'NONE', #26, #178, #106, .T. ) ;
#15 = AXIS2_PLACEMENT_3D ( 'NONE', #219, #6, #230 ) ;
#16 = LENGTH_MEASURE_WITH_UNIT ( LENGTH_MEASURE( 0.02539999999999999897 ), #139 );
#17 = CARTESIAN_POINT ( 'NONE',  ( -1.224646799147353207E-16, 3.500000000000000000, 0.000000000000000000 ) ) ;
#18 = ORIENTED_EDGE ( 'NONE', *, *, #38, .F. ) ;
#19 = DIRECTION ( 'NONE',  ( 0.000000000000000000, 0.000000000000000000, -1.000000000000000000 ) ) ;
#20 = STYLED_ITEM ( 'NONE', ( #162 ), #286 ) ;
#21 = CARTESIAN_POINT ( 'NONE',  ( 3.515061990613731334E-34, 1.500000000000000222, 0.000000000000000000 ) ) ;
#22 =( NAMED_UNIT ( * ) SI_UNIT ( $, .STERADIAN. ) SOLID_ANGLE_UNIT ( ) );
#23 = DIRECTION ( 'NONE',  ( -1.000000000000000000, -6.123233995736767268E-17, 0.000000000000000000 ) ) ;
#24 = EDGE_CURVE ( 'NONE', #195, #48, #157, .T. ) ;
#25 = DIMENSIONAL_EXPONENTS ( 1.000000000000000000, 0.000000000000000000, 0.000000000000000000, 0.000000000000000000, 0.000000000000000000, 0.000000000000000000, 0.000000000000000000 ) ;
#26 = VERTEX_POINT ( 'NONE', #50 ) ;
#27 = DIRECTION ( 'NONE',  ( 6.123233995736767268E-17, -1.000000000000000000, 0.000000000000000000 ) ) ;
#28 = STYLED_ITEM ( 'NONE', ( #39 ), #75 ) ;
#29 = PLANE ( 'NONE',  #15 ) ;
#30 = CIRCLE ( 'NONE', #113, 0.1875000000000000555 ) ;
#31 = DIMENSIONAL_EXPONENTS ( 1.000000000000000000, 0.000000000000000000, 0.000000000000000000, 0.000000000000000000, 0.000000000000000000, 0.000000000000000000, 0.000000000000000000 ) ;
#32 =( LENGTH_UNIT ( ) NAMED_UNIT ( * ) SI_UNIT ( $, .METRE. ) );
#33 = CIRCLE ( 'NONE', #102, 0.1875000000000001943 ) ;
#34 =( NAMED_UNIT ( * ) SI_UNIT ( $, .STERADIAN. ) SOLID_ANGLE_UNIT ( ) );
#35 = AXIS2_PLACEMENT_3D ( 'NONE', #79, #150, #274 ) ;
#36 =( GEOMETRIC_REPRESENTATION_CONTEXT ( 3 ) GLOBAL_UNCERTAINTY_ASSIGNED_CONTEXT ( ( #285 ) ) GLOBAL_UNIT_ASSIGNED_CONTEXT ( ( #191, #177, #4 ) ) REPRESENTATION_CONTEXT ( 'NONE', 'WORKASPACE' ) );
#37 =( NAMED_UNIT ( * ) PLANE_ANGLE_UNIT ( ) SI_UNIT ( $, .RADIAN. ) );
#38 = EDGE_CURVE ( 'NONE', #26, #140, #179, .T. ) ;
#39 = PRESENTATION_STYLE_ASSIGNMENT (( #254 ) ) ;
#40 = AXIS2_PLACEMENT_3D ( 'NONE', #87, #163, #290 ) ;
#41 =( CONVERSION_BASED_UNIT ( 'INCH', #261 ) LENGTH_UNIT ( ) NAMED_UNIT ( #25 ) );
#42 = DIRECTION ( 'NONE',  ( 0.000000000000000000, 0.000000000000000000, -1.000000000000000000 ) ) ;
#43 = SURFACE_STYLE_FILL_AREA ( #271 ) ;
#44 = CARTESIAN_POINT ( 'NONE',  ( -0.1875000000000000555, 1.500000000000000222, 0.000000000000000000 ) ) ;
#45 = AXIS2_PLACEMENT_3D ( 'NONE', #74, #127, #128 ) ;
#46 = ORIENTED_EDGE ( 'NONE', *, *, #24, .T. ) ;
#47 = SURFACE_STYLE_USAGE ( .BOTH. , #3 ) ;
#48 = VERTEX_POINT ( 'NONE', #251 ) ;
#49 = CARTESIAN_POINT ( 'NONE',  ( 0.000000000000000000, 1.500000000000000222, 0.000000000000000000 ) ) ;
#50 = CARTESIAN_POINT ( 'NONE',  ( 2.296212748401288034E-17, 1.500000000000000222, 0.1875000000000000555 ) ) ;
#51 = AXIS2_PLACEMENT_3D ( 'NONE', #49, #265, #152 ) ;
#52 = APPLICATION_CONTEXT ( 'automotive_design' ) ;
#53 = ORIENTED_EDGE ( 'NONE', *, *, #185, .F. ) ;
#54 = SURFACE_SIDE_STYLE ('',( #299 ) ) ;
#55 = ORIENTED_EDGE ( 'NONE', *, *, #135, .F. ) ;
#56 = MECHANICAL_DESIGN_GEOMETRIC_PRESENTATION_REPRESENTATION (  '', ( #28 ), #293 ) ;
#57 =( GEOMETRIC_REPRESENTATION_CONTEXT ( 3 ) GLOBAL_UNCERTAINTY_ASSIGNED_CONTEXT ( ( #246 ) ) GLOBAL_UNIT_ASSIGNED_CONTEXT ( ( #223, #160, #133 ) ) REPRESENTATION_CONTEXT ( 'NONE', 'WORKASPACE' ) );
#58 = ORIENTED_EDGE ( 'NONE', *, *, #224, .F. ) ;
#59 = ORIENTED_EDGE ( 'NONE', *, *, #81, .T. ) ;
#60 = SURFACE_STYLE_USAGE ( .BOTH. , #200 ) ;
#61 = SURFACE_STYLE_FILL_AREA ( #281 ) ;
#62 =( CONVERSION_BASED_UNIT ( 'INCH', #16 ) LENGTH_UNIT ( ) NAMED_UNIT ( #126 ) );
#63 = VECTOR ( 'NONE', #282, 39.37007874015748143 ) ;
#64 = AXIS2_PLACEMENT_3D ( 'NONE', #21, #229, #23 ) ;
#65 = VERTEX_POINT ( 'NONE', #222 ) ;
#66 = ORIENTED_EDGE ( 'NONE', *, *, #185, .T. ) ;
#67 = AXIS2_PLACEMENT_3D ( 'NONE', #307, #12, #90 ) ;
#68 = ADVANCED_BREP_SHAPE_REPRESENTATION ( '48310', ( #180, #286, #203 ), #221 ) ;
#69 = APPLICATION_CONTEXT ( 'automotive_design' ) ;
#70 =( NAMED_UNIT ( * ) SI_UNIT ( $, .STERADIAN. ) SOLID_ANGLE_UNIT ( ) );
#71 = DIMENSIONAL_EXPONENTS ( 1.000000000000000000, 0.000000000000000000, 0.000000000000000000, 0.000000000000000000, 0.000000000000000000, 0.000000000000000000, 0.000000000000000000 ) ;
#72 = CIRCLE ( 'NONE', #51, 0.1875000000000000555 ) ;
#73 =( GEOMETRIC_REPRESENTATION_CONTEXT ( 3 ) GLOBAL_UNCERTAINTY_ASSIGNED_CONTEXT ( ( #148 ) ) GLOBAL_UNIT_ASSIGNED_CONTEXT ( ( #198, #276, #227 ) ) REPRESENTATION_CONTEXT ( 'NONE', 'WORKASPACE' ) );
#74 = CARTESIAN_POINT ( 'NONE',  ( -1.224646799147353207E-16, 3.500000000000000000, 0.000000000000000000 ) ) ;
#75 = ADVANCED_FACE ( 'NONE', ( #11 ), #143, .T. ) ;
#76 = SURFACE_SIDE_STYLE ('',( #300 ) ) ;
#77 = FILL_AREA_STYLE_COLOUR ( '', #112 ) ;
#78 = DIMENSIONAL_EXPONENTS ( 1.000000000000000000, 0.000000000000000000, 0.000000000000000000, 0.000000000000000000, 0.000000000000000000, 0.000000000000000000, 0.000000000000000000 ) ;
#79 = CARTESIAN_POINT ( 'NONE',  ( 0.000000000000000000, 1.500000000000000222, 0.000000000000000000 ) ) ;
#80 = COLOUR_RGB ( '',0.7921568627450980005, 0.8196078431372548767, 0.9333333333333333481 ) ;
#81 = EDGE_CURVE ( 'NONE', #247, #48, #33, .T. ) ;
#82 = MECHANICAL_DESIGN_GEOMETRIC_PRESENTATION_REPRESENTATION (  '', ( #259 ), #57 ) ;
#83 = SURFACE_SIDE_STYLE ('',( #61 ) ) ;
#84 = PRESENTATION_STYLE_ASSIGNMENT (( #248 ) ) ;
#85 = CLOSED_SHELL ( 'NONE', ( #231, #182, #75, #295 ) ) ;
#86 = PRESENTATION_LAYER_ASSIGNMENT (  '', '', ( #259 ) ) ;
#87 = CARTESIAN_POINT ( 'NONE',  ( 0.000000000000000000, 0.000000000000000000, 0.000000000000000000 ) ) ;
#88 = CARTESIAN_POINT ( 'NONE',  ( 0.1874999999999999722, 3.500000000000000000, 2.296212748401288650E-17 ) ) ;
#89 = ORIENTED_EDGE ( 'NONE', *, *, #24, .F. ) ;
#90 = DIRECTION ( 'NONE',  ( 0.000000000000000000, 0.000000000000000000, -1.000000000000000000 ) ) ;
#91 = ORIENTED_EDGE ( 'NONE', *, *, #224, .T. ) ;
#92 = ORIENTED_EDGE ( 'NONE', *, *, #38, .T. ) ;
#93 =( LENGTH_UNIT ( ) NAMED_UNIT ( * ) SI_UNIT ( $, .METRE. ) );
#94 = DIRECTION ( 'NONE',  ( -0.000000000000000000, -1.000000000000000000, -0.000000000000000000 ) ) ;
#95 = CIRCLE ( 'NONE', #149, 0.1875000000000000278 ) ;
#96 = CARTESIAN_POINT ( 'NONE',  ( 0.000000000000000000, 0.000000000000000000, -0.1875000000000000278 ) ) ;
#97 = EDGE_CURVE ( 'NONE', #48, #247, #155, .T. ) ;
#98 = ORIENTED_EDGE ( 'NONE', *, *, #97, .T. ) ;
#99 = MECHANICAL_DESIGN_GEOMETRIC_PRESENTATION_REPRESENTATION (  '', ( #234 ), #73 ) ;
#100 = CARTESIAN_POINT ( 'NONE',  ( 2.296212748401287726E-17, 0.000000000000000000, 0.1875000000000000278 ) ) ;
#101 = DIMENSIONAL_EXPONENTS ( 1.000000000000000000, 0.000000000000000000, 0.000000000000000000, 0.000000000000000000, 0.000000000000000000, 0.000000000000000000, 0.000000000000000000 ) ;
#102 = AXIS2_PLACEMENT_3D ( 'NONE', #17, #111, #207 ) ;
#103 =( NAMED_UNIT ( * ) PLANE_ANGLE_UNIT ( ) SI_UNIT ( $, .RADIAN. ) );
#104 = SURFACE_STYLE_FILL_AREA ( #275 ) ;
#105 = SHAPE_DEFINITION_REPRESENTATION ( #172, #68 ) ;
#106 = CIRCLE ( 'NONE', #35, 0.1875000000000000555 ) ;
#107 =( NAMED_UNIT ( * ) SI_UNIT ( $, .STERADIAN. ) SOLID_ANGLE_UNIT ( ) );
#108 = LENGTH_MEASURE_WITH_UNIT ( LENGTH_MEASURE( 0.02539999999999999897 ), #250 );
#109 = ADVANCED_FACE ( 'NONE', ( #146 ), #268, .F. ) ;
#110 = PRODUCT ( '48310', '48310', '', ( #165 ) ) ;
#111 = DIRECTION ( 'NONE',  ( -6.123233995736767268E-17, 1.000000000000000000, -0.000000000000000000 ) ) ;
#112 = COLOUR_RGB ( '',1.000000000000000000, 0.000000000000000000, 0.000000000000000000 ) ;
#113 = AXIS2_PLACEMENT_3D ( 'NONE', #144, #235, #117 ) ;
#114 = PRESENTATION_STYLE_ASSIGNMENT (( #255 ) ) ;
#115 = DIRECTION ( 'NONE',  ( -0.000000000000000000, -1.000000000000000000, -0.000000000000000000 ) ) ;
#116 = SURFACE_SIDE_STYLE ('',( #308 ) ) ;
#117 = DIRECTION ( 'NONE',  ( -1.000000000000000000, 0.000000000000000000, 0.000000000000000000 ) ) ;
#118 = PRESENTATION_LAYER_ASSIGNMENT (  '', '', ( #20 ) ) ;
#119 =( LENGTH_UNIT ( ) NAMED_UNIT ( * ) SI_UNIT ( $, .METRE. ) );
#120 = FILL_AREA_STYLE_COLOUR ( '', #80 ) ;
#121 = CARTESIAN_POINT ( 'NONE',  ( -0.1875000000000002498, 3.500000000000000000, 0.000000000000000000 ) ) ;
#122 = CARTESIAN_POINT ( 'NONE',  ( 0.000000000000000000, 0.000000000000000000, -0.1875000000000000555 ) ) ;
#123 = DIMENSIONAL_EXPONENTS ( 1.000000000000000000, 0.000000000000000000, 0.000000000000000000, 0.000000000000000000, 0.000000000000000000, 0.000000000000000000, 0.000000000000000000 ) ;
#124 = FILL_AREA_STYLE ('',( #243 ) ) ;
#125 = LINE ( 'NONE', #122, #287 ) ;
#126 = DIMENSIONAL_EXPONENTS ( 1.000000000000000000, 0.000000000000000000, 0.000000000000000000, 0.000000000000000000, 0.000000000000000000, 0.000000000000000000, 0.000000000000000000 ) ;
#127 = DIRECTION ( 'NONE',  ( -6.123233995736767268E-17, 1.000000000000000000, -0.000000000000000000 ) ) ;
#128 = DIRECTION ( 'NONE',  ( -1.000000000000000000, 0.000000000000000000, 0.000000000000000000 ) ) ;
#129 = EDGE_CURVE ( 'NONE', #178, #257, #125, .T. ) ;
#130 = MECHANICAL_DESIGN_GEOMETRIC_PRESENTATION_REPRESENTATION (  '', ( #263 ), #147 ) ;
#131 = ORIENTED_EDGE ( 'NONE', *, *, #97, .F. ) ;
#132 = PRODUCT_DEFINITION ( 'UNKNOWN', '', #245, #170 ) ;
#133 =( NAMED_UNIT ( * ) SI_UNIT ( $, .STERADIAN. ) SOLID_ANGLE_UNIT ( ) );
#134 = DIRECTION ( 'NONE',  ( 0.000000000000000000, 0.000000000000000000, 1.000000000000000000 ) ) ;
#135 = EDGE_CURVE ( 'NONE', #65, #195, #72, .T. ) ;
#136 = ADVANCED_FACE ( 'NONE', ( #241 ), #294, .T. ) ;
#137 = ORIENTED_EDGE ( 'NONE', *, *, #129, .T. ) ;
#138 = FILL_AREA_STYLE_COLOUR ( '', #2 ) ;
#139 =( LENGTH_UNIT ( ) NAMED_UNIT ( * ) SI_UNIT ( $, .METRE. ) );
#140 = VERTEX_POINT ( 'NONE', #100 ) ;
#141 = PRESENTATION_LAYER_ASSIGNMENT (  '', '', ( #280 ) ) ;
#142 = ORIENTED_EDGE ( 'NONE', *, *, #244, .T. ) ;
#143 = CYLINDRICAL_SURFACE ( 'NONE', #233, 0.1875000000000000555 ) ;
#144 = CARTESIAN_POINT ( 'NONE',  ( 0.000000000000000000, 1.500000000000000222, 0.000000000000000000 ) ) ;
#145 = CARTESIAN_POINT ( 'NONE',  ( 0.000000000000000000, 0.000000000000000000, 0.000000000000000000 ) ) ;
#146 = FACE_OUTER_BOUND ( 'NONE', #189, .T. ) ;
#147 =( GEOMETRIC_REPRESENTATION_CONTEXT ( 3 ) GLOBAL_UNCERTAINTY_ASSIGNED_CONTEXT ( ( #194 ) ) GLOBAL_UNIT_ASSIGNED_CONTEXT ( ( #216, #103, #70 ) ) REPRESENTATION_CONTEXT ( 'NONE', 'WORKASPACE' ) );
#148 = UNCERTAINTY_MEASURE_WITH_UNIT (LENGTH_MEASURE( 1.000000000000000082E-05 ), #198, 'distance_accuracy_value', 'NONE');
#149 = AXIS2_PLACEMENT_3D ( 'NONE', #306, #302, #10 ) ;
#150 = DIRECTION ( 'NONE',  ( -0.000000000000000000, -1.000000000000000000, -0.000000000000000000 ) ) ;
#151 = FACE_OUTER_BOUND ( 'NONE', #238, .T. ) ;
#152 = DIRECTION ( 'NONE',  ( -1.000000000000000000, 0.000000000000000000, 0.000000000000000000 ) ) ;
#153 = FACE_OUTER_BOUND ( 'NONE', #168, .T. ) ;
#154 = DIRECTION ( 'NONE',  ( -6.123233995736767268E-17, 1.000000000000000000, -0.000000000000000000 ) ) ;
#155 = CIRCLE ( 'NONE', #13, 0.1875000000000001943 ) ;
#156 = AXIS2_PLACEMENT_3D ( 'NONE', #145, #115, #278 ) ;
#157 = LINE ( 'NONE', #121, #192 ) ;
#158 = EDGE_LOOP ( 'NONE', ( #18, #5, #137, #58 ) ) ;
#159 = AXIS2_PLACEMENT_3D ( 'NONE', #1, #94, #42 ) ;
#160 =( NAMED_UNIT ( * ) PLANE_ANGLE_UNIT ( ) SI_UNIT ( $, .RADIAN. ) );
#161 = ORIENTED_EDGE ( 'NONE', *, *, #244, .F. ) ;
#162 = PRESENTATION_STYLE_ASSIGNMENT (( #60 ) ) ;
#163 = DIRECTION ( 'NONE',  ( -0.000000000000000000, -1.000000000000000000, -0.000000000000000000 ) ) ;
#164 = CIRCLE ( 'NONE', #156, 0.1875000000000000278 ) ;
#165 = PRODUCT_CONTEXT ( 'NONE', #52, 'mechanical' ) ;
#166 = DIRECTION ( 'NONE',  ( -0.000000000000000000, -1.000000000000000000, -0.000000000000000000 ) ) ;
#167 = APPLICATION_PROTOCOL_DEFINITION ( 'draft international standard', 'automotive_design', 1998, #52 ) ;
#168 = EDGE_LOOP ( 'NONE', ( #289, #277 ) ) ;
#169 = CARTESIAN_POINT ( 'NONE',  ( 0.000000000000000000, 0.000000000000000000, 0.000000000000000000 ) ) ;
#170 = PRODUCT_DEFINITION_CONTEXT ( 'detailed design', #69, 'design' ) ;
#171 = FACE_OUTER_BOUND ( 'NONE', #220, .T. ) ;
#172 = PRODUCT_DEFINITION_SHAPE ( 'NONE', 'NONE',  #132 ) ;
#173 = ORIENTED_EDGE ( 'NONE', *, *, #304, .F. ) ;
#174 = DIRECTION ( 'NONE',  ( -0.000000000000000000, -1.000000000000000000, -0.000000000000000000 ) ) ;
#175 = DIRECTION ( 'NONE',  ( -1.000000000000000000, 0.000000000000000000, 0.000000000000000000 ) ) ;
#176 = SURFACE_STYLE_USAGE ( .BOTH. , #76 ) ;
#177 =( NAMED_UNIT ( * ) PLANE_ANGLE_UNIT ( ) SI_UNIT ( $, .RADIAN. ) );
#178 = VERTEX_POINT ( 'NONE', #197 ) ;
#179 = LINE ( 'NONE', #305, #63 ) ;
#180 = MANIFOLD_SOLID_BREP ( 'Revolve - Cutting Edge', #85 ) ;
#181 = LINE ( 'NONE', #88, #249 ) ;
#182 = ADVANCED_FACE ( 'NONE', ( #153 ), #29, .T. ) ;
#183 = CLOSED_SHELL ( 'NONE', ( #136, #190, #188, #109 ) ) ;
#184 =( GEOMETRIC_REPRESENTATION_CONTEXT ( 3 ) GLOBAL_UNCERTAINTY_ASSIGNED_CONTEXT ( ( #292 ) ) GLOBAL_UNIT_ASSIGNED_CONTEXT ( ( #201, #262, #107 ) ) REPRESENTATION_CONTEXT ( 'NONE', 'WORKASPACE' ) );
#185 = EDGE_CURVE ( 'NONE', #257, #140, #95, .T. ) ;
#186 = EDGE_LOOP ( 'NONE', ( #217, #92, #53, #267 ) ) ;
#187 = FILL_AREA_STYLE_COLOUR ( '', #258 ) ;
#188 = ADVANCED_FACE ( 'NONE', ( #210 ), #242, .T. ) ;
#189 = EDGE_LOOP ( 'NONE', ( #98, #59 ) ) ;
#190 = ADVANCED_FACE ( 'NONE', ( #171 ), #204, .F. ) ;
#191 =( CONVERSION_BASED_UNIT ( 'INCH', #260 ) LENGTH_UNIT ( ) NAMED_UNIT ( #71 ) );
#192 = VECTOR ( 'NONE', #269, 39.37007874015748143 ) ;
#193 = PRESENTATION_LAYER_ASSIGNMENT (  '', '', ( #234 ) ) ;
#194 = UNCERTAINTY_MEASURE_WITH_UNIT (LENGTH_MEASURE( 1.000000000000000082E-05 ), #216, 'distance_accuracy_value', 'NONE');
#195 = VERTEX_POINT ( 'NONE', #44 ) ;
#196 = COLOUR_RGB ( '',1.000000000000000000, 0.000000000000000000, 0.000000000000000000 ) ;
#197 = CARTESIAN_POINT ( 'NONE',  ( 0.000000000000000000, 1.500000000000000222, -0.1875000000000000555 ) ) ;
#198 =( CONVERSION_BASED_UNIT ( 'INCH', #8 ) LENGTH_UNIT ( ) NAMED_UNIT ( #101 ) );
#199 = ORIENTED_EDGE ( 'NONE', *, *, #304, .T. ) ;
#200 = SURFACE_SIDE_STYLE ('',( #104 ) ) ;
#201 =( CONVERSION_BASED_UNIT ( 'INCH', #108 ) LENGTH_UNIT ( ) NAMED_UNIT ( #78 ) );
#202 = PRESENTATION_LAYER_ASSIGNMENT (  '', '', ( #28 ) ) ;
#203 = AXIS2_PLACEMENT_3D ( 'NONE', #288, #134, #225 ) ;
#204 = PLANE ( 'NONE',  #64 ) ;
#205 =( LENGTH_UNIT ( ) NAMED_UNIT ( * ) SI_UNIT ( $, .METRE. ) );
#206 = FILL_AREA_STYLE ('',( #187 ) ) ;
#207 = DIRECTION ( 'NONE',  ( -1.000000000000000000, 0.000000000000000000, 0.000000000000000000 ) ) ;
#208 = CYLINDRICAL_SURFACE ( 'NONE', #40, 0.1875000000000000555 ) ;
#209 = DIRECTION ( 'NONE',  ( -6.123233995736767268E-17, 1.000000000000000000, -0.000000000000000000 ) ) ;
#210 = FACE_OUTER_BOUND ( 'NONE', #303, .T. ) ;
#211 = UNCERTAINTY_MEASURE_WITH_UNIT (LENGTH_MEASURE( 1.000000000000000082E-05 ), #41, 'distance_accuracy_value', 'NONE');
#212 = DIRECTION ( 'NONE',  ( -1.000000000000000000, 0.000000000000000000, 0.000000000000000000 ) ) ;
#213 = COLOUR_RGB ( '',0.7921568627450980005, 0.8196078431372548767, 0.9333333333333333481 ) ;
#214 = CARTESIAN_POINT ( 'NONE',  ( 0.1875000000000000555, 3.500000000000000000, 2.296212748401289266E-17 ) ) ;
#215 = CARTESIAN_POINT ( 'NONE',  ( -1.224646799147353207E-16, 3.500000000000000000, 0.000000000000000000 ) ) ;
#216 =( CONVERSION_BASED_UNIT ( 'INCH', #239 ) LENGTH_UNIT ( ) NAMED_UNIT ( #123 ) );
#217 = ORIENTED_EDGE ( 'NONE', *, *, #237, .T. ) ;
#218 = EDGE_LOOP ( 'NONE', ( #142, #199, #131, #89 ) ) ;
#219 = CARTESIAN_POINT ( 'NONE',  ( 0.000000000000000000, 1.500000000000000222, 0.000000000000000000 ) ) ;
#220 = EDGE_LOOP ( 'NONE', ( #161, #55 ) ) ;
#221 =( GEOMETRIC_REPRESENTATION_CONTEXT ( 3 ) GLOBAL_UNCERTAINTY_ASSIGNED_CONTEXT ( ( #256 ) ) GLOBAL_UNIT_ASSIGNED_CONTEXT ( ( #62, #37, #34 ) ) REPRESENTATION_CONTEXT ( 'NONE', 'WORKASPACE' ) );
#222 = CARTESIAN_POINT ( 'NONE',  ( 0.1875000000000000555, 1.500000000000000222, 2.296212748401289266E-17 ) ) ;
#223 =( CONVERSION_BASED_UNIT ( 'INCH', #226 ) LENGTH_UNIT ( ) NAMED_UNIT ( #31 ) );
#224 = EDGE_CURVE ( 'NONE', #140, #257, #164, .T. ) ;
#225 = DIRECTION ( 'NONE',  ( 1.000000000000000000, 0.000000000000000000, 0.000000000000000000 ) ) ;
#226 = LENGTH_MEASURE_WITH_UNIT ( LENGTH_MEASURE( 0.02539999999999999897 ), #205 );
#227 =( NAMED_UNIT ( * ) SI_UNIT ( $, .STERADIAN. ) SOLID_ANGLE_UNIT ( ) );
#228 = DIRECTION ( 'NONE',  ( -6.123233995736767268E-17, 1.000000000000000000, -0.000000000000000000 ) ) ;
#229 = DIRECTION ( 'NONE',  ( -6.123233995736767268E-17, 1.000000000000000000, 0.000000000000000000 ) ) ;
#230 = DIRECTION ( 'NONE',  ( 0.000000000000000000, -0.000000000000000000, 1.000000000000000000 ) ) ;
#231 = ADVANCED_FACE ( 'NONE', ( #7 ), #208, .T. ) ;
#232 = FILL_AREA_STYLE ('',( #138 ) ) ;
#233 = AXIS2_PLACEMENT_3D ( 'NONE', #169, #166, #19 ) ;
#234 = STYLED_ITEM ( 'NONE', ( #270 ), #295 ) ;
#235 = DIRECTION ( 'NONE',  ( -6.123233995736767268E-17, 1.000000000000000000, -0.000000000000000000 ) ) ;
#236 = PRESENTATION_STYLE_ASSIGNMENT (( #47 ) ) ;
#237 = EDGE_CURVE ( 'NONE', #178, #26, #273, .T. ) ;
#238 = EDGE_LOOP ( 'NONE', ( #66, #91 ) ) ;
#239 = LENGTH_MEASURE_WITH_UNIT ( LENGTH_MEASURE( 0.02539999999999999897 ), #119 );
#240 = PLANE ( 'NONE',  #67 ) ;
#241 = FACE_OUTER_BOUND ( 'NONE', #218, .T. ) ;
#242 = CYLINDRICAL_SURFACE ( 'NONE', #45, 0.1875000000000001110 ) ;
#243 = FILL_AREA_STYLE_COLOUR ( '', #196 ) ;
#244 = EDGE_CURVE ( 'NONE', #195, #65, #30, .T. ) ;
#245 = PRODUCT_DEFINITION_FORMATION_WITH_SPECIFIED_SOURCE ( 'ANY', '', #110, .NOT_KNOWN. ) ;
#246 = UNCERTAINTY_MEASURE_WITH_UNIT (LENGTH_MEASURE( 1.000000000000000082E-05 ), #223, 'distance_accuracy_value', 'NONE');
#247 = VERTEX_POINT ( 'NONE', #214 ) ;
#248 = SURFACE_STYLE_USAGE ( .BOTH. , #54 ) ;
#249 = VECTOR ( 'NONE', #228, 39.37007874015748143 ) ;
#250 =( LENGTH_UNIT ( ) NAMED_UNIT ( * ) SI_UNIT ( $, .METRE. ) );
#251 = CARTESIAN_POINT ( 'NONE',  ( -0.1875000000000003331, 3.500000000000000000, 0.000000000000000000 ) ) ;
#252 = AXIS2_PLACEMENT_3D ( 'NONE', #215, #154, #212 ) ;
#253 = APPLICATION_PROTOCOL_DEFINITION ( 'draft international standard', 'automotive_design', 1998, #69 ) ;
#254 = SURFACE_STYLE_USAGE ( .BOTH. , #116 ) ;
#255 = SURFACE_STYLE_USAGE ( .BOTH. , #83 ) ;
#256 = UNCERTAINTY_MEASURE_WITH_UNIT (LENGTH_MEASURE( 1.000000000000000082E-05 ), #62, 'distance_accuracy_value', 'NONE');
#257 = VERTEX_POINT ( 'NONE', #96 ) ;
#258 = COLOUR_RGB ( '',1.000000000000000000, 0.000000000000000000, 0.000000000000000000 ) ;
#259 = STYLED_ITEM ( 'NONE', ( #84 ), #231 ) ;
#260 = LENGTH_MEASURE_WITH_UNIT ( LENGTH_MEASURE( 0.02539999999999999897 ), #93 );
#261 = LENGTH_MEASURE_WITH_UNIT ( LENGTH_MEASURE( 0.02539999999999999897 ), #291 );
#262 =( NAMED_UNIT ( * ) PLANE_ANGLE_UNIT ( ) SI_UNIT ( $, .RADIAN. ) );
#263 = STYLED_ITEM ( 'NONE', ( #236 ), #180 ) ;
#264 = ORIENTED_EDGE ( 'NONE', *, *, #81, .F. ) ;
#265 = DIRECTION ( 'NONE',  ( -6.123233995736767268E-17, 1.000000000000000000, -0.000000000000000000 ) ) ;
#266 = DIRECTION ( 'NONE',  ( 1.000000000000000000, 6.123233995736767268E-17, 0.000000000000000000 ) ) ;
#267 = ORIENTED_EDGE ( 'NONE', *, *, #129, .F. ) ;
#268 = PLANE ( 'NONE',  #272 ) ;
#269 = DIRECTION ( 'NONE',  ( -6.123233995736767268E-17, 1.000000000000000000, -0.000000000000000000 ) ) ;
#270 = PRESENTATION_STYLE_ASSIGNMENT (( #176 ) ) ;
#271 = FILL_AREA_STYLE ('',( #120 ) ) ;
#272 = AXIS2_PLACEMENT_3D ( 'NONE', #296, #27, #266 ) ;
#273 = CIRCLE ( 'NONE', #159, 0.1875000000000000555 ) ;
#274 = DIRECTION ( 'NONE',  ( 0.000000000000000000, 0.000000000000000000, -1.000000000000000000 ) ) ;
#275 = FILL_AREA_STYLE ('',( #9 ) ) ;
#276 =( NAMED_UNIT ( * ) PLANE_ANGLE_UNIT ( ) SI_UNIT ( $, .RADIAN. ) );
#277 = ORIENTED_EDGE ( 'NONE', *, *, #14, .F. ) ;
#278 = DIRECTION ( 'NONE',  ( 0.000000000000000000, 0.000000000000000000, -1.000000000000000000 ) ) ;
#279 = ORIENTED_EDGE ( 'NONE', *, *, #135, .T. ) ;
#280 = STYLED_ITEM ( 'NONE', ( #114 ), #182 ) ;
#281 = FILL_AREA_STYLE ('',( #77 ) ) ;
#282 = DIRECTION ( 'NONE',  ( -0.000000000000000000, -1.000000000000000000, -0.000000000000000000 ) ) ;
#283 = PRODUCT_RELATED_PRODUCT_CATEGORY ( 'part', '', ( #110 ) ) ;
#284 =( NAMED_UNIT ( * ) PLANE_ANGLE_UNIT ( ) SI_UNIT ( $, .RADIAN. ) );
#285 = UNCERTAINTY_MEASURE_WITH_UNIT (LENGTH_MEASURE( 1.000000000000000082E-05 ), #191, 'distance_accuracy_value', 'NONE');
#286 = MANIFOLD_SOLID_BREP ( 'Revolve - Tool Body (Straight Shanked)', #183 ) ;
#287 = VECTOR ( 'NONE', #174, 39.37007874015748143 ) ;
#288 = CARTESIAN_POINT ( 'NONE',  ( 0.000000000000000000, 0.000000000000000000, 0.000000000000000000 ) ) ;
#289 = ORIENTED_EDGE ( 'NONE', *, *, #237, .F. ) ;
#290 = DIRECTION ( 'NONE',  ( 0.000000000000000000, 0.000000000000000000, -1.000000000000000000 ) ) ;
#291 =( LENGTH_UNIT ( ) NAMED_UNIT ( * ) SI_UNIT ( $, .METRE. ) );
#292 = UNCERTAINTY_MEASURE_WITH_UNIT (LENGTH_MEASURE( 1.000000000000000082E-05 ), #201, 'distance_accuracy_value', 'NONE');
#293 =( GEOMETRIC_REPRESENTATION_CONTEXT ( 3 ) GLOBAL_UNCERTAINTY_ASSIGNED_CONTEXT ( ( #211 ) ) GLOBAL_UNIT_ASSIGNED_CONTEXT ( ( #41, #284, #22 ) ) REPRESENTATION_CONTEXT ( 'NONE', 'WORKASPACE' ) );
#294 = CYLINDRICAL_SURFACE ( 'NONE', #252, 0.1875000000000001110 ) ;
#295 = ADVANCED_FACE ( 'NONE', ( #151 ), #240, .T. ) ;
#296 = CARTESIAN_POINT ( 'NONE',  ( 0.1875000000000000555, 3.500000000000000000, 0.000000000000000000 ) ) ;
#297 = MECHANICAL_DESIGN_GEOMETRIC_PRESENTATION_REPRESENTATION (  '', ( #280 ), #36 ) ;
#298 = MECHANICAL_DESIGN_GEOMETRIC_PRESENTATION_REPRESENTATION (  '', ( #20 ), #184 ) ;
#299 = SURFACE_STYLE_FILL_AREA ( #232 ) ;
#300 = SURFACE_STYLE_FILL_AREA ( #124 ) ;
#301 = PRESENTATION_LAYER_ASSIGNMENT (  '', '', ( #263 ) ) ;
#302 = DIRECTION ( 'NONE',  ( -0.000000000000000000, -1.000000000000000000, -0.000000000000000000 ) ) ;
#303 = EDGE_LOOP ( 'NONE', ( #173, #279, #46, #264 ) ) ;
#304 = EDGE_CURVE ( 'NONE', #65, #247, #181, .T. ) ;
#305 = CARTESIAN_POINT ( 'NONE',  ( 2.296212748401288034E-17, 0.000000000000000000, 0.1875000000000000555 ) ) ;
#306 = CARTESIAN_POINT ( 'NONE',  ( 0.000000000000000000, 0.000000000000000000, 0.000000000000000000 ) ) ;
#307 = CARTESIAN_POINT ( 'NONE',  ( 0.000000000000000000, 0.000000000000000000, 0.000000000000000000 ) ) ;
#308 = SURFACE_STYLE_FILL_AREA ( #206 ) ;
#309 = CARTESIAN_POINT ( 'NONE',  ( -1.224646799147353207E-16, 3.500000000000000000, 0.000000000000000000 ) ) ;
ENDSEC;
END-ISO-10303-21;
