ISO-10303-21;
HEADER;
FILE_DESCRIPTION (( 'STEP AP214' ),
    '1' );
FILE_NAME ('81846.STEP',
    '2023-06-23T03:37:32',
    ( '' ),
    ( '' ),
    'SwSTEP 2.0',
    'SolidWorks 2023',
    '' );
FILE_SCHEMA (( 'AUTOMOTIVE_DESIGN' ));
ENDSEC;

DATA;
#1 = LENGTH_MEASURE_WITH_UNIT ( LENGTH_MEASURE( 0.02539999999999999897 ), #288 );
#2 = EDGE_LOOP ( 'NONE', ( #201, #98, #193, #141 ) ) ;
#3 = DIRECTION ( 'NONE',  ( -4.898587196589413075E-17, 1.000000000000000000, -0.000000000000000000 ) ) ;
#4 = DIRECTION ( 'NONE',  ( 4.898587196589412459E-17, -1.000000000000000000, 0.000000000000000000 ) ) ;
#5 = ORIENTED_EDGE ( 'NONE', *, *, #95, .F. ) ;
#6 = PLANE ( 'NONE',  #308 ) ;
#7 = CARTESIAN_POINT ( 'NONE',  ( -1.224646799147353207E-16, 5.000000000000000000, 0.000000000000000000 ) ) ;
#8 = EDGE_CURVE ( 'NONE', #221, #24, #276, .T. ) ;
#9 = DIRECTION ( 'NONE',  ( -0.000000000000000000, -1.000000000000000000, -0.000000000000000000 ) ) ;
#10 = CARTESIAN_POINT ( 'NONE',  ( 0.000000000000000000, 0.000000000000000000, 0.000000000000000000 ) ) ;
#11 = DIRECTION ( 'NONE',  ( -0.000000000000000000, -1.000000000000000000, -0.000000000000000000 ) ) ;
#12 = DIMENSIONAL_EXPONENTS ( 1.000000000000000000, 0.000000000000000000, 0.000000000000000000, 0.000000000000000000, 0.000000000000000000, 0.000000000000000000, 0.000000000000000000 ) ;
#13 = CARTESIAN_POINT ( 'NONE',  ( -1.224646799147353207E-16, 5.000000000000000000, 0.000000000000000000 ) ) ;
#14 = COLOUR_RGB ( '',0.7921568627450980005, 0.8196078431372548767, 0.9333333333333333481 ) ;
#15 =( GEOMETRIC_REPRESENTATION_CONTEXT ( 3 ) GLOBAL_UNCERTAINTY_ASSIGNED_CONTEXT ( ( #259 ) ) GLOBAL_UNIT_ASSIGNED_CONTEXT ( ( #252, #306, #284 ) ) REPRESENTATION_CONTEXT ( 'NONE', 'WORKASPACE' ) );
#16 = PLANE ( 'NONE',  #304 ) ;
#17 = ORIENTED_EDGE ( 'NONE', *, *, #21, .T. ) ;
#18 = DIRECTION ( 'NONE',  ( -1.000000000000000000, 0.000000000000000000, 0.000000000000000000 ) ) ;
#19 = MECHANICAL_DESIGN_GEOMETRIC_PRESENTATION_REPRESENTATION (  '', ( #92 ), #285 ) ;
#20 = ORIENTED_EDGE ( 'NONE', *, *, #173, .T. ) ;
#21 = EDGE_CURVE ( 'NONE', #235, #24, #205, .T. ) ;
#22 = CARTESIAN_POINT ( 'NONE',  ( 0.3124999999999999445, 5.000000000000000000, 3.827021247335479543E-17 ) ) ;
#23 = STYLED_ITEM ( 'NONE', ( #209 ), #47 ) ;
#24 = VERTEX_POINT ( 'NONE', #104 ) ;
#25 =( NAMED_UNIT ( * ) SI_UNIT ( $, .STERADIAN. ) SOLID_ANGLE_UNIT ( ) );
#26 = UNCERTAINTY_MEASURE_WITH_UNIT (LENGTH_MEASURE( 1.000000000000000082E-05 ), #243, 'distance_accuracy_value', 'NONE');
#27 = EDGE_CURVE ( 'NONE', #191, #198, #52, .T. ) ;
#28 = SURFACE_STYLE_FILL_AREA ( #302 ) ;
#29 =( NAMED_UNIT ( * ) SI_UNIT ( $, .STERADIAN. ) SOLID_ANGLE_UNIT ( ) );
#30 = CIRCLE ( 'NONE', #210, 0.3125000000000000000 ) ;
#31 = STYLED_ITEM ( 'NONE', ( #106 ), #248 ) ;
#32 = LENGTH_MEASURE_WITH_UNIT ( LENGTH_MEASURE( 0.02539999999999999897 ), #81 );
#33 =( LENGTH_UNIT ( ) NAMED_UNIT ( * ) SI_UNIT ( $, .METRE. ) );
#34 = CARTESIAN_POINT ( 'NONE',  ( 0.000000000000000000, 0.000000000000000000, 0.000000000000000000 ) ) ;
#35 = SURFACE_STYLE_USAGE ( .BOTH. , #260 ) ;
#36 =( GEOMETRIC_REPRESENTATION_CONTEXT ( 3 ) GLOBAL_UNCERTAINTY_ASSIGNED_CONTEXT ( ( #88 ) ) GLOBAL_UNIT_ASSIGNED_CONTEXT ( ( #272, #274, #25 ) ) REPRESENTATION_CONTEXT ( 'NONE', 'WORKASPACE' ) );
#37 = DIRECTION ( 'NONE',  ( -4.898587196589413075E-17, 1.000000000000000000, -0.000000000000000000 ) ) ;
#38 = MANIFOLD_SOLID_BREP ( 'Revolve - Cutting Edge', #153 ) ;
#39 =( LENGTH_UNIT ( ) NAMED_UNIT ( * ) SI_UNIT ( $, .METRE. ) );
#40 = FACE_OUTER_BOUND ( 'NONE', #147, .T. ) ;
#41 =( GEOMETRIC_REPRESENTATION_CONTEXT ( 3 ) GLOBAL_UNCERTAINTY_ASSIGNED_CONTEXT ( ( #182 ) ) GLOBAL_UNIT_ASSIGNED_CONTEXT ( ( #137, #258, #161 ) ) REPRESENTATION_CONTEXT ( 'NONE', 'WORKASPACE' ) );
#42 = CARTESIAN_POINT ( 'NONE',  ( 0.3125000000000000000, 2.500000000000000000, 3.827021247335479543E-17 ) ) ;
#43 = PRESENTATION_STYLE_ASSIGNMENT (( #145 ) ) ;
#44 = ORIENTED_EDGE ( 'NONE', *, *, #21, .F. ) ;
#45 =( NAMED_UNIT ( * ) PLANE_ANGLE_UNIT ( ) SI_UNIT ( $, .RADIAN. ) );
#46 = MECHANICAL_DESIGN_GEOMETRIC_PRESENTATION_REPRESENTATION (  '', ( #187 ), #127 ) ;
#47 = MANIFOLD_SOLID_BREP ( 'Revolve - Tool Body (Straight Shanked)', #280 ) ;
#48 = FILL_AREA_STYLE ('',( #167 ) ) ;
#49 = VERTEX_POINT ( 'NONE', #178 ) ;
#50 = ORIENTED_EDGE ( 'NONE', *, *, #8, .F. ) ;
#51 = SURFACE_STYLE_USAGE ( .BOTH. , #281 ) ;
#52 = CIRCLE ( 'NONE', #113, 0.3125000000000001665 ) ;
#53 = CIRCLE ( 'NONE', #90, 0.3125000000000000000 ) ;
#54 = LENGTH_MEASURE_WITH_UNIT ( LENGTH_MEASURE( 0.02539999999999999897 ), #80 );
#55 = DIRECTION ( 'NONE',  ( -0.000000000000000000, -1.000000000000000000, -0.000000000000000000 ) ) ;
#56 = EDGE_LOOP ( 'NONE', ( #294, #231 ) ) ;
#57 = SURFACE_STYLE_USAGE ( .BOTH. , #251 ) ;
#58 = PRODUCT_DEFINITION_SHAPE ( 'NONE', 'NONE',  #298 ) ;
#59 = DIRECTION ( 'NONE',  ( -0.000000000000000000, -1.000000000000000000, -0.000000000000000000 ) ) ;
#60 = EDGE_CURVE ( 'NONE', #49, #198, #111, .T. ) ;
#61 = ADVANCED_BREP_SHAPE_REPRESENTATION ( '81846', ( #38, #47, #128 ), #15 ) ;
#62 = DIRECTION ( 'NONE',  ( 1.000000000000000000, 0.000000000000000000, 0.000000000000000000 ) ) ;
#63 =( NAMED_UNIT ( * ) SI_UNIT ( $, .STERADIAN. ) SOLID_ANGLE_UNIT ( ) );
#64 =( NAMED_UNIT ( * ) PLANE_ANGLE_UNIT ( ) SI_UNIT ( $, .RADIAN. ) );
#65 = SURFACE_SIDE_STYLE ('',( #86 ) ) ;
#66 = DIRECTION ( 'NONE',  ( 0.000000000000000000, 0.000000000000000000, 1.000000000000000000 ) ) ;
#67 = AXIS2_PLACEMENT_3D ( 'NONE', #300, #59, #204 ) ;
#68 = FACE_OUTER_BOUND ( 'NONE', #168, .T. ) ;
#69 = FILL_AREA_STYLE_COLOUR ( '', #148 ) ;
#70 = ORIENTED_EDGE ( 'NONE', *, *, #227, .F. ) ;
#71 = DIRECTION ( 'NONE',  ( -0.000000000000000000, -1.000000000000000000, -0.000000000000000000 ) ) ;
#72 = EDGE_LOOP ( 'NONE', ( #290, #264, #189, #50 ) ) ;
#73 = DIRECTION ( 'NONE',  ( 0.000000000000000000, 0.000000000000000000, -1.000000000000000000 ) ) ;
#74 = PRESENTATION_LAYER_ASSIGNMENT (  '', '', ( #92 ) ) ;
#75 = LENGTH_MEASURE_WITH_UNIT ( LENGTH_MEASURE( 0.02539999999999999897 ), #270 );
#76 = UNCERTAINTY_MEASURE_WITH_UNIT (LENGTH_MEASURE( 1.000000000000000082E-05 ), #254, 'distance_accuracy_value', 'NONE');
#77 = DIRECTION ( 'NONE',  ( -0.000000000000000000, -1.000000000000000000, -0.000000000000000000 ) ) ;
#78 = SURFACE_STYLE_FILL_AREA ( #245 ) ;
#79 = VECTOR ( 'NONE', #114, 39.37007874015748143 ) ;
#80 =( LENGTH_UNIT ( ) NAMED_UNIT ( * ) SI_UNIT ( $, .METRE. ) );
#81 =( LENGTH_UNIT ( ) NAMED_UNIT ( * ) SI_UNIT ( $, .METRE. ) );
#82 = DIMENSIONAL_EXPONENTS ( 1.000000000000000000, 0.000000000000000000, 0.000000000000000000, 0.000000000000000000, 0.000000000000000000, 0.000000000000000000, 0.000000000000000000 ) ;
#83 = APPLICATION_CONTEXT ( 'automotive_design' ) ;
#84 = ADVANCED_FACE ( 'NONE', ( #283 ), #16, .T. ) ;
#85 = LENGTH_MEASURE_WITH_UNIT ( LENGTH_MEASURE( 0.02539999999999999897 ), #33 );
#86 = SURFACE_STYLE_FILL_AREA ( #138 ) ;
#87 = FILL_AREA_STYLE_COLOUR ( '', #261 ) ;
#88 = UNCERTAINTY_MEASURE_WITH_UNIT (LENGTH_MEASURE( 1.000000000000000082E-05 ), #272, 'distance_accuracy_value', 'NONE');
#89 = AXIS2_PLACEMENT_3D ( 'NONE', #7, #3, #18 ) ;
#90 = AXIS2_PLACEMENT_3D ( 'NONE', #293, #71, #213 ) ;
#91 = ADVANCED_FACE ( 'NONE', ( #68 ), #135, .T. ) ;
#92 = STYLED_ITEM ( 'NONE', ( #43 ), #112 ) ;
#93 = CIRCLE ( 'NONE', #159, 0.3125000000000000000 ) ;
#94 = CARTESIAN_POINT ( 'NONE',  ( 0.3125000000000000000, 5.000000000000000000, 0.000000000000000000 ) ) ;
#95 = EDGE_CURVE ( 'NONE', #224, #49, #165, .T. ) ;
#96 = DIRECTION ( 'NONE',  ( -4.898587196589412459E-17, 1.000000000000000000, 0.000000000000000000 ) ) ;
#97 = CARTESIAN_POINT ( 'NONE',  ( 0.000000000000000000, 2.500000000000000000, 0.000000000000000000 ) ) ;
#98 = ORIENTED_EDGE ( 'NONE', *, *, #95, .T. ) ;
#99 = APPLICATION_CONTEXT ( 'automotive_design' ) ;
#100 = DIRECTION ( 'NONE',  ( -0.000000000000000000, -1.000000000000000000, -0.000000000000000000 ) ) ;
#101 = DIRECTION ( 'NONE',  ( 0.000000000000000000, 0.000000000000000000, -1.000000000000000000 ) ) ;
#102 = CARTESIAN_POINT ( 'NONE',  ( -1.224646799147353207E-16, 5.000000000000000000, 0.000000000000000000 ) ) ;
#103 =( NAMED_UNIT ( * ) SI_UNIT ( $, .STERADIAN. ) SOLID_ANGLE_UNIT ( ) );
#104 = CARTESIAN_POINT ( 'NONE',  ( 0.000000000000000000, 0.000000000000000000, -0.3125000000000000000 ) ) ;
#105 = DIMENSIONAL_EXPONENTS ( 1.000000000000000000, 0.000000000000000000, 0.000000000000000000, 0.000000000000000000, 0.000000000000000000, 0.000000000000000000, 0.000000000000000000 ) ;
#106 = PRESENTATION_STYLE_ASSIGNMENT (( #51 ) ) ;
#107 =( NAMED_UNIT ( * ) PLANE_ANGLE_UNIT ( ) SI_UNIT ( $, .RADIAN. ) );
#108 = COLOUR_RGB ( '',1.000000000000000000, 0.000000000000000000, 0.000000000000000000 ) ;
#109 = DIRECTION ( 'NONE',  ( -1.000000000000000000, 0.000000000000000000, 0.000000000000000000 ) ) ;
#110 = CARTESIAN_POINT ( 'NONE',  ( -0.3125000000000002220, 5.000000000000000000, 0.000000000000000000 ) ) ;
#111 = LINE ( 'NONE', #110, #79 ) ;
#112 = ADVANCED_FACE ( 'NONE', ( #40 ), #169, .T. ) ;
#113 = AXIS2_PLACEMENT_3D ( 'NONE', #102, #156, #246 ) ;
#114 = DIRECTION ( 'NONE',  ( -4.898587196589412459E-17, 1.000000000000000000, -0.000000000000000000 ) ) ;
#115 = DIRECTION ( 'NONE',  ( 0.000000000000000000, 1.000000000000000000, 0.000000000000000000 ) ) ;
#116 = DIRECTION ( 'NONE',  ( -1.000000000000000000, 0.000000000000000000, 0.000000000000000000 ) ) ;
#117 = PRESENTATION_LAYER_ASSIGNMENT (  '', '', ( #23 ) ) ;
#118 = EDGE_LOOP ( 'NONE', ( #218, #237, #242, #44 ) ) ;
#119 = FACE_OUTER_BOUND ( 'NONE', #151, .T. ) ;
#120 = PRODUCT_RELATED_PRODUCT_CATEGORY ( 'part', '', ( #123 ) ) ;
#121 = ORIENTED_EDGE ( 'NONE', *, *, #279, .T. ) ;
#122 = DIRECTION ( 'NONE',  ( 0.000000000000000000, 0.000000000000000000, -1.000000000000000000 ) ) ;
#123 = PRODUCT ( '81846', '81846', '', ( #183 ) ) ;
#124 = CARTESIAN_POINT ( 'NONE',  ( 0.000000000000000000, 0.000000000000000000, 0.000000000000000000 ) ) ;
#125 = ORIENTED_EDGE ( 'NONE', *, *, #227, .T. ) ;
#126 = DIRECTION ( 'NONE',  ( -4.898587196589412459E-17, 1.000000000000000000, -0.000000000000000000 ) ) ;
#127 =( GEOMETRIC_REPRESENTATION_CONTEXT ( 3 ) GLOBAL_UNCERTAINTY_ASSIGNED_CONTEXT ( ( #76 ) ) GLOBAL_UNIT_ASSIGNED_CONTEXT ( ( #254, #64, #63 ) ) REPRESENTATION_CONTEXT ( 'NONE', 'WORKASPACE' ) );
#128 = AXIS2_PLACEMENT_3D ( 'NONE', #34, #66, #62 ) ;
#129 = CARTESIAN_POINT ( 'NONE',  ( 0.000000000000000000, 0.000000000000000000, -0.3125000000000000000 ) ) ;
#130 =( CONVERSION_BASED_UNIT ( 'INCH', #85 ) LENGTH_UNIT ( ) NAMED_UNIT ( #177 ) );
#131 = SURFACE_SIDE_STYLE ('',( #28 ) ) ;
#132 = CARTESIAN_POINT ( 'NONE',  ( 0.000000000000000000, 0.000000000000000000, 0.000000000000000000 ) ) ;
#133 = CARTESIAN_POINT ( 'NONE',  ( -1.224646799147353207E-16, 5.000000000000000000, 0.000000000000000000 ) ) ;
#134 = CYLINDRICAL_SURFACE ( 'NONE', #296, 0.3125000000000000555 ) ;
#135 = CYLINDRICAL_SURFACE ( 'NONE', #164, 0.3125000000000000555 ) ;
#136 = PRESENTATION_LAYER_ASSIGNMENT (  '', '', ( #154 ) ) ;
#137 =( CONVERSION_BASED_UNIT ( 'INCH', #1 ) LENGTH_UNIT ( ) NAMED_UNIT ( #82 ) );
#138 = FILL_AREA_STYLE ('',( #305 ) ) ;
#139 = AXIS2_PLACEMENT_3D ( 'NONE', #223, #303, #176 ) ;
#140 = APPLICATION_PROTOCOL_DEFINITION ( 'draft international standard', 'automotive_design', 1998, #83 ) ;
#141 = ORIENTED_EDGE ( 'NONE', *, *, #27, .F. ) ;
#142 = DIRECTION ( 'NONE',  ( -4.898587196589413075E-17, 1.000000000000000000, -0.000000000000000000 ) ) ;
#143 = ORIENTED_EDGE ( 'NONE', *, *, #27, .T. ) ;
#144 = EDGE_CURVE ( 'NONE', #198, #191, #225, .T. ) ;
#145 = SURFACE_STYLE_USAGE ( .BOTH. , #238 ) ;
#146 = COLOUR_RGB ( '',0.7921568627450980005, 0.8196078431372548767, 0.9333333333333333481 ) ;
#147 = EDGE_LOOP ( 'NONE', ( #121, #17 ) ) ;
#148 = COLOUR_RGB ( '',1.000000000000000000, 0.000000000000000000, 0.000000000000000000 ) ;
#149 = CYLINDRICAL_SURFACE ( 'NONE', #67, 0.3125000000000000000 ) ;
#150 = ADVANCED_FACE ( 'NONE', ( #119 ), #6, .F. ) ;
#151 = EDGE_LOOP ( 'NONE', ( #70, #5 ) ) ;
#152 = SURFACE_STYLE_FILL_AREA ( #48 ) ;
#153 = CLOSED_SHELL ( 'NONE', ( #248, #84, #301, #112 ) ) ;
#154 = STYLED_ITEM ( 'NONE', ( #199 ), #38 ) ;
#155 = MECHANICAL_DESIGN_GEOMETRIC_PRESENTATION_REPRESENTATION (  '', ( #31 ), #171 ) ;
#156 = DIRECTION ( 'NONE',  ( -4.898587196589413075E-17, 1.000000000000000000, -0.000000000000000000 ) ) ;
#157 = LENGTH_MEASURE_WITH_UNIT ( LENGTH_MEASURE( 0.02539999999999999897 ), #275 );
#158 = MECHANICAL_DESIGN_GEOMETRIC_PRESENTATION_REPRESENTATION (  '', ( #23 ), #41 ) ;
#159 = AXIS2_PLACEMENT_3D ( 'NONE', #172, #142, #116 ) ;
#160 = DIRECTION ( 'NONE',  ( -4.898587196589413075E-17, 1.000000000000000000, -0.000000000000000000 ) ) ;
#161 =( NAMED_UNIT ( * ) SI_UNIT ( $, .STERADIAN. ) SOLID_ANGLE_UNIT ( ) );
#162 = AXIS2_PLACEMENT_3D ( 'NONE', #181, #207, #286 ) ;
#163 = SHAPE_DEFINITION_REPRESENTATION ( #58, #61 ) ;
#164 = AXIS2_PLACEMENT_3D ( 'NONE', #13, #37, #109 ) ;
#165 = CIRCLE ( 'NONE', #162, 0.3125000000000000000 ) ;
#166 = FACE_OUTER_BOUND ( 'NONE', #239, .T. ) ;
#167 = FILL_AREA_STYLE_COLOUR ( '', #108 ) ;
#168 = EDGE_LOOP ( 'NONE', ( #125, #20, #292, #244 ) ) ;
#169 = PLANE ( 'NONE',  #180 ) ;
#170 = VECTOR ( 'NONE', #9, 39.37007874015748143 ) ;
#171 =( GEOMETRIC_REPRESENTATION_CONTEXT ( 3 ) GLOBAL_UNCERTAINTY_ASSIGNED_CONTEXT ( ( #230 ) ) GLOBAL_UNIT_ASSIGNED_CONTEXT ( ( #130, #247, #29 ) ) REPRESENTATION_CONTEXT ( 'NONE', 'WORKASPACE' ) );
#172 = CARTESIAN_POINT ( 'NONE',  ( 1.516480271171051896E-32, 2.500000000000000000, 0.000000000000000000 ) ) ;
#173 = EDGE_CURVE ( 'NONE', #224, #191, #216, .T. ) ;
#174 = FILL_AREA_STYLE_COLOUR ( '', #215 ) ;
#175 = CARTESIAN_POINT ( 'NONE',  ( 3.827021247335478926E-17, 2.500000000000000000, 0.3125000000000000000 ) ) ;
#176 = DIRECTION ( 'NONE',  ( 0.000000000000000000, 0.000000000000000000, -1.000000000000000000 ) ) ;
#177 = DIMENSIONAL_EXPONENTS ( 1.000000000000000000, 0.000000000000000000, 0.000000000000000000, 0.000000000000000000, 0.000000000000000000, 0.000000000000000000, 0.000000000000000000 ) ;
#178 = CARTESIAN_POINT ( 'NONE',  ( -0.3125000000000000000, 2.500000000000000000, 0.000000000000000000 ) ) ;
#179 = EDGE_CURVE ( 'NONE', #265, #235, #297, .T. ) ;
#180 = AXIS2_PLACEMENT_3D ( 'NONE', #124, #295, #122 ) ;
#181 = CARTESIAN_POINT ( 'NONE',  ( 1.516480271171051896E-32, 2.500000000000000000, 0.000000000000000000 ) ) ;
#182 = UNCERTAINTY_MEASURE_WITH_UNIT (LENGTH_MEASURE( 1.000000000000000082E-05 ), #137, 'distance_accuracy_value', 'NONE');
#183 = PRODUCT_CONTEXT ( 'NONE', #83, 'mechanical' ) ;
#184 = SURFACE_STYLE_FILL_AREA ( #212 ) ;
#185 = EDGE_CURVE ( 'NONE', #221, #265, #30, .T. ) ;
#186 = LENGTH_MEASURE_WITH_UNIT ( LENGTH_MEASURE( 0.02539999999999999897 ), #39 );
#187 = STYLED_ITEM ( 'NONE', ( #208 ), #84 ) ;
#188 = CIRCLE ( 'NONE', #211, 0.3125000000000000000 ) ;
#189 = ORIENTED_EDGE ( 'NONE', *, *, #279, .F. ) ;
#190 = CARTESIAN_POINT ( 'NONE',  ( 0.000000000000000000, 2.500000000000000000, -0.3125000000000000000 ) ) ;
#191 = VERTEX_POINT ( 'NONE', #197 ) ;
#192 = DIRECTION ( 'NONE',  ( 1.000000000000000000, 4.898587196589412459E-17, 0.000000000000000000 ) ) ;
#193 = ORIENTED_EDGE ( 'NONE', *, *, #60, .T. ) ;
#194 = CARTESIAN_POINT ( 'NONE',  ( 3.749399456654644447E-34, 2.500000000000000000, 0.000000000000000000 ) ) ;
#195 = MECHANICAL_DESIGN_GEOMETRIC_PRESENTATION_REPRESENTATION (  '', ( #154 ), #36 ) ;
#196 = PRODUCT_DEFINITION_FORMATION_WITH_SPECIFIED_SOURCE ( 'ANY', '', #123, .NOT_KNOWN. ) ;
#197 = CARTESIAN_POINT ( 'NONE',  ( 0.3125000000000000000, 5.000000000000000000, 3.827021247335479543E-17 ) ) ;
#198 = VERTEX_POINT ( 'NONE', #232 ) ;
#199 = PRESENTATION_STYLE_ASSIGNMENT (( #299 ) ) ;
#200 = ADVANCED_FACE ( 'NONE', ( #166 ), #263, .F. ) ;
#201 = ORIENTED_EDGE ( 'NONE', *, *, #173, .F. ) ;
#202 = DIMENSIONAL_EXPONENTS ( 1.000000000000000000, 0.000000000000000000, 0.000000000000000000, 0.000000000000000000, 0.000000000000000000, 0.000000000000000000, 0.000000000000000000 ) ;
#203 = DIRECTION ( 'NONE',  ( -1.000000000000000000, 0.000000000000000000, 0.000000000000000000 ) ) ;
#204 = DIRECTION ( 'NONE',  ( 0.000000000000000000, 0.000000000000000000, -1.000000000000000000 ) ) ;
#205 = CIRCLE ( 'NONE', #214, 0.3125000000000000000 ) ;
#206 = UNCERTAINTY_MEASURE_WITH_UNIT (LENGTH_MEASURE( 1.000000000000000082E-05 ), #217, 'distance_accuracy_value', 'NONE');
#207 = DIRECTION ( 'NONE',  ( -4.898587196589413075E-17, 1.000000000000000000, -0.000000000000000000 ) ) ;
#208 = PRESENTATION_STYLE_ASSIGNMENT (( #35 ) ) ;
#209 = PRESENTATION_STYLE_ASSIGNMENT (( #307 ) ) ;
#210 = AXIS2_PLACEMENT_3D ( 'NONE', #97, #100, #73 ) ;
#211 = AXIS2_PLACEMENT_3D ( 'NONE', #132, #77, #226 ) ;
#212 = FILL_AREA_STYLE ('',( #87 ) ) ;
#213 = DIRECTION ( 'NONE',  ( 0.000000000000000000, 0.000000000000000000, -1.000000000000000000 ) ) ;
#214 = AXIS2_PLACEMENT_3D ( 'NONE', #10, #55, #101 ) ;
#215 = COLOUR_RGB ( '',1.000000000000000000, 0.000000000000000000, 0.000000000000000000 ) ;
#216 = LINE ( 'NONE', #22, #267 ) ;
#217 =( CONVERSION_BASED_UNIT ( 'INCH', #75 ) LENGTH_UNIT ( ) NAMED_UNIT ( #257 ) );
#218 = ORIENTED_EDGE ( 'NONE', *, *, #179, .F. ) ;
#219 = PRESENTATION_LAYER_ASSIGNMENT (  '', '', ( #187 ) ) ;
#220 = CARTESIAN_POINT ( 'NONE',  ( 3.827021247335478926E-17, 0.000000000000000000, 0.3125000000000000000 ) ) ;
#221 = VERTEX_POINT ( 'NONE', #190 ) ;
#222 = FACE_OUTER_BOUND ( 'NONE', #2, .T. ) ;
#223 = CARTESIAN_POINT ( 'NONE',  ( 0.000000000000000000, 0.000000000000000000, 0.000000000000000000 ) ) ;
#224 = VERTEX_POINT ( 'NONE', #42 ) ;
#225 = CIRCLE ( 'NONE', #89, 0.3125000000000001665 ) ;
#226 = DIRECTION ( 'NONE',  ( 0.000000000000000000, 0.000000000000000000, -1.000000000000000000 ) ) ;
#227 = EDGE_CURVE ( 'NONE', #49, #224, #93, .T. ) ;
#228 = EDGE_CURVE ( 'NONE', #265, #221, #53, .T. ) ;
#229 = STYLED_ITEM ( 'NONE', ( #273 ), #301 ) ;
#230 = UNCERTAINTY_MEASURE_WITH_UNIT (LENGTH_MEASURE( 1.000000000000000082E-05 ), #130, 'distance_accuracy_value', 'NONE');
#231 = ORIENTED_EDGE ( 'NONE', *, *, #228, .F. ) ;
#232 = CARTESIAN_POINT ( 'NONE',  ( -0.3125000000000002776, 5.000000000000000000, 0.000000000000000000 ) ) ;
#233 = ORIENTED_EDGE ( 'NONE', *, *, #144, .T. ) ;
#234 =( NAMED_UNIT ( * ) SI_UNIT ( $, .STERADIAN. ) SOLID_ANGLE_UNIT ( ) );
#235 = VERTEX_POINT ( 'NONE', #291 ) ;
#236 = SURFACE_STYLE_FILL_AREA ( #269 ) ;
#237 = ORIENTED_EDGE ( 'NONE', *, *, #228, .T. ) ;
#238 = SURFACE_SIDE_STYLE ('',( #152 ) ) ;
#239 = EDGE_LOOP ( 'NONE', ( #233, #143 ) ) ;
#240 = DIRECTION ( 'NONE',  ( -1.000000000000000000, -4.898587196589412459E-17, 0.000000000000000000 ) ) ;
#241 =( GEOMETRIC_REPRESENTATION_CONTEXT ( 3 ) GLOBAL_UNCERTAINTY_ASSIGNED_CONTEXT ( ( #26 ) ) GLOBAL_UNIT_ASSIGNED_CONTEXT ( ( #243, #107, #103 ) ) REPRESENTATION_CONTEXT ( 'NONE', 'WORKASPACE' ) );
#242 = ORIENTED_EDGE ( 'NONE', *, *, #8, .T. ) ;
#243 =( CONVERSION_BASED_UNIT ( 'INCH', #157 ) LENGTH_UNIT ( ) NAMED_UNIT ( #202 ) );
#244 = ORIENTED_EDGE ( 'NONE', *, *, #60, .F. ) ;
#245 = FILL_AREA_STYLE ('',( #174 ) ) ;
#246 = DIRECTION ( 'NONE',  ( -1.000000000000000000, 0.000000000000000000, 0.000000000000000000 ) ) ;
#247 =( NAMED_UNIT ( * ) PLANE_ANGLE_UNIT ( ) SI_UNIT ( $, .RADIAN. ) );
#248 = ADVANCED_FACE ( 'NONE', ( #266 ), #149, .T. ) ;
#249 = AXIS2_PLACEMENT_3D ( 'NONE', #94, #4, #192 ) ;
#250 = FACE_OUTER_BOUND ( 'NONE', #118, .T. ) ;
#251 = SURFACE_SIDE_STYLE ('',( #78 ) ) ;
#252 =( CONVERSION_BASED_UNIT ( 'INCH', #32 ) LENGTH_UNIT ( ) NAMED_UNIT ( #105 ) );
#253 = VECTOR ( 'NONE', #11, 39.37007874015748143 ) ;
#254 =( CONVERSION_BASED_UNIT ( 'INCH', #186 ) LENGTH_UNIT ( ) NAMED_UNIT ( #282 ) );
#255 = MECHANICAL_DESIGN_GEOMETRIC_PRESENTATION_REPRESENTATION (  '', ( #229 ), #241 ) ;
#256 = ADVANCED_FACE ( 'NONE', ( #222 ), #134, .T. ) ;
#257 = DIMENSIONAL_EXPONENTS ( 1.000000000000000000, 0.000000000000000000, 0.000000000000000000, 0.000000000000000000, 0.000000000000000000, 0.000000000000000000, 0.000000000000000000 ) ;
#258 =( NAMED_UNIT ( * ) PLANE_ANGLE_UNIT ( ) SI_UNIT ( $, .RADIAN. ) );
#259 = UNCERTAINTY_MEASURE_WITH_UNIT (LENGTH_MEASURE( 1.000000000000000082E-05 ), #252, 'distance_accuracy_value', 'NONE');
#260 = SURFACE_SIDE_STYLE ('',( #184 ) ) ;
#261 = COLOUR_RGB ( '',1.000000000000000000, 0.000000000000000000, 0.000000000000000000 ) ;
#262 = PRESENTATION_LAYER_ASSIGNMENT (  '', '', ( #31 ) ) ;
#263 = PLANE ( 'NONE',  #249 ) ;
#264 = ORIENTED_EDGE ( 'NONE', *, *, #179, .T. ) ;
#265 = VERTEX_POINT ( 'NONE', #175 ) ;
#266 = FACE_OUTER_BOUND ( 'NONE', #72, .T. ) ;
#267 = VECTOR ( 'NONE', #126, 39.37007874015748143 ) ;
#268 = PRESENTATION_LAYER_ASSIGNMENT (  '', '', ( #229 ) ) ;
#269 = FILL_AREA_STYLE ('',( #69 ) ) ;
#270 =( LENGTH_UNIT ( ) NAMED_UNIT ( * ) SI_UNIT ( $, .METRE. ) );
#271 = PRODUCT_DEFINITION_CONTEXT ( 'detailed design', #99, 'design' ) ;
#272 =( CONVERSION_BASED_UNIT ( 'INCH', #54 ) LENGTH_UNIT ( ) NAMED_UNIT ( #12 ) );
#273 = PRESENTATION_STYLE_ASSIGNMENT (( #57 ) ) ;
#274 =( NAMED_UNIT ( * ) PLANE_ANGLE_UNIT ( ) SI_UNIT ( $, .RADIAN. ) );
#275 =( LENGTH_UNIT ( ) NAMED_UNIT ( * ) SI_UNIT ( $, .METRE. ) );
#276 = LINE ( 'NONE', #129, #253 ) ;
#277 = CYLINDRICAL_SURFACE ( 'NONE', #139, 0.3125000000000000000 ) ;
#278 = FILL_AREA_STYLE_COLOUR ( '', #14 ) ;
#279 = EDGE_CURVE ( 'NONE', #24, #235, #188, .T. ) ;
#280 = CLOSED_SHELL ( 'NONE', ( #91, #150, #256, #200 ) ) ;
#281 = SURFACE_SIDE_STYLE ('',( #236 ) ) ;
#282 = DIMENSIONAL_EXPONENTS ( 1.000000000000000000, 0.000000000000000000, 0.000000000000000000, 0.000000000000000000, 0.000000000000000000, 0.000000000000000000, 0.000000000000000000 ) ;
#283 = FACE_OUTER_BOUND ( 'NONE', #56, .T. ) ;
#284 =( NAMED_UNIT ( * ) SI_UNIT ( $, .STERADIAN. ) SOLID_ANGLE_UNIT ( ) );
#285 =( GEOMETRIC_REPRESENTATION_CONTEXT ( 3 ) GLOBAL_UNCERTAINTY_ASSIGNED_CONTEXT ( ( #206 ) ) GLOBAL_UNIT_ASSIGNED_CONTEXT ( ( #217, #45, #234 ) ) REPRESENTATION_CONTEXT ( 'NONE', 'WORKASPACE' ) );
#286 = DIRECTION ( 'NONE',  ( -1.000000000000000000, 0.000000000000000000, 0.000000000000000000 ) ) ;
#287 = APPLICATION_PROTOCOL_DEFINITION ( 'draft international standard', 'automotive_design', 1998, #99 ) ;
#288 =( LENGTH_UNIT ( ) NAMED_UNIT ( * ) SI_UNIT ( $, .METRE. ) );
#289 = DIRECTION ( 'NONE',  ( 0.000000000000000000, -0.000000000000000000, 1.000000000000000000 ) ) ;
#290 = ORIENTED_EDGE ( 'NONE', *, *, #185, .T. ) ;
#291 = CARTESIAN_POINT ( 'NONE',  ( 3.827021247335478926E-17, 0.000000000000000000, 0.3125000000000000000 ) ) ;
#292 = ORIENTED_EDGE ( 'NONE', *, *, #144, .F. ) ;
#293 = CARTESIAN_POINT ( 'NONE',  ( 0.000000000000000000, 2.500000000000000000, 0.000000000000000000 ) ) ;
#294 = ORIENTED_EDGE ( 'NONE', *, *, #185, .F. ) ;
#295 = DIRECTION ( 'NONE',  ( 0.000000000000000000, -1.000000000000000000, -0.000000000000000000 ) ) ;
#296 = AXIS2_PLACEMENT_3D ( 'NONE', #133, #160, #203 ) ;
#297 = LINE ( 'NONE', #220, #170 ) ;
#298 = PRODUCT_DEFINITION ( 'UNKNOWN', '', #196, #271 ) ;
#299 = SURFACE_STYLE_USAGE ( .BOTH. , #131 ) ;
#300 = CARTESIAN_POINT ( 'NONE',  ( 0.000000000000000000, 0.000000000000000000, 0.000000000000000000 ) ) ;
#301 = ADVANCED_FACE ( 'NONE', ( #250 ), #277, .T. ) ;
#302 = FILL_AREA_STYLE ('',( #278 ) ) ;
#303 = DIRECTION ( 'NONE',  ( -0.000000000000000000, -1.000000000000000000, -0.000000000000000000 ) ) ;
#304 = AXIS2_PLACEMENT_3D ( 'NONE', #309, #115, #289 ) ;
#305 = FILL_AREA_STYLE_COLOUR ( '', #146 ) ;
#306 =( NAMED_UNIT ( * ) PLANE_ANGLE_UNIT ( ) SI_UNIT ( $, .RADIAN. ) );
#307 = SURFACE_STYLE_USAGE ( .BOTH. , #65 ) ;
#308 = AXIS2_PLACEMENT_3D ( 'NONE', #194, #96, #240 ) ;
#309 = CARTESIAN_POINT ( 'NONE',  ( 0.000000000000000000, 2.500000000000000000, 0.000000000000000000 ) ) ;
ENDSEC;
END-ISO-10303-21;
