ISO-10303-21;
HEADER;
FILE_DESCRIPTION (( 'STEP AP214' ),
    '1' );
FILE_NAME ('84751.STEP',
    '2023-06-30T23:42:10',
    ( '' ),
    ( '' ),
    'SwSTEP 2.0',
    'SolidWorks 2023',
    '' );
FILE_SCHEMA (( 'AUTOMOTIVE_DESIGN' ));
ENDSEC;

DATA;
#1 = DIRECTION ( 'NONE',  ( 1.789868398753824373E-16, 1.000000000000000000, -0.000000000000000000 ) ) ;
#2 = SURFACE_STYLE_FILL_AREA ( #323 ) ;
#3 = CARTESIAN_POINT ( 'NONE',  ( 1.990051048614449116E-16, 0.8749999999999997780, 0.000000000000000000 ) ) ;
#4 =( NAMED_UNIT ( * ) SI_UNIT ( $, .STERADIAN. ) SOLID_ANGLE_UNIT ( ) );
#5 = PRESENTATION_LAYER_ASSIGNMENT (  '', '', ( #240 ) ) ;
#6 = MECHANICAL_DESIGN_GEOMETRIC_PRESENTATION_REPRESENTATION (  '', ( #330 ), #353 ) ;
#7 = SURFACE_STYLE_FILL_AREA ( #347 ) ;
#8 = AXIS2_PLACEMENT_3D ( 'NONE', #257, #1, #54 ) ;
#9 = PRODUCT_DEFINITION_FORMATION_WITH_SPECIFIED_SOURCE ( 'ANY', '', #160, .NOT_KNOWN. ) ;
#10 = DIMENSIONAL_EXPONENTS ( 1.000000000000000000, 0.000000000000000000, 0.000000000000000000, 0.000000000000000000, 0.000000000000000000, 0.000000000000000000, 0.000000000000000000 ) ;
#11 = EDGE_LOOP ( 'NONE', ( #43, #304, #268, #247 ) ) ;
#12 =( GEOMETRIC_REPRESENTATION_CONTEXT ( 3 ) GLOBAL_UNCERTAINTY_ASSIGNED_CONTEXT ( ( #47 ) ) GLOBAL_UNIT_ASSIGNED_CONTEXT ( ( #149, #61, #97 ) ) REPRESENTATION_CONTEXT ( 'NONE', 'WORKASPACE' ) );
#13 = EDGE_LOOP ( 'NONE', ( #273, #187, #298, #220 ) ) ;
#14 = CARTESIAN_POINT ( 'NONE',  ( 0.000000000000000000, 0.06250000000000001388, -0.06250000000000001388 ) ) ;
#15 = ORIENTED_EDGE ( 'NONE', *, *, #356, .T. ) ;
#16 = DIRECTION ( 'NONE',  ( -0.000000000000000000, -1.000000000000000000, -0.000000000000000000 ) ) ;
#17 = SURFACE_STYLE_FILL_AREA ( #246 ) ;
#18 = VERTEX_POINT ( 'NONE', #171 ) ;
#19 = MECHANICAL_DESIGN_GEOMETRIC_PRESENTATION_REPRESENTATION (  '', ( #240 ), #302 ) ;
#20 =( GEOMETRIC_REPRESENTATION_CONTEXT ( 3 ) GLOBAL_UNCERTAINTY_ASSIGNED_CONTEXT ( ( #293 ) ) GLOBAL_UNIT_ASSIGNED_CONTEXT ( ( #333, #166, #75 ) ) REPRESENTATION_CONTEXT ( 'NONE', 'WORKASPACE' ) );
#21 = DIRECTION ( 'NONE',  ( 1.789868398753824373E-16, 1.000000000000000000, -0.000000000000000000 ) ) ;
#22 = DIRECTION ( 'NONE',  ( 0.000000000000000000, 0.000000000000000000, -1.000000000000000000 ) ) ;
#23 = CYLINDRICAL_SURFACE ( 'NONE', #125, 0.06249999999999995143 ) ;
#24 =( LENGTH_UNIT ( ) NAMED_UNIT ( * ) SI_UNIT ( $, .METRE. ) );
#25 = FILL_AREA_STYLE_COLOUR ( '', #96 ) ;
#26 = SURFACE_SIDE_STYLE ('',( #92 ) ) ;
#27 = VECTOR ( 'NONE', #230, 39.37007874015748143 ) ;
#28 = DIRECTION ( 'NONE',  ( 1.789868398753824373E-16, 1.000000000000000000, -0.000000000000000000 ) ) ;
#29 = VERTEX_POINT ( 'NONE', #208 ) ;
#30 = FILL_AREA_STYLE_COLOUR ( '', #222 ) ;
#31 = MECHANICAL_DESIGN_GEOMETRIC_PRESENTATION_REPRESENTATION (  '', ( #303 ), #63 ) ;
#32 = DIMENSIONAL_EXPONENTS ( 1.000000000000000000, 0.000000000000000000, 0.000000000000000000, 0.000000000000000000, 0.000000000000000000, 0.000000000000000000, 0.000000000000000000 ) ;
#33 = CIRCLE ( 'NONE', #249, 0.06249999999999969469 ) ;
#34 =( LENGTH_UNIT ( ) NAMED_UNIT ( * ) SI_UNIT ( $, .METRE. ) );
#35 = EDGE_CURVE ( 'NONE', #46, #329, #154, .T. ) ;
#36 = ORIENTED_EDGE ( 'NONE', *, *, #131, .F. ) ;
#37 = CARTESIAN_POINT ( 'NONE',  ( 0.000000000000000000, 0.06250000000000001388, 0.000000000000000000 ) ) ;
#38 = ORIENTED_EDGE ( 'NONE', *, *, #271, .F. ) ;
#39 = UNCERTAINTY_MEASURE_WITH_UNIT (LENGTH_MEASURE( 1.000000000000000082E-05 ), #313, 'distance_accuracy_value', 'NONE');
#40 = MECHANICAL_DESIGN_GEOMETRIC_PRESENTATION_REPRESENTATION (  '', ( #277 ), #343 ) ;
#41 = VECTOR ( 'NONE', #252, 39.37007874015748143 ) ;
#42 = ADVANCED_FACE ( 'NONE', ( #318 ), #203, .T. ) ;
#43 = ORIENTED_EDGE ( 'NONE', *, *, #81, .F. ) ;
#44 = DIRECTION ( 'NONE',  ( 0.000000000000000000, 0.000000000000000000, -1.000000000000000000 ) ) ;
#45 = PRESENTATION_STYLE_ASSIGNMENT (( #73 ) ) ;
#46 = VERTEX_POINT ( 'NONE', #200 ) ;
#47 = UNCERTAINTY_MEASURE_WITH_UNIT (LENGTH_MEASURE( 1.000000000000000082E-05 ), #149, 'distance_accuracy_value', 'NONE');
#48 = ORIENTED_EDGE ( 'NONE', *, *, #205, .T. ) ;
#49 = LENGTH_MEASURE_WITH_UNIT ( LENGTH_MEASURE( 0.02539999999999999897 ), #24 );
#50 = LENGTH_MEASURE_WITH_UNIT ( LENGTH_MEASURE( 0.02539999999999999897 ), #98 );
#51 = PRESENTATION_STYLE_ASSIGNMENT (( #226 ) ) ;
#52 = CARTESIAN_POINT ( 'NONE',  ( 1.990051048614449116E-16, 0.8750000000000000000, 0.000000000000000000 ) ) ;
#53 = FACE_OUTER_BOUND ( 'NONE', #11, .T. ) ;
#54 = DIRECTION ( 'NONE',  ( -1.000000000000000000, 0.000000000000000000, 0.000000000000000000 ) ) ;
#55 =( NAMED_UNIT ( * ) SI_UNIT ( $, .STERADIAN. ) SOLID_ANGLE_UNIT ( ) );
#56 = ADVANCED_FACE ( 'NONE', ( #53 ), #156, .T. ) ;
#57 = PRESENTATION_LAYER_ASSIGNMENT (  '', '', ( #178 ) ) ;
#58 = LENGTH_MEASURE_WITH_UNIT ( LENGTH_MEASURE( 0.02539999999999999897 ), #320 );
#59 = CIRCLE ( 'NONE', #209, 0.06249999999999945877 ) ;
#60 = SURFACE_STYLE_USAGE ( .BOTH. , #172 ) ;
#61 =( NAMED_UNIT ( * ) PLANE_ANGLE_UNIT ( ) SI_UNIT ( $, .RADIAN. ) );
#62 = UNCERTAINTY_MEASURE_WITH_UNIT (LENGTH_MEASURE( 1.000000000000000082E-05 ), #315, 'distance_accuracy_value', 'NONE');
#63 =( GEOMETRIC_REPRESENTATION_CONTEXT ( 3 ) GLOBAL_UNCERTAINTY_ASSIGNED_CONTEXT ( ( #280 ) ) GLOBAL_UNIT_ASSIGNED_CONTEXT ( ( #285, #354, #262 ) ) REPRESENTATION_CONTEXT ( 'NONE', 'WORKASPACE' ) );
#64 = ADVANCED_FACE ( 'NONE', ( #78 ), #23, .T. ) ;
#65 = PRODUCT_DEFINITION_SHAPE ( 'NONE', 'NONE',  #91 ) ;
#66 = ORIENTED_EDGE ( 'NONE', *, *, #100, .F. ) ;
#67 = AXIS2_PLACEMENT_3D ( 'NONE', #272, #365, #367 ) ;
#68 = DIRECTION ( 'NONE',  ( -1.789868398753824373E-16, -1.000000000000000000, 0.000000000000000000 ) ) ;
#69 =( LENGTH_UNIT ( ) NAMED_UNIT ( * ) SI_UNIT ( $, .METRE. ) );
#70 = EDGE_LOOP ( 'NONE', ( #66, #161, #334, #36, #189 ) ) ;
#71 = DIRECTION ( 'NONE',  ( 0.000000000000000000, 0.000000000000000000, -1.000000000000000000 ) ) ;
#72 =( GEOMETRIC_REPRESENTATION_CONTEXT ( 3 ) GLOBAL_UNCERTAINTY_ASSIGNED_CONTEXT ( ( #39 ) ) GLOBAL_UNIT_ASSIGNED_CONTEXT ( ( #313, #77, #371 ) ) REPRESENTATION_CONTEXT ( 'NONE', 'WORKASPACE' ) );
#73 = SURFACE_STYLE_USAGE ( .BOTH. , #238 ) ;
#74 = AXIS2_PLACEMENT_3D ( 'NONE', #119, #227, #87 ) ;
#75 =( NAMED_UNIT ( * ) SI_UNIT ( $, .STERADIAN. ) SOLID_ANGLE_UNIT ( ) );
#76 = DIRECTION ( 'NONE',  ( 0.000000000000000000, 0.000000000000000000, -1.000000000000000000 ) ) ;
#77 =( NAMED_UNIT ( * ) PLANE_ANGLE_UNIT ( ) SI_UNIT ( $, .RADIAN. ) );
#78 = FACE_OUTER_BOUND ( 'NONE', #186, .T. ) ;
#79 = DIRECTION ( 'NONE',  ( 0.000000000000000000, 0.000000000000000000, -1.000000000000000000 ) ) ;
#80 = DIRECTION ( 'NONE',  ( 1.000000000000000000, 0.000000000000000000, 0.000000000000000000 ) ) ;
#81 = EDGE_CURVE ( 'NONE', #157, #192, #289, .T. ) ;
#82 = DIRECTION ( 'NONE',  ( -1.000000000000000000, 0.000000000000000000, 0.000000000000000000 ) ) ;
#83 = SPHERICAL_SURFACE ( 'NONE', #322, 0.06250000000000001388 ) ;
#84 = UNCERTAINTY_MEASURE_WITH_UNIT (LENGTH_MEASURE( 1.000000000000000082E-05 ), #148, 'distance_accuracy_value', 'NONE');
#85 = MECHANICAL_DESIGN_GEOMETRIC_PRESENTATION_REPRESENTATION (  '', ( #311 ), #259 ) ;
#86 = FILL_AREA_STYLE ('',( #223 ) ) ;
#87 = DIRECTION ( 'NONE',  ( 0.000000000000000000, 0.000000000000000000, -1.000000000000000000 ) ) ;
#88 = SURFACE_SIDE_STYLE ('',( #7 ) ) ;
#89 = DIRECTION ( 'NONE',  ( 0.000000000000000000, 1.000000000000000000, 0.000000000000000000 ) ) ;
#90 = DIRECTION ( 'NONE',  ( 1.000000000000000000, 0.000000000000000000, 0.000000000000000000 ) ) ;
#91 = PRODUCT_DEFINITION ( 'UNKNOWN', '', #9, #117 ) ;
#92 = SURFACE_STYLE_FILL_AREA ( #173 ) ;
#93 = DIRECTION ( 'NONE',  ( -1.000000000000000000, 0.000000000000000000, 0.000000000000000000 ) ) ;
#94 = LINE ( 'NONE', #260, #184 ) ;
#95 = STYLED_ITEM ( 'NONE', ( #106 ), #64 ) ;
#96 = COLOUR_RGB ( '',1.000000000000000000, 0.000000000000000000, 0.000000000000000000 ) ;
#97 =( NAMED_UNIT ( * ) SI_UNIT ( $, .STERADIAN. ) SOLID_ANGLE_UNIT ( ) );
#98 =( LENGTH_UNIT ( ) NAMED_UNIT ( * ) SI_UNIT ( $, .METRE. ) );
#99 = MANIFOLD_SOLID_BREP ( 'Revolve - Cutting Edge', #221 ) ;
#100 = EDGE_CURVE ( 'NONE', #29, #327, #94, .T. ) ;
#101 = MANIFOLD_SOLID_BREP ( 'Revolve - Tool Body (Straight Shanked)', #168 ) ;
#102 = COLOUR_RGB ( '',1.000000000000000000, 0.000000000000000000, 0.000000000000000000 ) ;
#103 = PRESENTATION_LAYER_ASSIGNMENT (  '', '', ( #330 ) ) ;
#104 = ADVANCED_FACE ( 'NONE', ( #207 ), #292, .T. ) ;
#105 = SURFACE_STYLE_FILL_AREA ( #360 ) ;
#106 = PRESENTATION_STYLE_ASSIGNMENT (( #276 ) ) ;
#107 = AXIS2_PLACEMENT_3D ( 'NONE', #37, #16, #79 ) ;
#108 = EDGE_CURVE ( 'NONE', #29, #300, #193, .T. ) ;
#109 = DIRECTION ( 'NONE',  ( -0.000000000000000000, -1.000000000000000000, -0.000000000000000000 ) ) ;
#110 = LENGTH_MEASURE_WITH_UNIT ( LENGTH_MEASURE( 0.02539999999999999897 ), #69 );
#111 = DIRECTION ( 'NONE',  ( 1.789868398753824373E-16, 1.000000000000000000, -0.000000000000000000 ) ) ;
#112 = VERTEX_POINT ( 'NONE', #215 ) ;
#113 = AXIS2_PLACEMENT_3D ( 'NONE', #335, #194, #71 ) ;
#114 = APPLICATION_PROTOCOL_DEFINITION ( 'draft international standard', 'automotive_design', 1998, #139 ) ;
#115 =( CONVERSION_BASED_UNIT ( 'INCH', #369 ) LENGTH_UNIT ( ) NAMED_UNIT ( #299 ) );
#116 = CARTESIAN_POINT ( 'NONE',  ( -3.827021247335478002E-18, 0.000000000000000000, 0.000000000000000000 ) ) ;
#117 = PRODUCT_DEFINITION_CONTEXT ( 'detailed design', #139, 'design' ) ;
#118 = DIRECTION ( 'NONE',  ( 0.000000000000000000, 0.000000000000000000, -1.000000000000000000 ) ) ;
#119 = CARTESIAN_POINT ( 'NONE',  ( 0.000000000000000000, 0.06250000000000001388, 0.000000000000000000 ) ) ;
#120 = EDGE_CURVE ( 'NONE', #18, #112, #325, .T. ) ;
#121 = LINE ( 'NONE', #177, #278 ) ;
#122 = FILL_AREA_STYLE_COLOUR ( '', #248 ) ;
#123 = LENGTH_MEASURE_WITH_UNIT ( LENGTH_MEASURE( 0.02539999999999999897 ), #145 );
#124 = ADVANCED_FACE ( 'NONE', ( #162 ), #167, .T. ) ;
#125 = AXIS2_PLACEMENT_3D ( 'NONE', #339, #253, #118 ) ;
#126 = EDGE_CURVE ( 'NONE', #300, #29, #368, .T. ) ;
#127 = FILL_AREA_STYLE_COLOUR ( '', #228 ) ;
#128 = DIRECTION ( 'NONE',  ( 0.000000000000000000, 0.000000000000000000, 1.000000000000000000 ) ) ;
#129 = VERTEX_POINT ( 'NONE', #214 ) ;
#130 = ORIENTED_EDGE ( 'NONE', *, *, #126, .T. ) ;
#131 = EDGE_CURVE ( 'NONE', #157, #159, #358, .T. ) ;
#132 = ORIENTED_EDGE ( 'NONE', *, *, #120, .T. ) ;
#133 = CARTESIAN_POINT ( 'NONE',  ( 0.000000000000000000, 0.000000000000000000, 0.000000000000000000 ) ) ;
#134 = EDGE_LOOP ( 'NONE', ( #146, #195 ) ) ;
#135 = DIRECTION ( 'NONE',  ( -0.000000000000000000, -1.000000000000000000, -0.000000000000000000 ) ) ;
#136 = AXIS2_PLACEMENT_3D ( 'NONE', #225, #267, #164 ) ;
#137 = DIRECTION ( 'NONE',  ( 0.000000000000000000, -0.000000000000000000, 1.000000000000000000 ) ) ;
#138 = LINE ( 'NONE', #190, #41 ) ;
#139 = APPLICATION_CONTEXT ( 'automotive_design' ) ;
#140 = CYLINDRICAL_SURFACE ( 'NONE', #8, 0.06249999999999956979 ) ;
#141 = AXIS2_PLACEMENT_3D ( 'NONE', #199, #128, #80 ) ;
#142 = PRESENTATION_LAYER_ASSIGNMENT (  '', '', ( #303 ) ) ;
#143 =( NAMED_UNIT ( * ) PLANE_ANGLE_UNIT ( ) SI_UNIT ( $, .RADIAN. ) );
#144 = CARTESIAN_POINT ( 'NONE',  ( 4.898587196589413815E-16, 2.500000000000000000, 0.000000000000000000 ) ) ;
#145 =( LENGTH_UNIT ( ) NAMED_UNIT ( * ) SI_UNIT ( $, .METRE. ) );
#146 = ORIENTED_EDGE ( 'NONE', *, *, #363, .F. ) ;
#147 = DIRECTION ( 'NONE',  ( -0.000000000000000000, -1.000000000000000000, -0.000000000000000000 ) ) ;
#148 =( CONVERSION_BASED_UNIT ( 'INCH', #50 ) LENGTH_UNIT ( ) NAMED_UNIT ( #235 ) );
#149 =( CONVERSION_BASED_UNIT ( 'INCH', #123 ) LENGTH_UNIT ( ) NAMED_UNIT ( #296 ) );
#150 = AXIS2_PLACEMENT_3D ( 'NONE', #255, #89, #137 ) ;
#151 = PRESENTATION_LAYER_ASSIGNMENT (  '', '', ( #311 ) ) ;
#152 = PRODUCT_RELATED_PRODUCT_CATEGORY ( 'part', '', ( #160 ) ) ;
#153 = CARTESIAN_POINT ( 'NONE',  ( 0.000000000000000000, 0.000000000000000000, 0.000000000000000000 ) ) ;
#154 = CIRCLE ( 'NONE', #211, 0.06249999999999945877 ) ;
#155 = AXIS2_PLACEMENT_3D ( 'NONE', #269, #109, #76 ) ;
#156 = SPHERICAL_SURFACE ( 'NONE', #141, 0.06250000000000001388 ) ;
#157 = VERTEX_POINT ( 'NONE', #198 ) ;
#158 = SHAPE_DEFINITION_REPRESENTATION ( #65, #295 ) ;
#159 = VERTEX_POINT ( 'NONE', #14 ) ;
#160 = PRODUCT ( '84751', '84751', '', ( #372 ) ) ;
#161 = ORIENTED_EDGE ( 'NONE', *, *, #108, .T. ) ;
#162 = FACE_OUTER_BOUND ( 'NONE', #364, .T. ) ;
#163 = UNCERTAINTY_MEASURE_WITH_UNIT (LENGTH_MEASURE( 1.000000000000000082E-05 ), #180, 'distance_accuracy_value', 'NONE');
#164 = DIRECTION ( 'NONE',  ( 1.000000000000000000, 0.000000000000000000, -1.224646799147353207E-16 ) ) ;
#165 = ORIENTED_EDGE ( 'NONE', *, *, #81, .T. ) ;
#166 =( NAMED_UNIT ( * ) PLANE_ANGLE_UNIT ( ) SI_UNIT ( $, .RADIAN. ) );
#167 = CYLINDRICAL_SURFACE ( 'NONE', #294, 0.06249999999999956979 ) ;
#168 = CLOSED_SHELL ( 'NONE', ( #344, #326, #124, #242 ) ) ;
#169 = LENGTH_MEASURE_WITH_UNIT ( LENGTH_MEASURE( 0.02539999999999999897 ), #34 );
#170 = APPLICATION_PROTOCOL_DEFINITION ( 'draft international standard', 'automotive_design', 1998, #355 ) ;
#171 = CARTESIAN_POINT ( 'NONE',  ( 0.06249999999999988898, 0.8749999999999997780, 7.654042494670911323E-18 ) ) ;
#172 = SURFACE_SIDE_STYLE ('',( #181 ) ) ;
#173 = FILL_AREA_STYLE ('',( #122 ) ) ;
#174 = DIRECTION ( 'NONE',  ( -1.000000000000000000, 1.789868398753824373E-16, 0.000000000000000000 ) ) ;
#175 = LENGTH_MEASURE_WITH_UNIT ( LENGTH_MEASURE( 0.02539999999999999897 ), #316 );
#176 = CARTESIAN_POINT ( 'NONE',  ( 4.898587196589413815E-16, 2.500000000000000000, 0.000000000000000000 ) ) ;
#177 = CARTESIAN_POINT ( 'NONE',  ( 0.000000000000000000, 0.000000000000000000, -0.06249999999999995143 ) ) ;
#178 = STYLED_ITEM ( 'NONE', ( #45 ), #99 ) ;
#179 = CIRCLE ( 'NONE', #113, 0.06250000000000001388 ) ;
#180 =( CONVERSION_BASED_UNIT ( 'INCH', #58 ) LENGTH_UNIT ( ) NAMED_UNIT ( #183 ) );
#181 = SURFACE_STYLE_FILL_AREA ( #256 ) ;
#182 = PRESENTATION_STYLE_ASSIGNMENT (( #350 ) ) ;
#183 = DIMENSIONAL_EXPONENTS ( 1.000000000000000000, 0.000000000000000000, 0.000000000000000000, 0.000000000000000000, 0.000000000000000000, 0.000000000000000000, 0.000000000000000000 ) ;
#184 = VECTOR ( 'NONE', #229, 39.37007874015748143 ) ;
#185 = EDGE_CURVE ( 'NONE', #112, #46, #138, .T. ) ;
#186 = EDGE_LOOP ( 'NONE', ( #130, #275, #362, #366, #244 ) ) ;
#187 = ORIENTED_EDGE ( 'NONE', *, *, #271, .T. ) ;
#188 = CARTESIAN_POINT ( 'NONE',  ( 0.06250000000000005551, 2.500000000000000000, 7.654042494670905160E-18 ) ) ;
#189 = ORIENTED_EDGE ( 'NONE', *, *, #324, .F. ) ;
#190 = CARTESIAN_POINT ( 'NONE',  ( -0.06249999999999908407, 2.500000000000000000, 0.000000000000000000 ) ) ;
#191 = UNCERTAINTY_MEASURE_WITH_UNIT (LENGTH_MEASURE( 1.000000000000000082E-05 ), #115, 'distance_accuracy_value', 'NONE');
#192 = VERTEX_POINT ( 'NONE', #116 ) ;
#193 = CIRCLE ( 'NONE', #155, 0.06249999999999988898 ) ;
#194 = DIRECTION ( 'NONE',  ( -0.000000000000000000, -1.000000000000000000, -0.000000000000000000 ) ) ;
#195 = ORIENTED_EDGE ( 'NONE', *, *, #120, .F. ) ;
#196 = CARTESIAN_POINT ( 'NONE',  ( 0.000000000000000000, 0.06250000000000001388, 0.000000000000000000 ) ) ;
#197 =( NAMED_UNIT ( * ) PLANE_ANGLE_UNIT ( ) SI_UNIT ( $, .RADIAN. ) );
#198 = CARTESIAN_POINT ( 'NONE',  ( -0.06250000000000001388, 0.06250000000000001388, 7.654042494670959086E-18 ) ) ;
#199 = CARTESIAN_POINT ( 'NONE',  ( -7.654042494670957545E-18, 0.06250000000000001388, 0.000000000000000000 ) ) ;
#200 = CARTESIAN_POINT ( 'NONE',  ( -0.06249999999999897304, 2.500000000000000000, 0.000000000000000000 ) ) ;
#201 = DIRECTION ( 'NONE',  ( 0.000000000000000000, 0.000000000000000000, 1.000000000000000000 ) ) ;
#202 = CIRCLE ( 'NONE', #213, 0.06250000000000001388 ) ;
#203 = PLANE ( 'NONE',  #150 ) ;
#204 = DIRECTION ( 'NONE',  ( 1.789868398753824373E-16, 1.000000000000000000, -0.000000000000000000 ) ) ;
#205 = EDGE_CURVE ( 'NONE', #129, #327, #179, .T. ) ;
#206 =( NAMED_UNIT ( * ) SI_UNIT ( $, .STERADIAN. ) SOLID_ANGLE_UNIT ( ) );
#207 = FACE_OUTER_BOUND ( 'NONE', #70, .T. ) ;
#208 = CARTESIAN_POINT ( 'NONE',  ( 7.654042494670946760E-18, 0.8750000000000000000, 0.06249999999999988898 ) ) ;
#209 = AXIS2_PLACEMENT_3D ( 'NONE', #144, #28, #261 ) ;
#210 = SURFACE_STYLE_USAGE ( .BOTH. , #88 ) ;
#211 = AXIS2_PLACEMENT_3D ( 'NONE', #176, #21, #82 ) ;
#212 = AXIS2_PLACEMENT_3D ( 'NONE', #196, #135, #22 ) ;
#213 = AXIS2_PLACEMENT_3D ( 'NONE', #306, #44, #245 ) ;
#214 = CARTESIAN_POINT ( 'NONE',  ( 0.06250000000000001388, 0.06250000000000001388, 0.000000000000000000 ) ) ;
#215 = CARTESIAN_POINT ( 'NONE',  ( -0.06249999999999949346, 0.8749999999999997780, 0.000000000000000000 ) ) ;
#216 = EDGE_LOOP ( 'NONE', ( #307, #251 ) ) ;
#217 = CARTESIAN_POINT ( 'NONE',  ( 0.000000000000000000, 0.8750000000000000000, 0.000000000000000000 ) ) ;
#218 = EDGE_CURVE ( 'NONE', #129, #192, #202, .T. ) ;
#219 = SURFACE_SIDE_STYLE ('',( #17 ) ) ;
#220 = ORIENTED_EDGE ( 'NONE', *, *, #185, .F. ) ;
#221 = CLOSED_SHELL ( 'NONE', ( #317, #64, #42, #104, #56 ) ) ;
#222 = COLOUR_RGB ( '',0.7921568627450980005, 0.8196078431372548767, 0.9333333333333333481 ) ;
#223 = FILL_AREA_STYLE_COLOUR ( '', #102 ) ;
#224 = PLANE ( 'NONE',  #266 ) ;
#225 = CARTESIAN_POINT ( 'NONE',  ( -7.654042494670957545E-18, 0.06250000000000001388, 0.000000000000000000 ) ) ;
#226 = SURFACE_STYLE_USAGE ( .BOTH. , #287 ) ;
#227 = DIRECTION ( 'NONE',  ( -0.000000000000000000, -1.000000000000000000, -0.000000000000000000 ) ) ;
#228 = COLOUR_RGB ( '',1.000000000000000000, 0.000000000000000000, 0.000000000000000000 ) ;
#229 = DIRECTION ( 'NONE',  ( -0.000000000000000000, -1.000000000000000000, -0.000000000000000000 ) ) ;
#230 = DIRECTION ( 'NONE',  ( 1.789868398753824373E-16, 1.000000000000000000, -0.000000000000000000 ) ) ;
#231 = SURFACE_SIDE_STYLE ('',( #2 ) ) ;
#232 = SURFACE_STYLE_FILL_AREA ( #86 ) ;
#233 = FACE_OUTER_BOUND ( 'NONE', #134, .T. ) ;
#234 = PRESENTATION_STYLE_ASSIGNMENT (( #210 ) ) ;
#235 = DIMENSIONAL_EXPONENTS ( 1.000000000000000000, 0.000000000000000000, 0.000000000000000000, 0.000000000000000000, 0.000000000000000000, 0.000000000000000000, 0.000000000000000000 ) ;
#236 = CIRCLE ( 'NONE', #74, 0.06250000000000001388 ) ;
#237 = DIMENSIONAL_EXPONENTS ( 1.000000000000000000, 0.000000000000000000, 0.000000000000000000, 0.000000000000000000, 0.000000000000000000, 0.000000000000000000, 0.000000000000000000 ) ;
#238 = SURFACE_SIDE_STYLE ('',( #105 ) ) ;
#239 = ORIENTED_EDGE ( 'NONE', *, *, #324, .T. ) ;
#240 = STYLED_ITEM ( 'NONE', ( #283 ), #56 ) ;
#241 = AXIS2_PLACEMENT_3D ( 'NONE', #153, #264, #361 ) ;
#242 = ADVANCED_FACE ( 'NONE', ( #370 ), #224, .F. ) ;
#243 = EDGE_LOOP ( 'NONE', ( #239, #165, #301, #48 ) ) ;
#244 = ORIENTED_EDGE ( 'NONE', *, *, #286, .F. ) ;
#245 = DIRECTION ( 'NONE',  ( -1.000000000000000000, 0.000000000000000000, 0.000000000000000000 ) ) ;
#246 = FILL_AREA_STYLE ('',( #328 ) ) ;
#247 = ORIENTED_EDGE ( 'NONE', *, *, #218, .T. ) ;
#248 = COLOUR_RGB ( '',1.000000000000000000, 0.000000000000000000, 0.000000000000000000 ) ;
#249 = AXIS2_PLACEMENT_3D ( 'NONE', #3, #352, #93 ) ;
#250 = DIRECTION ( 'NONE',  ( -1.000000000000000000, 0.000000000000000000, 0.000000000000000000 ) ) ;
#251 = ORIENTED_EDGE ( 'NONE', *, *, #108, .F. ) ;
#252 = DIRECTION ( 'NONE',  ( 1.789868398753824373E-16, 1.000000000000000000, -0.000000000000000000 ) ) ;
#253 = DIRECTION ( 'NONE',  ( -0.000000000000000000, -1.000000000000000000, -0.000000000000000000 ) ) ;
#254 = EDGE_CURVE ( 'NONE', #159, #129, #345, .T. ) ;
#255 = CARTESIAN_POINT ( 'NONE',  ( 0.000000000000000000, 0.8750000000000000000, 0.000000000000000000 ) ) ;
#256 = FILL_AREA_STYLE ('',( #25 ) ) ;
#257 = CARTESIAN_POINT ( 'NONE',  ( 4.898587196589413815E-16, 2.500000000000000000, 0.000000000000000000 ) ) ;
#258 = COLOUR_RGB ( '',1.000000000000000000, 0.000000000000000000, 0.000000000000000000 ) ;
#259 =( GEOMETRIC_REPRESENTATION_CONTEXT ( 3 ) GLOBAL_UNCERTAINTY_ASSIGNED_CONTEXT ( ( #62 ) ) GLOBAL_UNIT_ASSIGNED_CONTEXT ( ( #315, #341, #4 ) ) REPRESENTATION_CONTEXT ( 'NONE', 'WORKASPACE' ) );
#260 = CARTESIAN_POINT ( 'NONE',  ( 7.654042494670951382E-18, 0.000000000000000000, 0.06249999999999995143 ) ) ;
#261 = DIRECTION ( 'NONE',  ( -1.000000000000000000, 0.000000000000000000, 0.000000000000000000 ) ) ;
#262 =( NAMED_UNIT ( * ) SI_UNIT ( $, .STERADIAN. ) SOLID_ANGLE_UNIT ( ) );
#263 =( NAMED_UNIT ( * ) PLANE_ANGLE_UNIT ( ) SI_UNIT ( $, .RADIAN. ) );
#264 = DIRECTION ( 'NONE',  ( -0.000000000000000000, -1.000000000000000000, -0.000000000000000000 ) ) ;
#265 = MECHANICAL_DESIGN_GEOMETRIC_PRESENTATION_REPRESENTATION (  '', ( #178 ), #12 ) ;
#266 = AXIS2_PLACEMENT_3D ( 'NONE', #338, #68, #340 ) ;
#267 = DIRECTION ( 'NONE',  ( 1.224646799147353207E-16, -0.000000000000000000, 1.000000000000000000 ) ) ;
#268 = ORIENTED_EDGE ( 'NONE', *, *, #254, .T. ) ;
#269 = CARTESIAN_POINT ( 'NONE',  ( 0.000000000000000000, 0.8750000000000000000, 0.000000000000000000 ) ) ;
#270 = ORIENTED_EDGE ( 'NONE', *, *, #356, .F. ) ;
#271 = EDGE_CURVE ( 'NONE', #18, #329, #308, .T. ) ;
#272 = CARTESIAN_POINT ( 'NONE',  ( 1.990051048614449116E-16, 0.8749999999999997780, 0.000000000000000000 ) ) ;
#273 = ORIENTED_EDGE ( 'NONE', *, *, #363, .T. ) ;
#274 = DIRECTION ( 'NONE',  ( -0.000000000000000000, -1.000000000000000000, -0.000000000000000000 ) ) ;
#275 = ORIENTED_EDGE ( 'NONE', *, *, #100, .T. ) ;
#276 = SURFACE_STYLE_USAGE ( .BOTH. , #219 ) ;
#277 = STYLED_ITEM ( 'NONE', ( #51 ), #42 ) ;
#278 = VECTOR ( 'NONE', #147, 39.37007874015748143 ) ;
#279 = DIRECTION ( 'NONE',  ( 0.000000000000000000, 0.000000000000000000, -1.000000000000000000 ) ) ;
#280 = UNCERTAINTY_MEASURE_WITH_UNIT (LENGTH_MEASURE( 1.000000000000000082E-05 ), #285, 'distance_accuracy_value', 'NONE');
#281 = DIRECTION ( 'NONE',  ( 0.000000000000000000, 0.000000000000000000, 1.000000000000000000 ) ) ;
#282 = PRESENTATION_STYLE_ASSIGNMENT (( #60 ) ) ;
#283 = PRESENTATION_STYLE_ASSIGNMENT (( #291 ) ) ;
#284 = CARTESIAN_POINT ( 'NONE',  ( 7.654042494670959086E-18, 0.06250000000000001388, 0.06250000000000001388 ) ) ;
#285 =( CONVERSION_BASED_UNIT ( 'INCH', #175 ) LENGTH_UNIT ( ) NAMED_UNIT ( #10 ) );
#286 = EDGE_CURVE ( 'NONE', #300, #159, #121, .T. ) ;
#287 = SURFACE_SIDE_STYLE ('',( #232 ) ) ;
#288 = CARTESIAN_POINT ( 'NONE',  ( 0.06249999999999995143, 2.500000000000000000, 7.654042494670915945E-18 ) ) ;
#289 = CIRCLE ( 'NONE', #136, 0.06250000000000001388 ) ;
#290 = AXIS2_PLACEMENT_3D ( 'NONE', #52, #204, #174 ) ;
#291 = SURFACE_STYLE_USAGE ( .BOTH. , #26 ) ;
#292 = CYLINDRICAL_SURFACE ( 'NONE', #241, 0.06249999999999995143 ) ;
#293 = UNCERTAINTY_MEASURE_WITH_UNIT (LENGTH_MEASURE( 1.000000000000000082E-05 ), #333, 'distance_accuracy_value', 'NONE');
#294 = AXIS2_PLACEMENT_3D ( 'NONE', #332, #111, #250 ) ;
#295 = ADVANCED_BREP_SHAPE_REPRESENTATION ( '84751', ( #99, #101, #305 ), #20 ) ;
#296 = DIMENSIONAL_EXPONENTS ( 1.000000000000000000, 0.000000000000000000, 0.000000000000000000, 0.000000000000000000, 0.000000000000000000, 0.000000000000000000, 0.000000000000000000 ) ;
#297 = PRESENTATION_LAYER_ASSIGNMENT (  '', '', ( #95 ) ) ;
#298 = ORIENTED_EDGE ( 'NONE', *, *, #35, .F. ) ;
#299 = DIMENSIONAL_EXPONENTS ( 1.000000000000000000, 0.000000000000000000, 0.000000000000000000, 0.000000000000000000, 0.000000000000000000, 0.000000000000000000, 0.000000000000000000 ) ;
#300 = VERTEX_POINT ( 'NONE', #312 ) ;
#301 = ORIENTED_EDGE ( 'NONE', *, *, #218, .F. ) ;
#302 =( GEOMETRIC_REPRESENTATION_CONTEXT ( 3 ) GLOBAL_UNCERTAINTY_ASSIGNED_CONTEXT ( ( #163 ) ) GLOBAL_UNIT_ASSIGNED_CONTEXT ( ( #180, #197, #206 ) ) REPRESENTATION_CONTEXT ( 'NONE', 'WORKASPACE' ) );
#303 = STYLED_ITEM ( 'NONE', ( #234 ), #101 ) ;
#304 = ORIENTED_EDGE ( 'NONE', *, *, #131, .T. ) ;
#305 = AXIS2_PLACEMENT_3D ( 'NONE', #133, #281, #373 ) ;
#306 = CARTESIAN_POINT ( 'NONE',  ( -7.654042494670957545E-18, 0.06250000000000001388, 0.000000000000000000 ) ) ;
#307 = ORIENTED_EDGE ( 'NONE', *, *, #126, .F. ) ;
#308 = LINE ( 'NONE', #188, #27 ) ;
#309 =( LENGTH_UNIT ( ) NAMED_UNIT ( * ) SI_UNIT ( $, .METRE. ) );
#310 = PRESENTATION_LAYER_ASSIGNMENT (  '', '', ( #277 ) ) ;
#311 = STYLED_ITEM ( 'NONE', ( #282 ), #317 ) ;
#312 = CARTESIAN_POINT ( 'NONE',  ( 0.000000000000000000, 0.8750000000000000000, -0.06249999999999988898 ) ) ;
#313 =( CONVERSION_BASED_UNIT ( 'INCH', #169 ) LENGTH_UNIT ( ) NAMED_UNIT ( #237 ) );
#314 = EDGE_LOOP ( 'NONE', ( #351, #15 ) ) ;
#315 =( CONVERSION_BASED_UNIT ( 'INCH', #49 ) LENGTH_UNIT ( ) NAMED_UNIT ( #359 ) );
#316 =( LENGTH_UNIT ( ) NAMED_UNIT ( * ) SI_UNIT ( $, .METRE. ) );
#317 = ADVANCED_FACE ( 'NONE', ( #349 ), #83, .T. ) ;
#318 = FACE_OUTER_BOUND ( 'NONE', #216, .T. ) ;
#319 = PLANE ( 'NONE',  #290 ) ;
#320 =( LENGTH_UNIT ( ) NAMED_UNIT ( * ) SI_UNIT ( $, .METRE. ) );
#321 = FACE_OUTER_BOUND ( 'NONE', #13, .T. ) ;
#322 = AXIS2_PLACEMENT_3D ( 'NONE', #346, #201, #90 ) ;
#323 = FILL_AREA_STYLE ('',( #127 ) ) ;
#324 = EDGE_CURVE ( 'NONE', #327, #157, #236, .T. ) ;
#325 = CIRCLE ( 'NONE', #67, 0.06249999999999969469 ) ;
#326 = ADVANCED_FACE ( 'NONE', ( #233 ), #319, .F. ) ;
#327 = VERTEX_POINT ( 'NONE', #284 ) ;
#328 = FILL_AREA_STYLE_COLOUR ( '', #258 ) ;
#329 = VERTEX_POINT ( 'NONE', #288 ) ;
#330 = STYLED_ITEM ( 'NONE', ( #182 ), #104 ) ;
#331 = ORIENTED_EDGE ( 'NONE', *, *, #185, .T. ) ;
#332 = CARTESIAN_POINT ( 'NONE',  ( 4.898587196589413815E-16, 2.500000000000000000, 0.000000000000000000 ) ) ;
#333 =( CONVERSION_BASED_UNIT ( 'INCH', #110 ) LENGTH_UNIT ( ) NAMED_UNIT ( #32 ) );
#334 = ORIENTED_EDGE ( 'NONE', *, *, #286, .T. ) ;
#335 = CARTESIAN_POINT ( 'NONE',  ( 0.000000000000000000, 0.06250000000000001388, 0.000000000000000000 ) ) ;
#336 = COLOUR_RGB ( '',0.7921568627450980005, 0.8196078431372548767, 0.9333333333333333481 ) ;
#337 = AXIS2_PLACEMENT_3D ( 'NONE', #217, #274, #279 ) ;
#338 = CARTESIAN_POINT ( 'NONE',  ( 0.06249999999999995143, 2.500000000000000000, 0.000000000000000000 ) ) ;
#339 = CARTESIAN_POINT ( 'NONE',  ( 0.000000000000000000, 0.000000000000000000, 0.000000000000000000 ) ) ;
#340 = DIRECTION ( 'NONE',  ( 1.000000000000000000, -1.789868398753824373E-16, 0.000000000000000000 ) ) ;
#341 =( NAMED_UNIT ( * ) PLANE_ANGLE_UNIT ( ) SI_UNIT ( $, .RADIAN. ) );
#342 = FILL_AREA_STYLE_COLOUR ( '', #336 ) ;
#343 =( GEOMETRIC_REPRESENTATION_CONTEXT ( 3 ) GLOBAL_UNCERTAINTY_ASSIGNED_CONTEXT ( ( #191 ) ) GLOBAL_UNIT_ASSIGNED_CONTEXT ( ( #115, #143, #348 ) ) REPRESENTATION_CONTEXT ( 'NONE', 'WORKASPACE' ) );
#344 = ADVANCED_FACE ( 'NONE', ( #321 ), #140, .T. ) ;
#345 = CIRCLE ( 'NONE', #107, 0.06250000000000001388 ) ;
#346 = CARTESIAN_POINT ( 'NONE',  ( -7.654042494670957545E-18, 0.06250000000000001388, 0.000000000000000000 ) ) ;
#347 = FILL_AREA_STYLE ('',( #30 ) ) ;
#348 =( NAMED_UNIT ( * ) SI_UNIT ( $, .STERADIAN. ) SOLID_ANGLE_UNIT ( ) );
#349 = FACE_OUTER_BOUND ( 'NONE', #243, .T. ) ;
#350 = SURFACE_STYLE_USAGE ( .BOTH. , #231 ) ;
#351 = ORIENTED_EDGE ( 'NONE', *, *, #35, .T. ) ;
#352 = DIRECTION ( 'NONE',  ( 1.789868398753824373E-16, 1.000000000000000000, -0.000000000000000000 ) ) ;
#353 =( GEOMETRIC_REPRESENTATION_CONTEXT ( 3 ) GLOBAL_UNCERTAINTY_ASSIGNED_CONTEXT ( ( #84 ) ) GLOBAL_UNIT_ASSIGNED_CONTEXT ( ( #148, #263, #55 ) ) REPRESENTATION_CONTEXT ( 'NONE', 'WORKASPACE' ) );
#354 =( NAMED_UNIT ( * ) PLANE_ANGLE_UNIT ( ) SI_UNIT ( $, .RADIAN. ) );
#355 = APPLICATION_CONTEXT ( 'automotive_design' ) ;
#356 = EDGE_CURVE ( 'NONE', #329, #46, #59, .T. ) ;
#357 = MECHANICAL_DESIGN_GEOMETRIC_PRESENTATION_REPRESENTATION (  '', ( #95 ), #72 ) ;
#358 = CIRCLE ( 'NONE', #212, 0.06250000000000001388 ) ;
#359 = DIMENSIONAL_EXPONENTS ( 1.000000000000000000, 0.000000000000000000, 0.000000000000000000, 0.000000000000000000, 0.000000000000000000, 0.000000000000000000, 0.000000000000000000 ) ;
#360 = FILL_AREA_STYLE ('',( #342 ) ) ;
#361 = DIRECTION ( 'NONE',  ( 0.000000000000000000, 0.000000000000000000, -1.000000000000000000 ) ) ;
#362 = ORIENTED_EDGE ( 'NONE', *, *, #205, .F. ) ;
#363 = EDGE_CURVE ( 'NONE', #112, #18, #33, .T. ) ;
#364 = EDGE_LOOP ( 'NONE', ( #38, #132, #331, #270 ) ) ;
#365 = DIRECTION ( 'NONE',  ( 1.789868398753824373E-16, 1.000000000000000000, -0.000000000000000000 ) ) ;
#366 = ORIENTED_EDGE ( 'NONE', *, *, #254, .F. ) ;
#367 = DIRECTION ( 'NONE',  ( -1.000000000000000000, 0.000000000000000000, 0.000000000000000000 ) ) ;
#368 = CIRCLE ( 'NONE', #337, 0.06249999999999988898 ) ;
#369 = LENGTH_MEASURE_WITH_UNIT ( LENGTH_MEASURE( 0.02539999999999999897 ), #309 );
#370 = FACE_OUTER_BOUND ( 'NONE', #314, .T. ) ;
#371 =( NAMED_UNIT ( * ) SI_UNIT ( $, .STERADIAN. ) SOLID_ANGLE_UNIT ( ) );
#372 = PRODUCT_CONTEXT ( 'NONE', #355, 'mechanical' ) ;
#373 = DIRECTION ( 'NONE',  ( 1.000000000000000000, 0.000000000000000000, 0.000000000000000000 ) ) ;
ENDSEC;
END-ISO-10303-21;
