ISO-10303-21;
HEADER;
FILE_DESCRIPTION (( 'STEP AP214' ),
    '1' );
FILE_NAME ('Micro_BMR-040-2X.STEP',
    '2021-09-03T14:10:28',
    ( '' ),
    ( '' ),
    'SwSTEP 2.0',
    'SolidWorks 2020',
    '' );
FILE_SCHEMA (( 'AUTOMOTIVE_DESIGN' ));
ENDSEC;

DATA;
#1 = ORIENTED_EDGE ( 'NONE', *, *, #248, .F. ) ;
#2 = EDGE_LOOP ( 'NONE', ( #304, #53, #225, #226 ) ) ;
#3 = LENGTH_MEASURE_WITH_UNIT ( LENGTH_MEASURE( 0.02539999999999999897 ), #34 );
#4 = DIRECTION ( 'NONE',  ( 1.000000000000000000, 0.0000000000000000000, 0.0000000000000000000 ) ) ;
#5 =( LENGTH_UNIT ( ) NAMED_UNIT ( * ) SI_UNIT ( $, .METRE. ) );
#6 = DIRECTION ( 'NONE',  ( 1.000000000000000000, 0.0000000000000000000, 0.0000000000000000000 ) ) ;
#7 =( NAMED_UNIT ( * ) SI_UNIT ( $, .STERADIAN. ) SOLID_ANGLE_UNIT ( ) );
#8 = DIRECTION ( 'NONE',  ( -1.000000000000000000, 0.0000000000000000000, 1.224646799147353454E-16 ) ) ;
#9 = AXIS2_PLACEMENT_3D ( 'NONE', #204, #100, #85 ) ;
#10 = PRESENTATION_LAYER_ASSIGNMENT (  '', '', ( #224 ) ) ;
#11 = CARTESIAN_POINT ( 'NONE',  ( 0.0000000000000000000, 0.0000000000000000000, 1.485000000000000764 ) ) ;
#12 = DIRECTION ( 'NONE',  ( -1.224646799147353454E-16, -0.0000000000000000000, -1.000000000000000000 ) ) ;
#13 = DIRECTION ( 'NONE',  ( 1.224646799147353454E-16, 0.0000000000000000000, 1.000000000000000000 ) ) ;
#14 = DIRECTION ( 'NONE',  ( 0.0000000000000000000, 0.0000000000000000000, -1.000000000000000000 ) ) ;
#15 =( GEOMETRIC_REPRESENTATION_CONTEXT ( 3 ) GLOBAL_UNCERTAINTY_ASSIGNED_CONTEXT ( ( #280 ) ) GLOBAL_UNIT_ASSIGNED_CONTEXT ( ( #262, #28, #129 ) ) REPRESENTATION_CONTEXT ( 'NONE', 'WORKASPACE' ) );
#16 = MANIFOLD_SOLID_BREP ( 'Fillet1', #260 ) ;
#17 = APPLICATION_CONTEXT ( 'automotive_design' ) ;
#18 = ORIENTED_EDGE ( 'NONE', *, *, #208, .F. ) ;
#19 = AXIS2_PLACEMENT_3D ( 'NONE', #38, #69, #297 ) ;
#20 = ORIENTED_EDGE ( 'NONE', *, *, #130, .F. ) ;
#21 = EDGE_LOOP ( 'NONE', ( #76, #71 ) ) ;
#22 = EDGE_LOOP ( 'NONE', ( #194, #95, #146, #142 ) ) ;
#23 = SURFACE_STYLE_FILL_AREA ( #150 ) ;
#24 = LENGTH_MEASURE_WITH_UNIT ( LENGTH_MEASURE( 0.02539999999999999897 ), #5 );
#25 = DIRECTION ( 'NONE',  ( 1.224646799147353454E-16, 0.0000000000000000000, 1.000000000000000000 ) ) ;
#26 = DIRECTION ( 'NONE',  ( -0.0000000000000000000, -0.0000000000000000000, -1.000000000000000000 ) ) ;
#27 = ADVANCED_FACE ( 'NONE', ( #311 ), #229, .T. ) ;
#28 =( NAMED_UNIT ( * ) PLANE_ANGLE_UNIT ( ) SI_UNIT ( $, .RADIAN. ) );
#29 = AXIS2_PLACEMENT_3D ( 'NONE', #298, #269, #163 ) ;
#30 = DIRECTION ( 'NONE',  ( 0.0000000000000000000, 0.0000000000000000000, -1.000000000000000000 ) ) ;
#31 = DIRECTION ( 'NONE',  ( -1.224646799147353454E-16, -0.0000000000000000000, -1.000000000000000000 ) ) ;
#32 = ADVANCED_FACE ( 'NONE', ( #202 ), #284, .T. ) ;
#33 = FACE_OUTER_BOUND ( 'NONE', #249, .T. ) ;
#34 =( LENGTH_UNIT ( ) NAMED_UNIT ( * ) SI_UNIT ( $, .METRE. ) );
#35 = EDGE_CURVE ( 'NONE', #74, #323, #266, .T. ) ;
#36 = APPLICATION_CONTEXT ( 'automotive_design' ) ;
#37 = FILL_AREA_STYLE_COLOUR ( '', #148 ) ;
#38 = CARTESIAN_POINT ( 'NONE',  ( 0.0000000000000000000, 0.0000000000000000000, 1.500000000000000222 ) ) ;
#39 = PRODUCT_DEFINITION_SHAPE ( 'NONE', 'NONE',  #152 ) ;
#40 = MECHANICAL_DESIGN_GEOMETRIC_PRESENTATION_REPRESENTATION (  '', ( #61 ), #15 ) ;
#41 = DIRECTION ( 'NONE',  ( 1.000000000000000000, 0.0000000000000000000, 0.0000000000000000000 ) ) ;
#42 = PRODUCT ( 'Micro_BMR-040-2X', 'Micro_BMR-040-2X', '', ( #244 ) ) ;
#43 = PLANE ( 'NONE',  #183 ) ;
#44 = DIRECTION ( 'NONE',  ( 0.0000000000000000000, 0.0000000000000000000, -1.000000000000000000 ) ) ;
#45 = AXIS2_PLACEMENT_3D ( 'NONE', #56, #182, #8 ) ;
#46 = EDGE_LOOP ( 'NONE', ( #250, #303, #140 ) ) ;
#47 = ADVANCED_FACE ( 'NONE', ( #77 ), #105, .T. ) ;
#48 = VERTEX_POINT ( 'NONE', #286 ) ;
#49 = AXIS2_PLACEMENT_3D ( 'NONE', #63, #79, #155 ) ;
#50 = ORIENTED_EDGE ( 'NONE', *, *, #51, .T. ) ;
#51 = EDGE_CURVE ( 'NONE', #102, #173, #128, .T. ) ;
#52 = ORIENTED_EDGE ( 'NONE', *, *, #184, .F. ) ;
#53 = ORIENTED_EDGE ( 'NONE', *, *, #288, .T. ) ;
#54 = CIRCLE ( 'NONE', #263, 0.06250000000000002776 ) ;
#55 = APPLICATION_PROTOCOL_DEFINITION ( 'draft international standard', 'automotive_design', 1998, #17 ) ;
#56 = CARTESIAN_POINT ( 'NONE',  ( 0.0000000000000000000, 0.0000000000000000000, 0.0000000000000000000 ) ) ;
#57 = PRODUCT_RELATED_PRODUCT_CATEGORY ( 'part', '', ( #42 ) ) ;
#58 = DIRECTION ( 'NONE',  ( -1.000000000000000000, 0.0000000000000000000, 0.0000000000000000000 ) ) ;
#59 = ORIENTED_EDGE ( 'NONE', *, *, #82, .F. ) ;
#60 = DIRECTION ( 'NONE',  ( 1.224646799147353454E-16, 0.0000000000000000000, 1.000000000000000000 ) ) ;
#61 = STYLED_ITEM ( 'NONE', ( #232 ), #16 ) ;
#62 = CARTESIAN_POINT ( 'NONE',  ( -0.01998000000000000123, 0.0000000000000000000, 2.446844304696412268E-18 ) ) ;
#63 = CARTESIAN_POINT ( 'NONE',  ( 2.446844304696412268E-18, 0.0000000000000000000, 0.01998000000000000123 ) ) ;
#64 = EDGE_CURVE ( 'NONE', #144, #75, #223, .T. ) ;
#65 = DIRECTION ( 'NONE',  ( -1.224646799147353454E-16, -0.0000000000000000000, -1.000000000000000000 ) ) ;
#66 = CARTESIAN_POINT ( 'NONE',  ( 1.469576158976824292E-17, 0.0000000000000000000, 0.1199999999999999956 ) ) ;
#67 =( GEOMETRIC_REPRESENTATION_CONTEXT ( 3 ) GLOBAL_UNCERTAINTY_ASSIGNED_CONTEXT ( ( #121 ) ) GLOBAL_UNIT_ASSIGNED_CONTEXT ( ( #110, #134, #272 ) ) REPRESENTATION_CONTEXT ( 'NONE', 'WORKASPACE' ) );
#68 = DIRECTION ( 'NONE',  ( 0.0000000000000000000, 0.0000000000000000000, -1.000000000000000000 ) ) ;
#69 = DIRECTION ( 'NONE',  ( 0.0000000000000000000, 0.0000000000000000000, 1.000000000000000000 ) ) ;
#70 = AXIS2_PLACEMENT_3D ( 'NONE', #66, #12, #191 ) ;
#71 = ORIENTED_EDGE ( 'NONE', *, *, #184, .T. ) ;
#72 = VERTEX_POINT ( 'NONE', #207 ) ;
#73 = COLOUR_RGB ( '',0.7921568627450980005, 0.8196078431372548767, 0.9333333333333333481 ) ;
#74 = VERTEX_POINT ( 'NONE', #107 ) ;
#75 = VERTEX_POINT ( 'NONE', #312 ) ;
#76 = ORIENTED_EDGE ( 'NONE', *, *, #208, .T. ) ;
#77 = FACE_OUTER_BOUND ( 'NONE', #94, .T. ) ;
#78 = CARTESIAN_POINT ( 'NONE',  ( -0.06250000000000002776, 0.0000000000000000000, 1.500000000000000222 ) ) ;
#79 = DIRECTION ( 'NONE',  ( 0.0000000000000000000, 1.000000000000000000, 0.0000000000000000000 ) ) ;
#80 = DIRECTION ( 'NONE',  ( -0.1736481776669311639, 2.126576849575783008E-17, 0.9848077530122080203 ) ) ;
#81 =( NAMED_UNIT ( * ) PLANE_ANGLE_UNIT ( ) SI_UNIT ( $, .RADIAN. ) );
#82 = EDGE_CURVE ( 'NONE', #72, #144, #289, .T. ) ;
#83 = CARTESIAN_POINT ( 'NONE',  ( 2.446844304696412268E-18, 0.0000000000000000000, 0.01998000000000000123 ) ) ;
#84 = AXIS2_PLACEMENT_3D ( 'NONE', #153, #179, #6 ) ;
#85 = DIRECTION ( 'NONE',  ( -1.000000000000000000, 1.224646799147353207E-16, 0.0000000000000000000 ) ) ;
#86 = DIRECTION ( 'NONE',  ( -1.000000000000000000, 0.0000000000000000000, 0.0000000000000000000 ) ) ;
#87 = CARTESIAN_POINT ( 'NONE',  ( 2.446844304696412268E-18, 0.0000000000000000000, 0.01998000000000000123 ) ) ;
#88 = DIRECTION ( 'NONE',  ( 1.000000000000000000, 0.0000000000000000000, 0.0000000000000000000 ) ) ;
#89 = CARTESIAN_POINT ( 'NONE',  ( 0.0000000000000000000, 0.0000000000000000000, 1.485000000000000764 ) ) ;
#90 = AXIS2_PLACEMENT_3D ( 'NONE', #180, #25, #122 ) ;
#91 = DIRECTION ( 'NONE',  ( 1.000000000000000000, 0.0000000000000000000, 0.0000000000000000000 ) ) ;
#92 = ADVANCED_FACE ( 'NONE', ( #308 ), #313, .T. ) ;
#93 = CIRCLE ( 'NONE', #117, 0.06250000000000002776 ) ;
#94 = EDGE_LOOP ( 'NONE', ( #251, #167, #98, #279 ) ) ;
#95 = ORIENTED_EDGE ( 'NONE', *, *, #257, .T. ) ;
#96 = CONICAL_SURFACE ( 'NONE', #296, 0.01997999999999999776, 0.1745329251994338637 ) ;
#97 = EDGE_LOOP ( 'NONE', ( #59, #274, #116, #145 ) ) ;
#98 = ORIENTED_EDGE ( 'NONE', *, *, #64, .T. ) ;
#99 = CARTESIAN_POINT ( 'NONE',  ( 0.06250000000000002776, 7.654042494670959086E-18, 1.500000000000000222 ) ) ;
#100 = DIRECTION ( 'NONE',  ( 1.224646799147353207E-16, 1.000000000000000000, -0.0000000000000000000 ) ) ;
#101 = AXIS2_PLACEMENT_3D ( 'NONE', #218, #318, #273 ) ;
#102 = VERTEX_POINT ( 'NONE', #281 ) ;
#103 = AXIS2_PLACEMENT_3D ( 'NONE', #258, #26, #58 ) ;
#104 = CYLINDRICAL_SURFACE ( 'NONE', #103, 0.06250000000000002776 ) ;
#105 = CYLINDRICAL_SURFACE ( 'NONE', #45, 0.01998000000000000123 ) ;
#106 = PRODUCT_DEFINITION_CONTEXT ( 'detailed design', #36, 'design' ) ;
#107 = CARTESIAN_POINT ( 'NONE',  ( 0.06250000000000002776, 7.654042494670959086E-18, 1.485000000000000764 ) ) ;
#108 = VECTOR ( 'NONE', #161, 39.37007874015748854 ) ;
#109 = CARTESIAN_POINT ( 'NONE',  ( 0.01998000000000000817, 0.0000000000000000000, 0.1199999999999999956 ) ) ;
#110 =( CONVERSION_BASED_UNIT ( 'INCH', #166 ) LENGTH_UNIT ( ) NAMED_UNIT ( #201 ) );
#111 = CYLINDRICAL_SURFACE ( 'NONE', #101, 0.06250000000000002776 ) ;
#112 = DIRECTION ( 'NONE',  ( 0.0000000000000000000, 0.0000000000000000000, 1.000000000000000000 ) ) ;
#113 = ORIENTED_EDGE ( 'NONE', *, *, #246, .F. ) ;
#114 = ORIENTED_EDGE ( 'NONE', *, *, #141, .T. ) ;
#115 = EDGE_LOOP ( 'NONE', ( #275, #171, #200, #278 ) ) ;
#116 = ORIENTED_EDGE ( 'NONE', *, *, #270, .T. ) ;
#117 = AXIS2_PLACEMENT_3D ( 'NONE', #319, #65, #91 ) ;
#118 = CIRCLE ( 'NONE', #9, 0.01998000000000000123 ) ;
#119 = VERTEX_POINT ( 'NONE', #210 ) ;
#120 = CARTESIAN_POINT ( 'NONE',  ( -0.01997999999999998388, 5.050443399683686447E-18, 0.1199999999999999956 ) ) ;
#121 = UNCERTAINTY_MEASURE_WITH_UNIT (LENGTH_MEASURE( 1.000000000000000082E-05 ), #110, 'distance_accuracy_value', 'NONE');
#122 = DIRECTION ( 'NONE',  ( -1.000000000000000000, 0.0000000000000000000, 2.136392637687893513E-16 ) ) ;
#123 = LINE ( 'NONE', #310, #139 ) ;
#124 = CIRCLE ( 'NONE', #170, 0.01998000000000000123 ) ;
#125 = SURFACE_STYLE_USAGE ( .BOTH. , #178 ) ;
#126 = EDGE_CURVE ( 'NONE', #72, #252, #239, .T. ) ;
#127 = DIRECTION ( 'NONE',  ( -1.000000000000000000, 0.0000000000000000000, 0.0000000000000000000 ) ) ;
#128 = LINE ( 'NONE', #235, #233 ) ;
#129 =( NAMED_UNIT ( * ) SI_UNIT ( $, .STERADIAN. ) SOLID_ANGLE_UNIT ( ) );
#130 = EDGE_CURVE ( 'NONE', #48, #74, #315, .T. ) ;
#131 = FILL_AREA_STYLE ('',( #37 ) ) ;
#132 = FACE_OUTER_BOUND ( 'NONE', #196, .T. ) ;
#133 = VECTOR ( 'NONE', #164, 39.37007874015748143 ) ;
#134 =( NAMED_UNIT ( * ) PLANE_ANGLE_UNIT ( ) SI_UNIT ( $, .RADIAN. ) );
#135 = CARTESIAN_POINT ( 'NONE',  ( 0.04750000000000064587, 5.817072295950006528E-18, 1.500000000000000222 ) ) ;
#136 = CARTESIAN_POINT ( 'NONE',  ( 0.0000000000000000000, 0.0000000000000000000, 1.500000000000000222 ) ) ;
#137 = DIRECTION ( 'NONE',  ( 0.0000000000000000000, 0.0000000000000000000, 1.000000000000000000 ) ) ;
#138 = EDGE_CURVE ( 'NONE', #72, #323, #240, .T. ) ;
#139 = VECTOR ( 'NONE', #80, 39.37007874015747433 ) ;
#140 = ORIENTED_EDGE ( 'NONE', *, *, #64, .F. ) ;
#141 = EDGE_CURVE ( 'NONE', #168, #144, #124, .T. ) ;
#142 = ORIENTED_EDGE ( 'NONE', *, *, #172, .F. ) ;
#143 = AXIS2_PLACEMENT_3D ( 'NONE', #316, #206, #181 ) ;
#144 = VERTEX_POINT ( 'NONE', #267 ) ;
#145 = ORIENTED_EDGE ( 'NONE', *, *, #248, .T. ) ;
#146 = ORIENTED_EDGE ( 'NONE', *, *, #320, .T. ) ;
#147 = UNCERTAINTY_MEASURE_WITH_UNIT (LENGTH_MEASURE( 1.000000000000000082E-05 ), #209, 'distance_accuracy_value', 'NONE');
#148 = COLOUR_RGB ( '',0.7921568627450980005, 0.8196078431372548767, 0.9333333333333333481 ) ;
#149 = FILL_AREA_STYLE_COLOUR ( '', #73 ) ;
#150 = FILL_AREA_STYLE ('',( #149 ) ) ;
#151 = DIRECTION ( 'NONE',  ( -0.0000000000000000000, -0.0000000000000000000, -1.000000000000000000 ) ) ;
#152 = PRODUCT_DEFINITION ( 'UNKNOWN', '', #213, #106 ) ;
#153 = CARTESIAN_POINT ( 'NONE',  ( 4.422725001571700136E-17, 0.0000000000000000000, 0.3611429029701438975 ) ) ;
#154 = PRESENTATION_LAYER_ASSIGNMENT (  '', '', ( #61 ) ) ;
#155 = DIRECTION ( 'NONE',  ( 1.000000000000000000, 0.0000000000000000000, 0.0000000000000000000 ) ) ;
#156 = DIRECTION ( 'NONE',  ( 1.000000000000000000, 0.0000000000000000000, 0.0000000000000000000 ) ) ;
#157 = DIRECTION ( 'NONE',  ( -1.224646799147353454E-16, -0.0000000000000000000, -1.000000000000000000 ) ) ;
#158 = EDGE_CURVE ( 'NONE', #252, #72, #283, .T. ) ;
#159 = DIRECTION ( 'NONE',  ( 0.0000000000000000000, 0.0000000000000000000, -1.000000000000000000 ) ) ;
#160 = FACE_OUTER_BOUND ( 'NONE', #22, .T. ) ;
#161 = DIRECTION ( 'NONE',  ( 0.7071067811865462405, 8.659560562354916834E-17, -0.7071067811865486830 ) ) ;
#162 = CONICAL_SURFACE ( 'NONE', #221, 0.01997999999999999776, 0.1745329251994338637 ) ;
#163 = DIRECTION ( 'NONE',  ( -1.000000000000000000, 0.0000000000000000000, 0.0000000000000000000 ) ) ;
#164 = DIRECTION ( 'NONE',  ( 0.1736481776669313581, 0.0000000000000000000, 0.9848077530122077983 ) ) ;
#165 = AXIS2_PLACEMENT_3D ( 'NONE', #11, #159, #156 ) ;
#166 = LENGTH_MEASURE_WITH_UNIT ( LENGTH_MEASURE( 0.02539999999999999897 ), #321 );
#167 = ORIENTED_EDGE ( 'NONE', *, *, #82, .T. ) ;
#168 = VERTEX_POINT ( 'NONE', #294 ) ;
#169 = ORIENTED_EDGE ( 'NONE', *, *, #172, .T. ) ;
#170 = AXIS2_PLACEMENT_3D ( 'NONE', #87, #186, #14 ) ;
#171 = ORIENTED_EDGE ( 'NONE', *, *, #35, .T. ) ;
#172 = EDGE_CURVE ( 'NONE', #323, #119, #93, .T. ) ;
#173 = VERTEX_POINT ( 'NONE', #187 ) ;
#174 = DIRECTION ( 'NONE',  ( -0.0000000000000000000, -0.0000000000000000000, -1.000000000000000000 ) ) ;
#175 = CIRCLE ( 'NONE', #143, 0.01998000000000000123 ) ;
#176 = PRESENTATION_STYLE_ASSIGNMENT (( #230 ) ) ;
#177 = VECTOR ( 'NONE', #151, 39.37007874015748143 ) ;
#178 = SURFACE_SIDE_STYLE ('',( #23 ) ) ;
#179 = DIRECTION ( 'NONE',  ( -1.224646799147353454E-16, -0.0000000000000000000, -1.000000000000000000 ) ) ;
#180 = CARTESIAN_POINT ( 'NONE',  ( 2.446844304696412268E-18, 0.0000000000000000000, 0.01998000000000000123 ) ) ;
#181 = DIRECTION ( 'NONE',  ( -1.000000000000000000, 0.0000000000000000000, 2.136392637687893513E-16 ) ) ;
#182 = DIRECTION ( 'NONE',  ( -1.224646799147353454E-16, -0.0000000000000000000, -1.000000000000000000 ) ) ;
#183 = AXIS2_PLACEMENT_3D ( 'NONE', #136, #112, #220 ) ;
#184 = EDGE_CURVE ( 'NONE', #48, #102, #268, .T. ) ;
#185 = DIRECTION ( 'NONE',  ( 0.0000000000000000000, 1.000000000000000000, 0.0000000000000000000 ) ) ;
#186 = DIRECTION ( 'NONE',  ( 0.0000000000000000000, -1.000000000000000000, 0.0000000000000000000 ) ) ;
#187 = CARTESIAN_POINT ( 'NONE',  ( -0.06250000000000002776, 0.0000000000000000000, 1.485000000000000764 ) ) ;
#188 = ADVANCED_FACE ( 'NONE', ( #317 ), #162, .T. ) ;
#189 = DIRECTION ( 'NONE',  ( 1.000000000000000000, 0.0000000000000000000, 0.0000000000000000000 ) ) ;
#190 = VECTOR ( 'NONE', #174, 39.37007874015748143 ) ;
#191 = DIRECTION ( 'NONE',  ( -1.000000000000000000, 0.0000000000000000000, 0.0000000000000000000 ) ) ;
#192 = CARTESIAN_POINT ( 'NONE',  ( 0.0000000000000000000, 0.0000000000000000000, 0.0000000000000000000 ) ) ;
#193 = AXIS2_PLACEMENT_3D ( 'NONE', #83, #185, #293 ) ;
#194 = ORIENTED_EDGE ( 'NONE', *, *, #35, .F. ) ;
#195 = ADVANCED_FACE ( 'NONE', ( #160 ), #111, .T. ) ;
#196 = EDGE_LOOP ( 'NONE', ( #52, #197, #306, #302 ) ) ;
#197 = ORIENTED_EDGE ( 'NONE', *, *, #130, .T. ) ;
#198 = MECHANICAL_DESIGN_GEOMETRIC_PRESENTATION_REPRESENTATION (  '', ( #224 ), #67 ) ;
#199 = EDGE_CURVE ( 'NONE', #173, #74, #54, .T. ) ;
#200 = ORIENTED_EDGE ( 'NONE', *, *, #282, .F. ) ;
#201 = DIMENSIONAL_EXPONENTS ( 1.000000000000000000, 0.0000000000000000000, 0.0000000000000000000, 0.0000000000000000000, 0.0000000000000000000, 0.0000000000000000000, 0.0000000000000000000 ) ;
#202 = FACE_OUTER_BOUND ( 'NONE', #46, .T. ) ;
#203 = AXIS2_PLACEMENT_3D ( 'NONE', #214, #68, #86 ) ;
#204 = CARTESIAN_POINT ( 'NONE',  ( 2.446844304696412268E-18, 0.0000000000000000000, 0.01998000000000000123 ) ) ;
#205 = DIRECTION ( 'NONE',  ( -1.000000000000000000, 0.0000000000000000000, 1.224646799147353454E-16 ) ) ;
#206 = DIRECTION ( 'NONE',  ( 1.224646799147353454E-16, 0.0000000000000000000, 1.000000000000000000 ) ) ;
#207 = CARTESIAN_POINT ( 'NONE',  ( 0.01998000000000000817, 0.0000000000000000000, 0.1199999999999999956 ) ) ;
#208 = EDGE_CURVE ( 'NONE', #102, #48, #300, .T. ) ;
#209 =( CONVERSION_BASED_UNIT ( 'INCH', #24 ) LENGTH_UNIT ( ) NAMED_UNIT ( #256 ) );
#210 = CARTESIAN_POINT ( 'NONE',  ( -0.06249999999999997918, 0.0000000000000000000, 0.3611429029701438975 ) ) ;
#211 = FACE_OUTER_BOUND ( 'NONE', #115, .T. ) ;
#212 = VECTOR ( 'NONE', #261, 39.37007874015748143 ) ;
#213 = PRODUCT_DEFINITION_FORMATION_WITH_SPECIFIED_SOURCE ( 'ANY', '', #42, .NOT_KNOWN. ) ;
#214 = CARTESIAN_POINT ( 'NONE',  ( 0.0000000000000000000, 0.0000000000000000000, 1.500000000000000222 ) ) ;
#215 = ADVANCED_BREP_SHAPE_REPRESENTATION ( 'Micro_BMR-040-2X', ( #16, #292 ), #277 ) ;
#216 = SURFACE_SIDE_STYLE ('',( #238 ) ) ;
#217 = DIRECTION ( 'NONE',  ( 0.0000000000000000000, 0.0000000000000000000, 1.000000000000000000 ) ) ;
#218 = CARTESIAN_POINT ( 'NONE',  ( 0.0000000000000000000, 0.0000000000000000000, 1.500000000000000222 ) ) ;
#219 = ADVANCED_FACE ( 'NONE', ( #132 ), #305, .T. ) ;
#220 = DIRECTION ( 'NONE',  ( 1.000000000000000000, 0.0000000000000000000, -0.0000000000000000000 ) ) ;
#221 = AXIS2_PLACEMENT_3D ( 'NONE', #242, #13, #243 ) ;
#222 = EDGE_LOOP ( 'NONE', ( #113, #114, #1 ) ) ;
#223 = CIRCLE ( 'NONE', #90, 0.01998000000000000123 ) ;
#224 = STYLED_ITEM ( 'NONE', ( #176 ), #215 ) ;
#225 = ORIENTED_EDGE ( 'NONE', *, *, #282, .T. ) ;
#226 = ORIENTED_EDGE ( 'NONE', *, *, #138, .F. ) ;
#227 = CONICAL_SURFACE ( 'NONE', #314, 0.04750000000000064587, 0.7853981633974466137 ) ;
#228 = ORIENTED_EDGE ( 'NONE', *, *, #138, .T. ) ;
#229 = CYLINDRICAL_SURFACE ( 'NONE', #309, 0.01998000000000000123 ) ;
#230 = SURFACE_STYLE_USAGE ( .BOTH. , #216 ) ;
#231 = ADVANCED_FACE ( 'NONE', ( #271 ), #43, .T. ) ;
#232 = PRESENTATION_STYLE_ASSIGNMENT (( #125 ) ) ;
#233 = VECTOR ( 'NONE', #259, 39.37007874015748854 ) ;
#234 = LINE ( 'NONE', #78, #177 ) ;
#235 = CARTESIAN_POINT ( 'NONE',  ( -0.04750000000000064587, 0.0000000000000000000, 1.500000000000000222 ) ) ;
#236 = ADVANCED_FACE ( 'NONE', ( #287 ), #96, .T. ) ;
#237 = CARTESIAN_POINT ( 'NONE',  ( 1.469576158976824292E-17, 0.0000000000000000000, 0.1199999999999999956 ) ) ;
#238 = SURFACE_STYLE_FILL_AREA ( #131 ) ;
#239 = CIRCLE ( 'NONE', #70, 0.01997999999999999776 ) ;
#240 = LINE ( 'NONE', #109, #133 ) ;
#241 = SHAPE_DEFINITION_REPRESENTATION ( #39, #215 ) ;
#242 = CARTESIAN_POINT ( 'NONE',  ( 1.469576158976824292E-17, 0.0000000000000000000, 0.1199999999999999956 ) ) ;
#243 = DIRECTION ( 'NONE',  ( 1.000000000000000000, 0.0000000000000000000, 0.0000000000000000000 ) ) ;
#244 = PRODUCT_CONTEXT ( 'NONE', #17, 'mechanical' ) ;
#245 = CIRCLE ( 'NONE', #165, 0.06250000000000002776 ) ;
#246 = EDGE_CURVE ( 'NONE', #168, #75, #118, .T. ) ;
#247 = APPLICATION_PROTOCOL_DEFINITION ( 'draft international standard', 'automotive_design', 1998, #36 ) ;
#248 = EDGE_CURVE ( 'NONE', #75, #144, #175, .T. ) ;
#249 = EDGE_LOOP ( 'NONE', ( #20, #18, #50, #324 ) ) ;
#250 = ORIENTED_EDGE ( 'NONE', *, *, #141, .F. ) ;
#251 = ORIENTED_EDGE ( 'NONE', *, *, #158, .T. ) ;
#252 = VERTEX_POINT ( 'NONE', #120 ) ;
#253 = EDGE_LOOP ( 'NONE', ( #325, #276, #228, #169 ) ) ;
#254 = AXIS2_PLACEMENT_3D ( 'NONE', #295, #217, #41 ) ;
#255 = CARTESIAN_POINT ( 'NONE',  ( 0.0000000000000000000, 0.0000000000000000000, 0.0000000000000000000 ) ) ;
#256 = DIMENSIONAL_EXPONENTS ( 1.000000000000000000, 0.0000000000000000000, 0.0000000000000000000, 0.0000000000000000000, 0.0000000000000000000, 0.0000000000000000000, 0.0000000000000000000 ) ;
#257 = EDGE_CURVE ( 'NONE', #74, #173, #245, .T. ) ;
#258 = CARTESIAN_POINT ( 'NONE',  ( 0.0000000000000000000, 0.0000000000000000000, 1.500000000000000222 ) ) ;
#259 = DIRECTION ( 'NONE',  ( -0.7071067811865462405, 0.0000000000000000000, -0.7071067811865486830 ) ) ;
#260 = CLOSED_SHELL ( 'NONE', ( #32, #47, #236, #219, #307, #195, #231, #299, #188, #27, #92 ) ) ;
#261 = DIRECTION ( 'NONE',  ( -1.224646799147353454E-16, -0.0000000000000000000, -1.000000000000000000 ) ) ;
#262 =( CONVERSION_BASED_UNIT ( 'INCH', #3 ) LENGTH_UNIT ( ) NAMED_UNIT ( #301 ) );
#263 = AXIS2_PLACEMENT_3D ( 'NONE', #89, #44, #189 ) ;
#264 = CARTESIAN_POINT ( 'NONE',  ( 0.0000000000000000000, 0.0000000000000000000, 1.500000000000000222 ) ) ;
#265 = CARTESIAN_POINT ( 'NONE',  ( 0.01998000000000000123, 2.446844304696411883E-18, -2.446844304696412268E-18 ) ) ;
#266 = LINE ( 'NONE', #99, #190 ) ;
#267 = CARTESIAN_POINT ( 'NONE',  ( 0.01998000000000000470, 2.446844304696411883E-18, 0.01997999999999999776 ) ) ;
#268 = CIRCLE ( 'NONE', #254, 0.04750000000000064587 ) ;
#269 = DIRECTION ( 'NONE',  ( -1.224646799147353454E-16, -0.0000000000000000000, -1.000000000000000000 ) ) ;
#270 = EDGE_CURVE ( 'NONE', #252, #75, #291, .T. ) ;
#271 = FACE_OUTER_BOUND ( 'NONE', #21, .T. ) ;
#272 =( NAMED_UNIT ( * ) SI_UNIT ( $, .STERADIAN. ) SOLID_ANGLE_UNIT ( ) );
#273 = DIRECTION ( 'NONE',  ( -1.000000000000000000, 0.0000000000000000000, 0.0000000000000000000 ) ) ;
#274 = ORIENTED_EDGE ( 'NONE', *, *, #126, .T. ) ;
#275 = ORIENTED_EDGE ( 'NONE', *, *, #199, .T. ) ;
#276 = ORIENTED_EDGE ( 'NONE', *, *, #126, .F. ) ;
#277 =( GEOMETRIC_REPRESENTATION_CONTEXT ( 3 ) GLOBAL_UNCERTAINTY_ASSIGNED_CONTEXT ( ( #147 ) ) GLOBAL_UNIT_ASSIGNED_CONTEXT ( ( #209, #81, #7 ) ) REPRESENTATION_CONTEXT ( 'NONE', 'WORKASPACE' ) );
#278 = ORIENTED_EDGE ( 'NONE', *, *, #320, .F. ) ;
#279 = ORIENTED_EDGE ( 'NONE', *, *, #270, .F. ) ;
#280 = UNCERTAINTY_MEASURE_WITH_UNIT (LENGTH_MEASURE( 1.000000000000000082E-05 ), #262, 'distance_accuracy_value', 'NONE');
#281 = CARTESIAN_POINT ( 'NONE',  ( -0.04750000000000064587, 0.0000000000000000000, 1.500000000000000222 ) ) ;
#282 = EDGE_CURVE ( 'NONE', #119, #323, #290, .T. ) ;
#283 = CIRCLE ( 'NONE', #29, 0.01997999999999999776 ) ;
#284 = SPHERICAL_SURFACE ( 'NONE', #49, 0.01998000000000000123 ) ;
#285 = CARTESIAN_POINT ( 'NONE',  ( 0.06250000000000006939, 7.654042494670963708E-18, 0.3611429029701438975 ) ) ;
#286 = CARTESIAN_POINT ( 'NONE',  ( 0.04750000000000064587, 6.735557395310483192E-18, 1.500000000000000222 ) ) ;
#287 = FACE_OUTER_BOUND ( 'NONE', #2, .T. ) ;
#288 = EDGE_CURVE ( 'NONE', #252, #119, #123, .T. ) ;
#289 = LINE ( 'NONE', #265, #322 ) ;
#290 = CIRCLE ( 'NONE', #84, 0.06250000000000002776 ) ;
#291 = LINE ( 'NONE', #62, #212 ) ;
#292 = AXIS2_PLACEMENT_3D ( 'NONE', #192, #137, #88 ) ;
#293 = DIRECTION ( 'NONE',  ( 1.000000000000000000, 0.0000000000000000000, 0.0000000000000000000 ) ) ;
#294 = CARTESIAN_POINT ( 'NONE',  ( 3.670266457044618402E-18, 0.0000000000000000000, 0.0000000000000000000 ) ) ;
#295 = CARTESIAN_POINT ( 'NONE',  ( 0.0000000000000000000, 0.0000000000000000000, 1.500000000000000222 ) ) ;
#296 = AXIS2_PLACEMENT_3D ( 'NONE', #237, #60, #4 ) ;
#297 = DIRECTION ( 'NONE',  ( 1.000000000000000000, 0.0000000000000000000, 0.0000000000000000000 ) ) ;
#298 = CARTESIAN_POINT ( 'NONE',  ( 1.469576158976824292E-17, 0.0000000000000000000, 0.1199999999999999956 ) ) ;
#299 = ADVANCED_FACE ( 'NONE', ( #33 ), #227, .T. ) ;
#300 = CIRCLE ( 'NONE', #19, 0.04750000000000064587 ) ;
#301 = DIMENSIONAL_EXPONENTS ( 1.000000000000000000, 0.0000000000000000000, 0.0000000000000000000, 0.0000000000000000000, 0.0000000000000000000, 0.0000000000000000000, 0.0000000000000000000 ) ;
#302 = ORIENTED_EDGE ( 'NONE', *, *, #51, .F. ) ;
#303 = ORIENTED_EDGE ( 'NONE', *, *, #246, .T. ) ;
#304 = ORIENTED_EDGE ( 'NONE', *, *, #158, .F. ) ;
#305 = CONICAL_SURFACE ( 'NONE', #203, 0.04750000000000064587, 0.7853981633974466137 ) ;
#306 = ORIENTED_EDGE ( 'NONE', *, *, #199, .F. ) ;
#307 = ADVANCED_FACE ( 'NONE', ( #211 ), #104, .T. ) ;
#308 = FACE_OUTER_BOUND ( 'NONE', #222, .T. ) ;
#309 = AXIS2_PLACEMENT_3D ( 'NONE', #255, #157, #205 ) ;
#310 = CARTESIAN_POINT ( 'NONE',  ( -0.01997999999999998388, 2.446844304696411498E-18, 0.1199999999999999956 ) ) ;
#311 = FACE_OUTER_BOUND ( 'NONE', #97, .T. ) ;
#312 = CARTESIAN_POINT ( 'NONE',  ( -0.01997999999999999776, 0.0000000000000000000, 0.01998000000000000470 ) ) ;
#313 = SPHERICAL_SURFACE ( 'NONE', #193, 0.01998000000000000123 ) ;
#314 = AXIS2_PLACEMENT_3D ( 'NONE', #264, #30, #127 ) ;
#315 = LINE ( 'NONE', #135, #108 ) ;
#316 = CARTESIAN_POINT ( 'NONE',  ( 2.446844304696412268E-18, 0.0000000000000000000, 0.01998000000000000123 ) ) ;
#317 = FACE_OUTER_BOUND ( 'NONE', #253, .T. ) ;
#318 = DIRECTION ( 'NONE',  ( -0.0000000000000000000, -0.0000000000000000000, -1.000000000000000000 ) ) ;
#319 = CARTESIAN_POINT ( 'NONE',  ( 4.422725001571700136E-17, 0.0000000000000000000, 0.3611429029701438975 ) ) ;
#320 = EDGE_CURVE ( 'NONE', #173, #119, #234, .T. ) ;
#321 =( LENGTH_UNIT ( ) NAMED_UNIT ( * ) SI_UNIT ( $, .METRE. ) );
#322 = VECTOR ( 'NONE', #31, 39.37007874015748143 ) ;
#323 = VERTEX_POINT ( 'NONE', #285 ) ;
#324 = ORIENTED_EDGE ( 'NONE', *, *, #257, .F. ) ;
#325 = ORIENTED_EDGE ( 'NONE', *, *, #288, .F. ) ;
ENDSEC;
END-ISO-10303-21;
