ISO-10303-21;
HEADER;
FILE_DESCRIPTION (( 'STEP AP214' ),
    '1' );
FILE_NAME ('Micro_GEM-375-4.STEP',
    '2021-09-01T20:39:52',
    ( '' ),
    ( '' ),
    'SwSTEP 2.0',
    'SolidWorks 2020',
    '' );
FILE_SCHEMA (( 'AUTOMOTIVE_DESIGN' ));
ENDSEC;

DATA;
#1 = AXIS2_PLACEMENT_3D ( 'NONE', #23, #114, #185 ) ;
#2 = EDGE_CURVE ( 'NONE', #118, #107, #20, .T. ) ;
#3 = CARTESIAN_POINT ( 'NONE',  ( 0.0000000000000000000, 0.0000000000000000000, 2.484999999999999432 ) ) ;
#4 = CARTESIAN_POINT ( 'NONE',  ( -0.1873124999999999096, 2.293916535652885904E-17, 0.8750000000000000000 ) ) ;
#5 = DIRECTION ( 'NONE',  ( 1.000000000000000000, 0.0000000000000000000, 0.0000000000000000000 ) ) ;
#6 = DIRECTION ( 'NONE',  ( -1.224646799147353207E-16, -0.0000000000000000000, -1.000000000000000000 ) ) ;
#7 = DIRECTION ( 'NONE',  ( 1.000000000000000000, 0.0000000000000000000, 0.0000000000000000000 ) ) ;
#8 = DIRECTION ( 'NONE',  ( 1.000000000000000000, 0.0000000000000000000, 0.0000000000000000000 ) ) ;
#9 = AXIS2_PLACEMENT_3D ( 'NONE', #60, #79, #41 ) ;
#10 = CARTESIAN_POINT ( 'NONE',  ( -0.1873124999999999929, 0.0000000000000000000, 4.587833071305771192E-17 ) ) ;
#11 = DIRECTION ( 'NONE',  ( -1.000000000000000000, 0.0000000000000000000, 1.224646799147352961E-16 ) ) ;
#12 = EDGE_CURVE ( 'NONE', #133, #256, #157, .T. ) ;
#13 = CARTESIAN_POINT ( 'NONE',  ( 0.0000000000000000000, 0.0000000000000000000, 2.500000000000000000 ) ) ;
#14 = FACE_OUTER_BOUND ( 'NONE', #258, .T. ) ;
#15 = ORIENTED_EDGE ( 'NONE', *, *, #2, .F. ) ;
#16 = AXIS2_PLACEMENT_3D ( 'NONE', #53, #168, #11 ) ;
#17 = ORIENTED_EDGE ( 'NONE', *, *, #12, .F. ) ;
#18 = CARTESIAN_POINT ( 'NONE',  ( 0.1873125000000001317, 0.0000000000000000000, 0.8750000000000000000 ) ) ;
#19 = ORIENTED_EDGE ( 'NONE', *, *, #104, .T. ) ;
#20 = CIRCLE ( 'NONE', #72, 0.1873124999999999929 ) ;
#21 = FACE_OUTER_BOUND ( 'NONE', #102, .T. ) ;
#22 = PRESENTATION_LAYER_ASSIGNMENT (  '', '', ( #143 ) ) ;
#23 = CARTESIAN_POINT ( 'NONE',  ( 1.072868196215332272E-16, 0.0000000000000000000, 0.8760633653411783461 ) ) ;
#24 = EDGE_CURVE ( 'NONE', #136, #42, #162, .T. ) ;
#25 = ORIENTED_EDGE ( 'NONE', *, *, #112, .F. ) ;
#26 = DIRECTION ( 'NONE',  ( -1.000000000000000000, 0.0000000000000000000, 1.224646799147352961E-16 ) ) ;
#27 = VECTOR ( 'NONE', #182, 39.37007874015748143 ) ;
#28 = ORIENTED_EDGE ( 'NONE', *, *, #165, .F. ) ;
#29 = CARTESIAN_POINT ( 'NONE',  ( 0.1724999999999995981, 2.204364238465233357E-17, 2.500000000000000000 ) ) ;
#30 = PRODUCT_DEFINITION ( 'UNKNOWN', '', #208, #265 ) ;
#31 = DIMENSIONAL_EXPONENTS ( 1.000000000000000000, 0.0000000000000000000, 0.0000000000000000000, 0.0000000000000000000, 0.0000000000000000000, 0.0000000000000000000, 0.0000000000000000000 ) ;
#32 = DIRECTION ( 'NONE',  ( -0.7071067811865385799, 0.0000000000000000000, -0.7071067811865563435 ) ) ;
#33 = CONICAL_SURFACE ( 'NONE', #77, 0.1873125000000000207, 0.1745329251994338915 ) ;
#34 = PLANE ( 'NONE',  #262 ) ;
#35 = CARTESIAN_POINT ( 'NONE',  ( 0.0000000000000000000, 0.0000000000000000000, 2.500000000000000000 ) ) ;
#36 = DIRECTION ( 'NONE',  ( 0.0000000000000000000, 0.0000000000000000000, 1.000000000000000000 ) ) ;
#37 = PRODUCT ( 'Micro_GEM-375-4', 'Micro_GEM-375-4', '', ( #259 ) ) ;
#38 = AXIS2_PLACEMENT_3D ( 'NONE', #35, #242, #239 ) ;
#39 =( NAMED_UNIT ( * ) PLANE_ANGLE_UNIT ( ) SI_UNIT ( $, .RADIAN. ) );
#40 = ADVANCED_FACE ( 'NONE', ( #232 ), #33, .T. ) ;
#41 = DIRECTION ( 'NONE',  ( 1.000000000000000000, 0.0000000000000000000, -0.0000000000000000000 ) ) ;
#42 = VERTEX_POINT ( 'NONE', #119 ) ;
#43 = MECHANICAL_DESIGN_GEOMETRIC_PRESENTATION_REPRESENTATION (  '', ( #189 ), #105 ) ;
#44 = ORIENTED_EDGE ( 'NONE', *, *, #204, .T. ) ;
#45 = EDGE_LOOP ( 'NONE', ( #28, #229, #260, #25 ) ) ;
#46 = FACE_OUTER_BOUND ( 'NONE', #45, .T. ) ;
#47 = CONICAL_SURFACE ( 'NONE', #212, 0.1724999999999995981, 0.7853981633974357335 ) ;
#48 = VERTEX_POINT ( 'NONE', #89 ) ;
#49 = ORIENTED_EDGE ( 'NONE', *, *, #123, .T. ) ;
#50 = DIRECTION ( 'NONE',  ( 0.0000000000000000000, 0.0000000000000000000, -1.000000000000000000 ) ) ;
#51 = VECTOR ( 'NONE', #141, 39.37007874015748143 ) ;
#52 = SURFACE_SIDE_STYLE ('',( #94 ) ) ;
#53 = CARTESIAN_POINT ( 'NONE',  ( 2.809237542898491532E-33, 0.0000000000000000000, 2.293916535652885596E-17 ) ) ;
#54 = CIRCLE ( 'NONE', #151, 0.1875000000000000278 ) ;
#55 = DIRECTION ( 'NONE',  ( -1.000000000000000000, 0.0000000000000000000, 1.224646799147352961E-16 ) ) ;
#56 = LINE ( 'NONE', #125, #183 ) ;
#57 = DIRECTION ( 'NONE',  ( 1.000000000000000000, 0.0000000000000000000, 0.0000000000000000000 ) ) ;
#58 = ADVANCED_FACE ( 'NONE', ( #46 ), #128, .T. ) ;
#59 = FACE_OUTER_BOUND ( 'NONE', #217, .T. ) ;
#60 = CARTESIAN_POINT ( 'NONE',  ( 0.0000000000000000000, 0.0000000000000000000, 0.0000000000000000000 ) ) ;
#61 = EDGE_LOOP ( 'NONE', ( #281, #86, #115, #235 ) ) ;
#62 = ORIENTED_EDGE ( 'NONE', *, *, #268, .F. ) ;
#63 = UNCERTAINTY_MEASURE_WITH_UNIT (LENGTH_MEASURE( 1.000000000000000082E-05 ), #177, 'distance_accuracy_value', 'NONE');
#64 = ORIENTED_EDGE ( 'NONE', *, *, #112, .T. ) ;
#65 = SHAPE_DEFINITION_REPRESENTATION ( #272, #271 ) ;
#66 = ADVANCED_FACE ( 'NONE', ( #186 ), #209, .T. ) ;
#67 = DIRECTION ( 'NONE',  ( -1.224646799147353207E-16, -0.0000000000000000000, -1.000000000000000000 ) ) ;
#68 = AXIS2_PLACEMENT_3D ( 'NONE', #71, #255, #139 ) ;
#69 = DIRECTION ( 'NONE',  ( 1.224646799147353207E-16, 0.0000000000000000000, 1.000000000000000000 ) ) ;
#70 = CARTESIAN_POINT ( 'NONE',  ( 0.1724999999999995981, 2.112515728529179297E-17, 2.500000000000000000 ) ) ;
#71 = CARTESIAN_POINT ( 'NONE',  ( 0.0000000000000000000, 0.0000000000000000000, 2.484999999999999432 ) ) ;
#72 = AXIS2_PLACEMENT_3D ( 'NONE', #111, #67, #26 ) ;
#73 = CARTESIAN_POINT ( 'NONE',  ( 0.0000000000000000000, 0.0000000000000000000, 2.500000000000000000 ) ) ;
#74 = EDGE_CURVE ( 'NONE', #256, #42, #117, .T. ) ;
#75 = CYLINDRICAL_SURFACE ( 'NONE', #187, 0.1875000000000000278 ) ;
#76 = DIRECTION ( 'NONE',  ( -1.224646799147353207E-16, -0.0000000000000000000, -1.000000000000000000 ) ) ;
#77 = AXIS2_PLACEMENT_3D ( 'NONE', #231, #69, #5 ) ;
#78 =( LENGTH_UNIT ( ) NAMED_UNIT ( * ) SI_UNIT ( $, .METRE. ) );
#79 = DIRECTION ( 'NONE',  ( 0.0000000000000000000, 0.0000000000000000000, 1.000000000000000000 ) ) ;
#80 = EDGE_CURVE ( 'NONE', #153, #133, #288, .T. ) ;
#81 =( NAMED_UNIT ( * ) SI_UNIT ( $, .STERADIAN. ) SOLID_ANGLE_UNIT ( ) );
#82 = ORIENTED_EDGE ( 'NONE', *, *, #24, .F. ) ;
#83 = VECTOR ( 'NONE', #101, 39.37007874015748143 ) ;
#84 = EDGE_CURVE ( 'NONE', #136, #133, #54, .T. ) ;
#85 = AXIS2_PLACEMENT_3D ( 'NONE', #140, #6, #90 ) ;
#86 = ORIENTED_EDGE ( 'NONE', *, *, #123, .F. ) ;
#87 = ORIENTED_EDGE ( 'NONE', *, *, #2, .T. ) ;
#88 = MECHANICAL_DESIGN_GEOMETRIC_PRESENTATION_REPRESENTATION (  '', ( #143 ), #277 ) ;
#89 = CARTESIAN_POINT ( 'NONE',  ( 0.1873125000000001317, 0.0000000000000000000, 0.8750000000000000000 ) ) ;
#90 = DIRECTION ( 'NONE',  ( -1.000000000000000000, 0.0000000000000000000, 1.224646799147352961E-16 ) ) ;
#91 = EDGE_CURVE ( 'NONE', #224, #42, #92, .T. ) ;
#92 = LINE ( 'NONE', #4, #285 ) ;
#93 = DIRECTION ( 'NONE',  ( 1.000000000000000000, 0.0000000000000000000, 0.0000000000000000000 ) ) ;
#94 = SURFACE_STYLE_FILL_AREA ( #121 ) ;
#95 = EDGE_CURVE ( 'NONE', #133, #136, #251, .T. ) ;
#96 = DIRECTION ( 'NONE',  ( -1.224646799147353207E-16, -0.0000000000000000000, -1.000000000000000000 ) ) ;
#97 = DIRECTION ( 'NONE',  ( -0.0000000000000000000, -0.0000000000000000000, -1.000000000000000000 ) ) ;
#98 = COLOUR_RGB ( '',0.7921568627450980005, 0.8196078431372548767, 0.9333333333333333481 ) ;
#99 = LINE ( 'NONE', #148, #245 ) ;
#100 = ADVANCED_FACE ( 'NONE', ( #21 ), #34, .T. ) ;
#101 = DIRECTION ( 'NONE',  ( 0.1736481776669313859, 0.0000000000000000000, 0.9848077530122077983 ) ) ;
#102 = EDGE_LOOP ( 'NONE', ( #206, #248 ) ) ;
#103 = ORIENTED_EDGE ( 'NONE', *, *, #104, .F. ) ;
#104 = EDGE_CURVE ( 'NONE', #48, #118, #195, .T. ) ;
#105 =( GEOMETRIC_REPRESENTATION_CONTEXT ( 3 ) GLOBAL_UNCERTAINTY_ASSIGNED_CONTEXT ( ( #221 ) ) GLOBAL_UNIT_ASSIGNED_CONTEXT ( ( #129, #113, #227 ) ) REPRESENTATION_CONTEXT ( 'NONE', 'WORKASPACE' ) );
#106 = DIRECTION ( 'NONE',  ( -1.000000000000000000, 0.0000000000000000000, 0.0000000000000000000 ) ) ;
#107 = VERTEX_POINT ( 'NONE', #10 ) ;
#108 = ORIENTED_EDGE ( 'NONE', *, *, #84, .T. ) ;
#109 = UNCERTAINTY_MEASURE_WITH_UNIT (LENGTH_MEASURE( 1.000000000000000082E-05 ), #247, 'distance_accuracy_value', 'NONE');
#110 = CONICAL_SURFACE ( 'NONE', #194, 0.1873125000000000207, 0.1745329251994338915 ) ;
#111 = CARTESIAN_POINT ( 'NONE',  ( 2.809237542898491532E-33, 0.0000000000000000000, 2.293916535652885596E-17 ) ) ;
#112 = EDGE_CURVE ( 'NONE', #155, #136, #56, .T. ) ;
#113 =( NAMED_UNIT ( * ) PLANE_ANGLE_UNIT ( ) SI_UNIT ( $, .RADIAN. ) );
#114 = DIRECTION ( 'NONE',  ( -1.224646799147353207E-16, -0.0000000000000000000, -1.000000000000000000 ) ) ;
#115 = ORIENTED_EDGE ( 'NONE', *, *, #249, .T. ) ;
#116 = ADVANCED_FACE ( 'NONE', ( #293 ), #267, .T. ) ;
#117 = CIRCLE ( 'NONE', #1, 0.1875000000000000278 ) ;
#118 = VERTEX_POINT ( 'NONE', #146 ) ;
#119 = CARTESIAN_POINT ( 'NONE',  ( -0.1874999999999999167, 0.0000000000000000000, 0.8760633653411783461 ) ) ;
#120 = CARTESIAN_POINT ( 'NONE',  ( -0.1875000000000000278, 0.0000000000000000000, 2.484999999999999432 ) ) ;
#121 = FILL_AREA_STYLE ('',( #193 ) ) ;
#122 = AXIS2_PLACEMENT_3D ( 'NONE', #175, #250, #154 ) ;
#123 = EDGE_CURVE ( 'NONE', #48, #224, #238, .T. ) ;
#124 = DIRECTION ( 'NONE',  ( -1.224646799147353207E-16, -0.0000000000000000000, -1.000000000000000000 ) ) ;
#125 = CARTESIAN_POINT ( 'NONE',  ( -0.1724999999999995981, 0.0000000000000000000, 2.500000000000000000 ) ) ;
#126 = APPLICATION_CONTEXT ( 'automotive_design' ) ;
#127 = DIRECTION ( 'NONE',  ( 0.0000000000000000000, 0.0000000000000000000, 1.000000000000000000 ) ) ;
#128 = CONICAL_SURFACE ( 'NONE', #169, 0.1724999999999995981, 0.7853981633974357335 ) ;
#129 =( CONVERSION_BASED_UNIT ( 'INCH', #199 ) LENGTH_UNIT ( ) NAMED_UNIT ( #31 ) );
#130 = ORIENTED_EDGE ( 'NONE', *, *, #274, .T. ) ;
#131 = SURFACE_STYLE_USAGE ( .BOTH. , #299 ) ;
#132 = ORIENTED_EDGE ( 'NONE', *, *, #268, .T. ) ;
#133 = VERTEX_POINT ( 'NONE', #150 ) ;
#134 = CIRCLE ( 'NONE', #290, 0.1724999999999995981 ) ;
#135 = COLOUR_RGB ( '',0.7921568627450980005, 0.8196078431372548767, 0.9333333333333333481 ) ;
#136 = VERTEX_POINT ( 'NONE', #120 ) ;
#137 =( NAMED_UNIT ( * ) SI_UNIT ( $, .STERADIAN. ) SOLID_ANGLE_UNIT ( ) );
#138 = EDGE_CURVE ( 'NONE', #107, #118, #294, .T. ) ;
#139 = DIRECTION ( 'NONE',  ( 1.000000000000000000, 0.0000000000000000000, 0.0000000000000000000 ) ) ;
#140 = CARTESIAN_POINT ( 'NONE',  ( 0.0000000000000000000, 0.0000000000000000000, 0.0000000000000000000 ) ) ;
#141 = DIRECTION ( 'NONE',  ( -0.0000000000000000000, -0.0000000000000000000, -1.000000000000000000 ) ) ;
#142 = EDGE_LOOP ( 'NONE', ( #173, #161, #64, #220 ) ) ;
#143 = STYLED_ITEM ( 'NONE', ( #263 ), #230 ) ;
#144 = ORIENTED_EDGE ( 'NONE', *, *, #138, .T. ) ;
#145 = CYLINDRICAL_SURFACE ( 'NONE', #269, 0.1873124999999999929 ) ;
#146 = CARTESIAN_POINT ( 'NONE',  ( 0.1873124999999999929, 2.293916535652885596E-17, 0.0000000000000000000 ) ) ;
#147 = CARTESIAN_POINT ( 'NONE',  ( -0.1873124999999999096, 2.295064642027087123E-17, 0.8750000000000000000 ) ) ;
#148 = CARTESIAN_POINT ( 'NONE',  ( -0.1873124999999999929, 0.0000000000000000000, 2.293916535652885596E-17 ) ) ;
#149 = ADVANCED_FACE ( 'NONE', ( #167 ), #110, .T. ) ;
#150 = CARTESIAN_POINT ( 'NONE',  ( 0.1875000000000000278, 2.296212748401287726E-17, 2.484999999999999432 ) ) ;
#151 = AXIS2_PLACEMENT_3D ( 'NONE', #3, #50, #7 ) ;
#152 = CARTESIAN_POINT ( 'NONE',  ( 0.1875000000000000833, 2.296212748401288650E-17, 0.8760633653411783461 ) ) ;
#153 = VERTEX_POINT ( 'NONE', #29 ) ;
#154 = DIRECTION ( 'NONE',  ( -1.000000000000000000, 0.0000000000000000000, 0.0000000000000000000 ) ) ;
#155 = VERTEX_POINT ( 'NONE', #270 ) ;
#156 = ADVANCED_FACE ( 'NONE', ( #264 ), #145, .T. ) ;
#157 = LINE ( 'NONE', #159, #27 ) ;
#158 = AXIS2_PLACEMENT_3D ( 'NONE', #252, #178, #57 ) ;
#159 = CARTESIAN_POINT ( 'NONE',  ( 0.1875000000000000278, 2.296212748401287726E-17, 2.500000000000000000 ) ) ;
#160 = CARTESIAN_POINT ( 'NONE',  ( 0.0000000000000000000, 0.0000000000000000000, 0.0000000000000000000 ) ) ;
#161 = ORIENTED_EDGE ( 'NONE', *, *, #211, .F. ) ;
#162 = LINE ( 'NONE', #202, #51 ) ;
#163 = SURFACE_STYLE_USAGE ( .BOTH. , #52 ) ;
#164 = AXIS2_PLACEMENT_3D ( 'NONE', #160, #287, #283 ) ;
#165 = EDGE_CURVE ( 'NONE', #153, #155, #280, .T. ) ;
#166 = DIRECTION ( 'NONE',  ( -1.224646799147353207E-16, -0.0000000000000000000, -1.000000000000000000 ) ) ;
#167 = FACE_OUTER_BOUND ( 'NONE', #61, .T. ) ;
#168 = DIRECTION ( 'NONE',  ( -1.224646799147353207E-16, -0.0000000000000000000, -1.000000000000000000 ) ) ;
#169 = AXIS2_PLACEMENT_3D ( 'NONE', #203, #210, #184 ) ;
#170 = DIRECTION ( 'NONE',  ( 1.224646799147353207E-16, 0.0000000000000000000, 1.000000000000000000 ) ) ;
#171 = DIRECTION ( 'NONE',  ( 0.0000000000000000000, 0.0000000000000000000, -1.000000000000000000 ) ) ;
#172 =( LENGTH_UNIT ( ) NAMED_UNIT ( * ) SI_UNIT ( $, .METRE. ) );
#173 = ORIENTED_EDGE ( 'NONE', *, *, #80, .F. ) ;
#174 = ADVANCED_FACE ( 'NONE', ( #14 ), #75, .T. ) ;
#175 = CARTESIAN_POINT ( 'NONE',  ( 1.071565949253934025E-16, 0.0000000000000000000, 0.8750000000000000000 ) ) ;
#176 = EDGE_LOOP ( 'NONE', ( #103, #49, #44, #15 ) ) ;
#177 =( CONVERSION_BASED_UNIT ( 'INCH', #236 ) LENGTH_UNIT ( ) NAMED_UNIT ( #214 ) );
#178 = DIRECTION ( 'NONE',  ( -1.224646799147353207E-16, -0.0000000000000000000, -1.000000000000000000 ) ) ;
#179 = ORIENTED_EDGE ( 'NONE', *, *, #95, .T. ) ;
#180 = ORIENTED_EDGE ( 'NONE', *, *, #249, .F. ) ;
#181 = ORIENTED_EDGE ( 'NONE', *, *, #138, .F. ) ;
#182 = DIRECTION ( 'NONE',  ( -0.0000000000000000000, -0.0000000000000000000, -1.000000000000000000 ) ) ;
#183 = VECTOR ( 'NONE', #32, 39.37007874015748854 ) ;
#184 = DIRECTION ( 'NONE',  ( -1.000000000000000000, 0.0000000000000000000, 0.0000000000000000000 ) ) ;
#185 = DIRECTION ( 'NONE',  ( 1.000000000000000000, 0.0000000000000000000, 0.0000000000000000000 ) ) ;
#186 = FACE_OUTER_BOUND ( 'NONE', #176, .T. ) ;
#187 = AXIS2_PLACEMENT_3D ( 'NONE', #216, #97, #291 ) ;
#188 = DIRECTION ( 'NONE',  ( -1.000000000000000000, 0.0000000000000000000, 0.0000000000000000000 ) ) ;
#189 = STYLED_ITEM ( 'NONE', ( #279 ), #271 ) ;
#190 = CARTESIAN_POINT ( 'NONE',  ( 1.071565949253934025E-16, 0.0000000000000000000, 0.8750000000000000000 ) ) ;
#191 = PRODUCT_RELATED_PRODUCT_CATEGORY ( 'part', '', ( #37 ) ) ;
#192 = CARTESIAN_POINT ( 'NONE',  ( 0.1873124999999999929, 2.293916535652885596E-17, -2.293916535652885596E-17 ) ) ;
#193 = FILL_AREA_STYLE_COLOUR ( '', #98 ) ;
#194 = AXIS2_PLACEMENT_3D ( 'NONE', #190, #170, #8 ) ;
#195 = LINE ( 'NONE', #192, #233 ) ;
#196 = SURFACE_STYLE_FILL_AREA ( #219 ) ;
#197 = ORIENTED_EDGE ( 'NONE', *, *, #12, .T. ) ;
#198 = APPLICATION_PROTOCOL_DEFINITION ( 'draft international standard', 'automotive_design', 1998, #126 ) ;
#199 = LENGTH_MEASURE_WITH_UNIT ( LENGTH_MEASURE( 0.02539999999999999897 ), #244 );
#200 = PLANE ( 'NONE',  #9 ) ;
#201 = AXIS2_PLACEMENT_3D ( 'NONE', #13, #127, #93 ) ;
#202 = CARTESIAN_POINT ( 'NONE',  ( -0.1875000000000000278, 0.0000000000000000000, 2.500000000000000000 ) ) ;
#203 = CARTESIAN_POINT ( 'NONE',  ( 0.0000000000000000000, 0.0000000000000000000, 2.500000000000000000 ) ) ;
#204 = EDGE_CURVE ( 'NONE', #224, #107, #99, .T. ) ;
#205 = CLOSED_SHELL ( 'NONE', ( #156, #40, #58, #174, #116, #100, #234, #149, #66, #243 ) ) ;
#206 = ORIENTED_EDGE ( 'NONE', *, *, #211, .T. ) ;
#207 = VECTOR ( 'NONE', #261, 39.37007874015748854 ) ;
#208 = PRODUCT_DEFINITION_FORMATION_WITH_SPECIFIED_SOURCE ( 'ANY', '', #37, .NOT_KNOWN. ) ;
#209 = CYLINDRICAL_SURFACE ( 'NONE', #85, 0.1873124999999999929 ) ;
#210 = DIRECTION ( 'NONE',  ( 0.0000000000000000000, 0.0000000000000000000, -1.000000000000000000 ) ) ;
#211 = EDGE_CURVE ( 'NONE', #155, #153, #134, .T. ) ;
#212 = AXIS2_PLACEMENT_3D ( 'NONE', #73, #171, #106 ) ;
#213 = CARTESIAN_POINT ( 'NONE',  ( 1.071565949253934025E-16, 0.0000000000000000000, 0.8750000000000000000 ) ) ;
#214 = DIMENSIONAL_EXPONENTS ( 1.000000000000000000, 0.0000000000000000000, 0.0000000000000000000, 0.0000000000000000000, 0.0000000000000000000, 0.0000000000000000000, 0.0000000000000000000 ) ;
#215 = CARTESIAN_POINT ( 'NONE',  ( 0.0000000000000000000, 0.0000000000000000000, 0.0000000000000000000 ) ) ;
#216 = CARTESIAN_POINT ( 'NONE',  ( 0.0000000000000000000, 0.0000000000000000000, 2.500000000000000000 ) ) ;
#217 = EDGE_LOOP ( 'NONE', ( #144, #87 ) ) ;
#218 = ORIENTED_EDGE ( 'NONE', *, *, #274, .F. ) ;
#219 = FILL_AREA_STYLE ('',( #276 ) ) ;
#220 = ORIENTED_EDGE ( 'NONE', *, *, #95, .F. ) ;
#221 = UNCERTAINTY_MEASURE_WITH_UNIT (LENGTH_MEASURE( 1.000000000000000082E-05 ), #129, 'distance_accuracy_value', 'NONE');
#222 = AXIS2_PLACEMENT_3D ( 'NONE', #213, #166, #188 ) ;
#223 = LINE ( 'NONE', #18, #83 ) ;
#224 = VERTEX_POINT ( 'NONE', #147 ) ;
#225 = FACE_OUTER_BOUND ( 'NONE', #142, .T. ) ;
#226 = EDGE_LOOP ( 'NONE', ( #62, #253, #130, #180 ) ) ;
#227 =( NAMED_UNIT ( * ) SI_UNIT ( $, .STERADIAN. ) SOLID_ANGLE_UNIT ( ) );
#228 = EDGE_LOOP ( 'NONE', ( #132, #19, #181, #284 ) ) ;
#229 = ORIENTED_EDGE ( 'NONE', *, *, #80, .T. ) ;
#230 = MANIFOLD_SOLID_BREP ( 'Cut-Revolve1', #205 ) ;
#231 = CARTESIAN_POINT ( 'NONE',  ( 1.071565949253934025E-16, 0.0000000000000000000, 0.8750000000000000000 ) ) ;
#232 = FACE_OUTER_BOUND ( 'NONE', #226, .T. ) ;
#233 = VECTOR ( 'NONE', #124, 39.37007874015748143 ) ;
#234 = ADVANCED_FACE ( 'NONE', ( #225 ), #47, .T. ) ;
#235 = ORIENTED_EDGE ( 'NONE', *, *, #74, .T. ) ;
#236 = LENGTH_MEASURE_WITH_UNIT ( LENGTH_MEASURE( 0.02539999999999999897 ), #78 );
#237 = DIRECTION ( 'NONE',  ( 1.000000000000000000, 0.0000000000000000000, -0.0000000000000000000 ) ) ;
#238 = CIRCLE ( 'NONE', #222, 0.1873125000000000207 ) ;
#239 = DIRECTION ( 'NONE',  ( -1.000000000000000000, 0.0000000000000000000, 0.0000000000000000000 ) ) ;
#240 =( GEOMETRIC_REPRESENTATION_CONTEXT ( 3 ) GLOBAL_UNCERTAINTY_ASSIGNED_CONTEXT ( ( #109 ) ) GLOBAL_UNIT_ASSIGNED_CONTEXT ( ( #247, #39, #137 ) ) REPRESENTATION_CONTEXT ( 'NONE', 'WORKASPACE' ) );
#241 = DIRECTION ( 'NONE',  ( 0.0000000000000000000, 0.0000000000000000000, 1.000000000000000000 ) ) ;
#242 = DIRECTION ( 'NONE',  ( -0.0000000000000000000, -0.0000000000000000000, -1.000000000000000000 ) ) ;
#243 = ADVANCED_FACE ( 'NONE', ( #59 ), #200, .F. ) ;
#244 =( LENGTH_UNIT ( ) NAMED_UNIT ( * ) SI_UNIT ( $, .METRE. ) );
#245 = VECTOR ( 'NONE', #76, 39.37007874015748143 ) ;
#246 = PRESENTATION_LAYER_ASSIGNMENT (  '', '', ( #189 ) ) ;
#247 =( CONVERSION_BASED_UNIT ( 'INCH', #296 ) LENGTH_UNIT ( ) NAMED_UNIT ( #266 ) );
#248 = ORIENTED_EDGE ( 'NONE', *, *, #165, .T. ) ;
#249 = EDGE_CURVE ( 'NONE', #48, #256, #223, .T. ) ;
#250 = DIRECTION ( 'NONE',  ( -1.224646799147353207E-16, -0.0000000000000000000, -1.000000000000000000 ) ) ;
#251 = CIRCLE ( 'NONE', #68, 0.1875000000000000278 ) ;
#252 = CARTESIAN_POINT ( 'NONE',  ( 1.072868196215332272E-16, 0.0000000000000000000, 0.8760633653411783461 ) ) ;
#253 = ORIENTED_EDGE ( 'NONE', *, *, #91, .T. ) ;
#254 = APPLICATION_PROTOCOL_DEFINITION ( 'draft international standard', 'automotive_design', 1998, #297 ) ;
#255 = DIRECTION ( 'NONE',  ( 0.0000000000000000000, 0.0000000000000000000, -1.000000000000000000 ) ) ;
#256 = VERTEX_POINT ( 'NONE', #152 ) ;
#257 = CIRCLE ( 'NONE', #122, 0.1873125000000000207 ) ;
#258 = EDGE_LOOP ( 'NONE', ( #108, #197, #218, #82 ) ) ;
#259 = PRODUCT_CONTEXT ( 'NONE', #126, 'mechanical' ) ;
#260 = ORIENTED_EDGE ( 'NONE', *, *, #84, .F. ) ;
#261 = DIRECTION ( 'NONE',  ( 0.7071067811865385799, 8.659560562354823157E-17, -0.7071067811865563435 ) ) ;
#262 = AXIS2_PLACEMENT_3D ( 'NONE', #273, #36, #237 ) ;
#263 = PRESENTATION_STYLE_ASSIGNMENT (( #163 ) ) ;
#264 = FACE_OUTER_BOUND ( 'NONE', #228, .T. ) ;
#265 = PRODUCT_DEFINITION_CONTEXT ( 'detailed design', #297, 'design' ) ;
#266 = DIMENSIONAL_EXPONENTS ( 1.000000000000000000, 0.0000000000000000000, 0.0000000000000000000, 0.0000000000000000000, 0.0000000000000000000, 0.0000000000000000000, 0.0000000000000000000 ) ;
#267 = CYLINDRICAL_SURFACE ( 'NONE', #38, 0.1875000000000000278 ) ;
#268 = EDGE_CURVE ( 'NONE', #224, #48, #257, .T. ) ;
#269 = AXIS2_PLACEMENT_3D ( 'NONE', #215, #96, #55 ) ;
#270 = CARTESIAN_POINT ( 'NONE',  ( -0.1724999999999995981, 0.0000000000000000000, 2.500000000000000000 ) ) ;
#271 = ADVANCED_BREP_SHAPE_REPRESENTATION ( 'Micro_GEM-375-4', ( #230, #164 ), #240 ) ;
#272 = PRODUCT_DEFINITION_SHAPE ( 'NONE', 'NONE',  #30 ) ;
#273 = CARTESIAN_POINT ( 'NONE',  ( 0.0000000000000000000, 0.0000000000000000000, 2.500000000000000000 ) ) ;
#274 = EDGE_CURVE ( 'NONE', #42, #256, #298, .T. ) ;
#275 =( NAMED_UNIT ( * ) PLANE_ANGLE_UNIT ( ) SI_UNIT ( $, .RADIAN. ) );
#276 = FILL_AREA_STYLE_COLOUR ( '', #135 ) ;
#277 =( GEOMETRIC_REPRESENTATION_CONTEXT ( 3 ) GLOBAL_UNCERTAINTY_ASSIGNED_CONTEXT ( ( #63 ) ) GLOBAL_UNIT_ASSIGNED_CONTEXT ( ( #177, #275, #81 ) ) REPRESENTATION_CONTEXT ( 'NONE', 'WORKASPACE' ) );
#278 = ORIENTED_EDGE ( 'NONE', *, *, #24, .T. ) ;
#279 = PRESENTATION_STYLE_ASSIGNMENT (( #131 ) ) ;
#280 = CIRCLE ( 'NONE', #201, 0.1724999999999995981 ) ;
#281 = ORIENTED_EDGE ( 'NONE', *, *, #91, .F. ) ;
#282 = ORIENTED_EDGE ( 'NONE', *, *, #74, .F. ) ;
#283 = DIRECTION ( 'NONE',  ( 1.000000000000000000, 0.0000000000000000000, 0.0000000000000000000 ) ) ;
#284 = ORIENTED_EDGE ( 'NONE', *, *, #204, .F. ) ;
#285 = VECTOR ( 'NONE', #289, 39.37007874015747433 ) ;
#286 = EDGE_LOOP ( 'NONE', ( #17, #179, #278, #282 ) ) ;
#287 = DIRECTION ( 'NONE',  ( 0.0000000000000000000, 0.0000000000000000000, 1.000000000000000000 ) ) ;
#288 = LINE ( 'NONE', #70, #207 ) ;
#289 = DIRECTION ( 'NONE',  ( -0.1736481776669311916, 2.126576849575783316E-17, 0.9848077530122080203 ) ) ;
#290 = AXIS2_PLACEMENT_3D ( 'NONE', #292, #241, #295 ) ;
#291 = DIRECTION ( 'NONE',  ( -1.000000000000000000, 0.0000000000000000000, 0.0000000000000000000 ) ) ;
#292 = CARTESIAN_POINT ( 'NONE',  ( 0.0000000000000000000, 0.0000000000000000000, 2.500000000000000000 ) ) ;
#293 = FACE_OUTER_BOUND ( 'NONE', #286, .T. ) ;
#294 = CIRCLE ( 'NONE', #16, 0.1873124999999999929 ) ;
#295 = DIRECTION ( 'NONE',  ( 1.000000000000000000, 0.0000000000000000000, 0.0000000000000000000 ) ) ;
#296 = LENGTH_MEASURE_WITH_UNIT ( LENGTH_MEASURE( 0.02539999999999999897 ), #172 );
#297 = APPLICATION_CONTEXT ( 'automotive_design' ) ;
#298 = CIRCLE ( 'NONE', #158, 0.1875000000000000278 ) ;
#299 = SURFACE_SIDE_STYLE ('',( #196 ) ) ;
ENDSEC;
END-ISO-10303-21;
