ISO-10303-21;
HEADER;
FILE_DESCRIPTION (( 'STEP AP214' ),
    '1' );
FILE_NAME ('Micro_DM-250-290.STEP',
    '2021-09-02T16:00:59',
    ( '' ),
    ( '' ),
    'SwSTEP 2.0',
    'SolidWorks 2020',
    '' );
FILE_SCHEMA (( 'AUTOMOTIVE_DESIGN' ));
ENDSEC;

DATA;
#1 = AXIS2_PLACEMENT_3D ( 'NONE', #119, #122, #294 ) ;
#2 = CIRCLE ( 'NONE', #54, 0.007499999999999999722 ) ;
#3 = ORIENTED_EDGE ( 'NONE', *, *, #123, .F. ) ;
#4 = CIRCLE ( 'NONE', #1, 0.1249500000000000194 ) ;
#5 = CARTESIAN_POINT ( 'NONE',  ( 0.1250000000000000000, 1.530808498934191509E-17, 2.485000000000000320 ) ) ;
#6 =( CONVERSION_BASED_UNIT ( 'INCH', #84 ) LENGTH_UNIT ( ) NAMED_UNIT ( #177 ) );
#7 = CARTESIAN_POINT ( 'NONE',  ( 0.0000000000000000000, 0.0000000000000000000, 1.707404996040164512E-17 ) ) ;
#8 = ORIENTED_EDGE ( 'NONE', *, *, #238, .F. ) ;
#9 = CIRCLE ( 'NONE', #59, 0.1250000000000000000 ) ;
#10 = PRODUCT_DEFINITION_CONTEXT ( 'detailed design', #322, 'design' ) ;
#11 = FILL_AREA_STYLE_COLOUR ( '', #44 ) ;
#12 = EDGE_CURVE ( 'NONE', #53, #309, #60, .T. ) ;
#13 = DIRECTION ( 'NONE',  ( -0.0000000000000000000, -0.0000000000000000000, -1.000000000000000000 ) ) ;
#14 = DIRECTION ( 'NONE',  ( -0.0000000000000000000, -0.0000000000000000000, -1.000000000000000000 ) ) ;
#15 = DIRECTION ( 'NONE',  ( -1.000000000000000000, 0.0000000000000000000, 0.0000000000000000000 ) ) ;
#16 = ADVANCED_FACE ( 'NONE', ( #255 ), #282, .T. ) ;
#17 = LINE ( 'NONE', #239, #121 ) ;
#18 = FACE_OUTER_BOUND ( 'NONE', #100, .T. ) ;
#19 = SURFACE_SIDE_STYLE ('',( #31 ) ) ;
#20 = ORIENTED_EDGE ( 'NONE', *, *, #264, .F. ) ;
#21 = CYLINDRICAL_SURFACE ( 'NONE', #226, 0.1249500000000000610 ) ;
#22 = PRODUCT_DEFINITION_FORMATION_WITH_SPECIFIED_SOURCE ( 'ANY', '', #68, .NOT_KNOWN. ) ;
#23 = ORIENTED_EDGE ( 'NONE', *, *, #95, .T. ) ;
#24 = ORIENTED_EDGE ( 'NONE', *, *, #12, .F. ) ;
#25 = ORIENTED_EDGE ( 'NONE', *, *, #37, .F. ) ;
#26 = ORIENTED_EDGE ( 'NONE', *, *, #262, .F. ) ;
#27 = CARTESIAN_POINT ( 'NONE',  ( -0.1250000000000000000, 0.0000000000000000000, 2.500000000000000000 ) ) ;
#28 = FILL_AREA_STYLE ('',( #11 ) ) ;
#29 = CARTESIAN_POINT ( 'NONE',  ( 0.0000000000000000000, 0.0000000000000000000, 2.500000000000000000 ) ) ;
#30 = CARTESIAN_POINT ( 'NONE',  ( -0.1250000000000000000, 0.0000000000000000000, 2.485000000000000320 ) ) ;
#31 = SURFACE_STYLE_FILL_AREA ( #159 ) ;
#32 = AXIS2_PLACEMENT_3D ( 'NONE', #301, #271, #164 ) ;
#33 =( LENGTH_UNIT ( ) NAMED_UNIT ( * ) SI_UNIT ( $, .METRE. ) );
#34 = DIRECTION ( 'NONE',  ( 0.7071067811865499042, 8.659560562354961208E-17, -0.7071067811865451302 ) ) ;
#35 = CARTESIAN_POINT ( 'NONE',  ( 0.0000000000000000000, 0.0000000000000000000, 0.1174499999999995548 ) ) ;
#36 = DIRECTION ( 'NONE',  ( -0.0000000000000000000, -0.0000000000000000000, -1.000000000000000000 ) ) ;
#37 = EDGE_CURVE ( 'NONE', #223, #307, #2, .T. ) ;
#38 = AXIS2_PLACEMENT_3D ( 'NONE', #313, #108, #182 ) ;
#39 = AXIS2_PLACEMENT_3D ( 'NONE', #295, #314, #206 ) ;
#40 = DIRECTION ( 'NONE',  ( -0.0000000000000000000, -0.0000000000000000000, -1.000000000000000000 ) ) ;
#41 = FACE_OUTER_BOUND ( 'NONE', #200, .T. ) ;
#42 = EDGE_CURVE ( 'NONE', #328, #110, #289, .T. ) ;
#43 = DIRECTION ( 'NONE',  ( -0.0000000000000000000, -0.0000000000000000000, -1.000000000000000000 ) ) ;
#44 = COLOUR_RGB ( '',0.7921568627450980005, 0.8196078431372548767, 0.9333333333333333481 ) ;
#45 =( GEOMETRIC_REPRESENTATION_CONTEXT ( 3 ) GLOBAL_UNCERTAINTY_ASSIGNED_CONTEXT ( ( #138 ) ) GLOBAL_UNIT_ASSIGNED_CONTEXT ( ( #258, #80, #222 ) ) REPRESENTATION_CONTEXT ( 'NONE', 'WORKASPACE' ) );
#46 = CARTESIAN_POINT ( 'NONE',  ( 0.0000000000000000000, 0.0000000000000000000, 2.500000000000000000 ) ) ;
#47 = ORIENTED_EDGE ( 'NONE', *, *, #139, .F. ) ;
#48 = CARTESIAN_POINT ( 'NONE',  ( 0.0000000000000000000, 0.0000000000000000000, 2.500000000000000000 ) ) ;
#49 = ORIENTED_EDGE ( 'NONE', *, *, #42, .F. ) ;
#50 = AXIS2_PLACEMENT_3D ( 'NONE', #46, #148, #245 ) ;
#51 = VERTEX_POINT ( 'NONE', #30 ) ;
#52 = ORIENTED_EDGE ( 'NONE', *, *, #123, .T. ) ;
#53 = VERTEX_POINT ( 'NONE', #311 ) ;
#54 = AXIS2_PLACEMENT_3D ( 'NONE', #141, #142, #184 ) ;
#55 = CARTESIAN_POINT ( 'NONE',  ( 0.1250000000000000000, 1.530808498934191509E-17, 0.7499999999999998890 ) ) ;
#56 = DIRECTION ( 'NONE',  ( -1.000000000000000000, 0.0000000000000000000, 0.0000000000000000000 ) ) ;
#57 = STYLED_ITEM ( 'NONE', ( #73 ), #327 ) ;
#58 =( NAMED_UNIT ( * ) SI_UNIT ( $, .STERADIAN. ) SOLID_ANGLE_UNIT ( ) );
#59 = AXIS2_PLACEMENT_3D ( 'NONE', #326, #14, #169 ) ;
#60 = LINE ( 'NONE', #292, #198 ) ;
#61 = EDGE_CURVE ( 'NONE', #53, #316, #275, .T. ) ;
#62 = DIRECTION ( 'NONE',  ( -1.000000000000000000, 0.0000000000000000000, 0.0000000000000000000 ) ) ;
#63 = LINE ( 'NONE', #165, #196 ) ;
#64 = VECTOR ( 'NONE', #163, 39.37007874015748143 ) ;
#65 =( CONVERSION_BASED_UNIT ( 'INCH', #297 ) LENGTH_UNIT ( ) NAMED_UNIT ( #197 ) );
#66 = CONICAL_SURFACE ( 'NONE', #319, 0.007499999999999999722, 0.7853981633974503884 ) ;
#67 = PLANE ( 'NONE',  #308 ) ;
#68 = PRODUCT ( 'Micro_DM-250-290', 'Micro_DM-250-290', '', ( #111 ) ) ;
#69 = MANIFOLD_SOLID_BREP ( 'Cut-Revolve4', #283 ) ;
#70 = FACE_OUTER_BOUND ( 'NONE', #193, .T. ) ;
#71 = CARTESIAN_POINT ( 'NONE',  ( 0.0000000000000000000, 0.0000000000000000000, 2.485000000000000320 ) ) ;
#72 = DIRECTION ( 'NONE',  ( -1.000000000000000000, 0.0000000000000000000, 0.0000000000000000000 ) ) ;
#73 = PRESENTATION_STYLE_ASSIGNMENT (( #218 ) ) ;
#74 = ORIENTED_EDGE ( 'NONE', *, *, #262, .T. ) ;
#75 = AXIS2_PLACEMENT_3D ( 'NONE', #29, #192, #136 ) ;
#76 = AXIS2_PLACEMENT_3D ( 'NONE', #35, #229, #114 ) ;
#77 = EDGE_LOOP ( 'NONE', ( #310, #129 ) ) ;
#78 = CARTESIAN_POINT ( 'NONE',  ( 0.0000000000000000000, 0.0000000000000000000, 0.0000000000000000000 ) ) ;
#79 = ORIENTED_EDGE ( 'NONE', *, *, #181, .T. ) ;
#80 =( NAMED_UNIT ( * ) PLANE_ANGLE_UNIT ( ) SI_UNIT ( $, .RADIAN. ) );
#81 = CONICAL_SURFACE ( 'NONE', #277, 0.1100000000000001948, 0.7853981633974517207 ) ;
#82 = ORIENTED_EDGE ( 'NONE', *, *, #61, .F. ) ;
#83 = ORIENTED_EDGE ( 'NONE', *, *, #156, .F. ) ;
#84 = LENGTH_MEASURE_WITH_UNIT ( LENGTH_MEASURE( 0.02539999999999999897 ), #33 );
#85 = DIMENSIONAL_EXPONENTS ( 1.000000000000000000, 0.0000000000000000000, 0.0000000000000000000, 0.0000000000000000000, 0.0000000000000000000, 0.0000000000000000000, 0.0000000000000000000 ) ;
#86 = ORIENTED_EDGE ( 'NONE', *, *, #125, .F. ) ;
#87 =( NAMED_UNIT ( * ) PLANE_ANGLE_UNIT ( ) SI_UNIT ( $, .RADIAN. ) );
#88 = CARTESIAN_POINT ( 'NONE',  ( -0.1249500000000000610, 1.530196175534618327E-17, 0.1174499999999995686 ) ) ;
#89 = EDGE_CURVE ( 'NONE', #307, #110, #133, .T. ) ;
#90 = CARTESIAN_POINT ( 'NONE',  ( 0.0000000000000000000, 0.0000000000000000000, 2.500000000000000000 ) ) ;
#91 = CONICAL_SURFACE ( 'NONE', #50, 0.1100000000000001948, 0.7853981633974517207 ) ;
#92 = PRODUCT_DEFINITION_SHAPE ( 'NONE', 'NONE',  #281 ) ;
#93 = DIRECTION ( 'NONE',  ( -1.000000000000000000, 0.0000000000000000000, 0.0000000000000000000 ) ) ;
#94 = DIRECTION ( 'NONE',  ( -0.0000000000000000000, -0.0000000000000000000, -1.000000000000000000 ) ) ;
#95 = EDGE_CURVE ( 'NONE', #252, #110, #175, .T. ) ;
#96 = CARTESIAN_POINT ( 'NONE',  ( -0.1249500000000001027, 0.0000000000000000000, 0.7500000000000001110 ) ) ;
#97 = DIRECTION ( 'NONE',  ( -0.0000000000000000000, -0.0000000000000000000, -1.000000000000000000 ) ) ;
#98 = ORIENTED_EDGE ( 'NONE', *, *, #109, .F. ) ;
#99 = APPLICATION_PROTOCOL_DEFINITION ( 'draft international standard', 'automotive_design', 1998, #233 ) ;
#100 = EDGE_LOOP ( 'NONE', ( #172, #225, #98, #131 ) ) ;
#101 = ORIENTED_EDGE ( 'NONE', *, *, #95, .F. ) ;
#102 = PRESENTATION_LAYER_ASSIGNMENT (  '', '', ( #57 ) ) ;
#103 = CIRCLE ( 'NONE', #176, 0.007499999999999999722 ) ;
#104 = ORIENTED_EDGE ( 'NONE', *, *, #286, .T. ) ;
#105 = ORIENTED_EDGE ( 'NONE', *, *, #286, .F. ) ;
#106 = ORIENTED_EDGE ( 'NONE', *, *, #155, .F. ) ;
#107 = CONICAL_SURFACE ( 'NONE', #291, 0.007499999999999999722, 0.7853981633974503884 ) ;
#108 = DIRECTION ( 'NONE',  ( 0.0000000000000000000, 0.0000000000000000000, 1.000000000000000000 ) ) ;
#109 = EDGE_CURVE ( 'NONE', #224, #279, #260, .T. ) ;
#110 = VERTEX_POINT ( 'NONE', #158 ) ;
#111 = PRODUCT_CONTEXT ( 'NONE', #233, 'mechanical' ) ;
#112 =( NAMED_UNIT ( * ) PLANE_ANGLE_UNIT ( ) SI_UNIT ( $, .RADIAN. ) );
#113 = ADVANCED_FACE ( 'NONE', ( #257 ), #66, .T. ) ;
#114 = DIRECTION ( 'NONE',  ( -1.000000000000000000, 0.0000000000000000000, 0.0000000000000000000 ) ) ;
#115 = PRESENTATION_LAYER_ASSIGNMENT (  '', '', ( #253 ) ) ;
#116 = SHAPE_DEFINITION_REPRESENTATION ( #92, #327 ) ;
#117 = FACE_BOUND ( 'NONE', #237, .T. ) ;
#118 = DIRECTION ( 'NONE',  ( -0.7071067811865490160, 8.659560562354951347E-17, 0.7071067811865460184 ) ) ;
#119 = CARTESIAN_POINT ( 'NONE',  ( 0.0000000000000000000, 0.0000000000000000000, 0.1174499999999995548 ) ) ;
#120 = AXIS2_PLACEMENT_3D ( 'NONE', #240, #296, #266 ) ;
#121 = VECTOR ( 'NONE', #13, 39.37007874015748143 ) ;
#122 = DIRECTION ( 'NONE',  ( -0.0000000000000000000, -0.0000000000000000000, -1.000000000000000000 ) ) ;
#123 = EDGE_CURVE ( 'NONE', #328, #274, #174, .T. ) ;
#124 = CYLINDRICAL_SURFACE ( 'NONE', #267, 0.1250000000000000000 ) ;
#125 = EDGE_CURVE ( 'NONE', #223, #252, #191, .T. ) ;
#126 = FACE_OUTER_BOUND ( 'NONE', #179, .T. ) ;
#127 = EDGE_LOOP ( 'NONE', ( #248, #246 ) ) ;
#128 = CARTESIAN_POINT ( 'NONE',  ( 0.1249500000000001027, 1.530196175534619251E-17, 0.7500000000000001110 ) ) ;
#129 = ORIENTED_EDGE ( 'NONE', *, *, #37, .T. ) ;
#130 = ORIENTED_EDGE ( 'NONE', *, *, #139, .T. ) ;
#131 = ORIENTED_EDGE ( 'NONE', *, *, #300, .F. ) ;
#132 = CARTESIAN_POINT ( 'NONE',  ( -0.1100000000000001948, 0.0000000000000000000, 2.500000000000000000 ) ) ;
#133 = LINE ( 'NONE', #208, #64 ) ;
#134 = DIRECTION ( 'NONE',  ( -0.7071067811865499042, 0.0000000000000000000, -0.7071067811865451302 ) ) ;
#135 = CARTESIAN_POINT ( 'NONE',  ( 0.0000000000000000000, 0.0000000000000000000, 0.7499999999999998890 ) ) ;
#136 = DIRECTION ( 'NONE',  ( 1.000000000000000000, 0.0000000000000000000, 0.0000000000000000000 ) ) ;
#137 = AXIS2_PLACEMENT_3D ( 'NONE', #145, #146, #241 ) ;
#138 = UNCERTAINTY_MEASURE_WITH_UNIT (LENGTH_MEASURE( 1.000000000000000082E-05 ), #258, 'distance_accuracy_value', 'NONE');
#139 = EDGE_CURVE ( 'NONE', #110, #252, #4, .T. ) ;
#140 = VECTOR ( 'NONE', #234, 39.37007874015748143 ) ;
#141 = CARTESIAN_POINT ( 'NONE',  ( 0.0000000000000000000, 0.0000000000000000000, 1.707404996040164512E-17 ) ) ;
#142 = DIRECTION ( 'NONE',  ( -0.0000000000000000000, -0.0000000000000000000, -1.000000000000000000 ) ) ;
#143 = PRESENTATION_STYLE_ASSIGNMENT (( #231 ) ) ;
#144 = DIRECTION ( 'NONE',  ( -1.000000000000000000, 0.0000000000000000000, 0.0000000000000000000 ) ) ;
#145 = CARTESIAN_POINT ( 'NONE',  ( 0.0000000000000000000, 0.0000000000000000000, 0.7500000000000001110 ) ) ;
#146 = DIRECTION ( 'NONE',  ( -0.0000000000000000000, -0.0000000000000000000, -1.000000000000000000 ) ) ;
#147 = AXIS2_PLACEMENT_3D ( 'NONE', #217, #43, #144 ) ;
#148 = DIRECTION ( 'NONE',  ( 0.0000000000000000000, 0.0000000000000000000, -1.000000000000000000 ) ) ;
#149 = LENGTH_MEASURE_WITH_UNIT ( LENGTH_MEASURE( 0.02539999999999999897 ), #230 );
#150 = ORIENTED_EDGE ( 'NONE', *, *, #211, .F. ) ;
#151 = CYLINDRICAL_SURFACE ( 'NONE', #162, 0.1250000000000000000 ) ;
#152 = ORIENTED_EDGE ( 'NONE', *, *, #125, .T. ) ;
#153 = ADVANCED_FACE ( 'NONE', ( #318 ), #214, .F. ) ;
#154 = EDGE_LOOP ( 'NONE', ( #25, #152, #23, #305 ) ) ;
#155 = EDGE_CURVE ( 'NONE', #51, #309, #249, .T. ) ;
#156 = EDGE_CURVE ( 'NONE', #279, #224, #9, .T. ) ;
#157 = EDGE_LOOP ( 'NONE', ( #86, #150, #195, #130 ) ) ;
#158 = CARTESIAN_POINT ( 'NONE',  ( 0.1249500000000000610, 0.0000000000000000000, 0.1174499999999995686 ) ) ;
#159 = FILL_AREA_STYLE ('',( #304 ) ) ;
#160 = ORIENTED_EDGE ( 'NONE', *, *, #181, .F. ) ;
#161 = COLOUR_RGB ( '',0.7921568627450980005, 0.8196078431372548767, 0.9333333333333333481 ) ;
#162 = AXIS2_PLACEMENT_3D ( 'NONE', #273, #97, #254 ) ;
#163 = DIRECTION ( 'NONE',  ( 0.7071067811865490160, 0.0000000000000000000, 0.7071067811865460184 ) ) ;
#164 = DIRECTION ( 'NONE',  ( 1.000000000000000000, 0.0000000000000000000, -0.0000000000000000000 ) ) ;
#165 = CARTESIAN_POINT ( 'NONE',  ( -0.1249500000000000610, 0.0000000000000000000, 0.0000000000000000000 ) ) ;
#166 = AXIS2_PLACEMENT_3D ( 'NONE', #187, #94, #15 ) ;
#167 = CYLINDRICAL_SURFACE ( 'NONE', #147, 0.1249500000000000610 ) ;
#168 = ADVANCED_FACE ( 'NONE', ( #41 ), #91, .T. ) ;
#169 = DIRECTION ( 'NONE',  ( -1.000000000000000000, 0.0000000000000000000, 0.0000000000000000000 ) ) ;
#170 = DIRECTION ( 'NONE',  ( -0.0000000000000000000, -0.0000000000000000000, -1.000000000000000000 ) ) ;
#171 = LINE ( 'NONE', #27, #242 ) ;
#172 = ORIENTED_EDGE ( 'NONE', *, *, #155, .T. ) ;
#173 = ORIENTED_EDGE ( 'NONE', *, *, #272, .F. ) ;
#174 = CIRCLE ( 'NONE', #166, 0.1249500000000001027 ) ;
#175 = CIRCLE ( 'NONE', #76, 0.1249500000000000194 ) ;
#176 = AXIS2_PLACEMENT_3D ( 'NONE', #190, #299, #62 ) ;
#177 = DIMENSIONAL_EXPONENTS ( 1.000000000000000000, 0.0000000000000000000, 0.0000000000000000000, 0.0000000000000000000, 0.0000000000000000000, 0.0000000000000000000, 0.0000000000000000000 ) ;
#178 =( LENGTH_UNIT ( ) NAMED_UNIT ( * ) SI_UNIT ( $, .METRE. ) );
#179 = EDGE_LOOP ( 'NONE', ( #276, #329, #101, #26 ) ) ;
#180 = DIRECTION ( 'NONE',  ( 0.0000000000000000000, 0.0000000000000000000, 1.000000000000000000 ) ) ;
#181 = EDGE_CURVE ( 'NONE', #309, #51, #215, .T. ) ;
#182 = DIRECTION ( 'NONE',  ( 1.000000000000000000, 0.0000000000000000000, 0.0000000000000000000 ) ) ;
#183 = FACE_OUTER_BOUND ( 'NONE', #157, .T. ) ;
#184 = DIRECTION ( 'NONE',  ( -1.000000000000000000, 0.0000000000000000000, 0.0000000000000000000 ) ) ;
#185 = AXIS2_PLACEMENT_3D ( 'NONE', #287, #263, #259 ) ;
#186 = VECTOR ( 'NONE', #134, 39.37007874015748143 ) ;
#187 = CARTESIAN_POINT ( 'NONE',  ( 0.0000000000000000000, 0.0000000000000000000, 0.7500000000000001110 ) ) ;
#188 = CARTESIAN_POINT ( 'NONE',  ( -0.007499999999999999722, 9.184850993605147975E-19, 1.707404996040164512E-17 ) ) ;
#189 = CARTESIAN_POINT ( 'NONE',  ( -0.1250000000000000000, 0.0000000000000000000, 0.7499999999999998890 ) ) ;
#190 = CARTESIAN_POINT ( 'NONE',  ( 0.0000000000000000000, 0.0000000000000000000, 1.707404996040164512E-17 ) ) ;
#191 = LINE ( 'NONE', #188, #220 ) ;
#192 = DIRECTION ( 'NONE',  ( 0.0000000000000000000, 0.0000000000000000000, 1.000000000000000000 ) ) ;
#193 = EDGE_LOOP ( 'NONE', ( #49, #52, #74, #47 ) ) ;
#194 = LINE ( 'NONE', #132, #186 ) ;
#195 = ORIENTED_EDGE ( 'NONE', *, *, #89, .T. ) ;
#196 = VECTOR ( 'NONE', #40, 39.37007874015748143 ) ;
#197 = DIMENSIONAL_EXPONENTS ( 1.000000000000000000, 0.0000000000000000000, 0.0000000000000000000, 0.0000000000000000000, 0.0000000000000000000, 0.0000000000000000000, 0.0000000000000000000 ) ;
#198 = VECTOR ( 'NONE', #34, 39.37007874015748143 ) ;
#199 = CIRCLE ( 'NONE', #75, 0.1100000000000001948 ) ;
#200 = EDGE_LOOP ( 'NONE', ( #82, #205, #106, #105 ) ) ;
#201 = EDGE_LOOP ( 'NONE', ( #203, #227 ) ) ;
#202 = DIRECTION ( 'NONE',  ( 0.0000000000000000000, 0.0000000000000000000, -1.000000000000000000 ) ) ;
#203 = ORIENTED_EDGE ( 'NONE', *, *, #272, .T. ) ;
#204 =( GEOMETRIC_REPRESENTATION_CONTEXT ( 3 ) GLOBAL_UNCERTAINTY_ASSIGNED_CONTEXT ( ( #285 ) ) GLOBAL_UNIT_ASSIGNED_CONTEXT ( ( #6, #112, #58 ) ) REPRESENTATION_CONTEXT ( 'NONE', 'WORKASPACE' ) );
#205 = ORIENTED_EDGE ( 'NONE', *, *, #12, .T. ) ;
#206 = DIRECTION ( 'NONE',  ( 1.000000000000000000, 0.0000000000000000000, 0.0000000000000000000 ) ) ;
#207 = EDGE_LOOP ( 'NONE', ( #24, #173, #104, #160 ) ) ;
#208 = CARTESIAN_POINT ( 'NONE',  ( 0.007499999999999999722, 0.0000000000000000000, 1.707404996040164512E-17 ) ) ;
#209 = ADVANCED_FACE ( 'NONE', ( #18 ), #124, .T. ) ;
#210 = DIRECTION ( 'NONE',  ( -0.0000000000000000000, -0.0000000000000000000, -1.000000000000000000 ) ) ;
#211 = EDGE_CURVE ( 'NONE', #307, #223, #103, .T. ) ;
#212 = FACE_OUTER_BOUND ( 'NONE', #127, .T. ) ;
#213 = CIRCLE ( 'NONE', #137, 0.1249500000000001027 ) ;
#214 = PLANE ( 'NONE',  #32 ) ;
#215 = CIRCLE ( 'NONE', #120, 0.1250000000000000000 ) ;
#216 = CARTESIAN_POINT ( 'NONE',  ( 0.0000000000000000000, 0.0000000000000000000, 1.707404996040164512E-17 ) ) ;
#217 = CARTESIAN_POINT ( 'NONE',  ( 0.0000000000000000000, 0.0000000000000000000, 0.0000000000000000000 ) ) ;
#218 = SURFACE_STYLE_USAGE ( .BOTH. , #19 ) ;
#219 = ORIENTED_EDGE ( 'NONE', *, *, #300, .T. ) ;
#220 = VECTOR ( 'NONE', #118, 39.37007874015748143 ) ;
#221 = ADVANCED_FACE ( 'NONE', ( #70 ), #167, .T. ) ;
#222 =( NAMED_UNIT ( * ) SI_UNIT ( $, .STERADIAN. ) SOLID_ANGLE_UNIT ( ) );
#223 = VERTEX_POINT ( 'NONE', #268 ) ;
#224 = VERTEX_POINT ( 'NONE', #189 ) ;
#225 = ORIENTED_EDGE ( 'NONE', *, *, #238, .T. ) ;
#226 = AXIS2_PLACEMENT_3D ( 'NONE', #78, #170, #72 ) ;
#227 = ORIENTED_EDGE ( 'NONE', *, *, #61, .T. ) ;
#228 = DIRECTION ( 'NONE',  ( 1.000000000000000000, 0.0000000000000000000, 0.0000000000000000000 ) ) ;
#229 = DIRECTION ( 'NONE',  ( -0.0000000000000000000, -0.0000000000000000000, -1.000000000000000000 ) ) ;
#230 =( LENGTH_UNIT ( ) NAMED_UNIT ( * ) SI_UNIT ( $, .METRE. ) );
#231 = SURFACE_STYLE_USAGE ( .BOTH. , #236 ) ;
#232 = CARTESIAN_POINT ( 'NONE',  ( -0.1100000000000001948, 0.0000000000000000000, 2.500000000000000000 ) ) ;
#233 = APPLICATION_CONTEXT ( 'automotive_design' ) ;
#234 = DIRECTION ( 'NONE',  ( -0.0000000000000000000, -0.0000000000000000000, -1.000000000000000000 ) ) ;
#235 = APPLICATION_PROTOCOL_DEFINITION ( 'draft international standard', 'automotive_design', 1998, #322 ) ;
#236 = SURFACE_SIDE_STYLE ('',( #288 ) ) ;
#237 = EDGE_LOOP ( 'NONE', ( #20, #3 ) ) ;
#238 = EDGE_CURVE ( 'NONE', #309, #279, #17, .T. ) ;
#239 = CARTESIAN_POINT ( 'NONE',  ( 0.1250000000000000000, 1.530808498934191509E-17, 2.500000000000000000 ) ) ;
#240 = CARTESIAN_POINT ( 'NONE',  ( 0.0000000000000000000, 0.0000000000000000000, 2.485000000000000320 ) ) ;
#241 = DIRECTION ( 'NONE',  ( -1.000000000000000000, 0.0000000000000000000, 0.0000000000000000000 ) ) ;
#242 = VECTOR ( 'NONE', #247, 39.37007874015748143 ) ;
#243 = DIRECTION ( 'NONE',  ( 1.000000000000000000, 0.0000000000000000000, 0.0000000000000000000 ) ) ;
#244 = AXIS2_PLACEMENT_3D ( 'NONE', #71, #270, #321 ) ;
#245 = DIRECTION ( 'NONE',  ( -1.000000000000000000, 0.0000000000000000000, 0.0000000000000000000 ) ) ;
#246 = ORIENTED_EDGE ( 'NONE', *, *, #156, .T. ) ;
#247 = DIRECTION ( 'NONE',  ( -0.0000000000000000000, -0.0000000000000000000, -1.000000000000000000 ) ) ;
#248 = ORIENTED_EDGE ( 'NONE', *, *, #109, .T. ) ;
#249 = CIRCLE ( 'NONE', #244, 0.1250000000000000000 ) ;
#250 = ADVANCED_FACE ( 'NONE', ( #117, #212 ), #67, .T. ) ;
#251 = EDGE_LOOP ( 'NONE', ( #8, #79, #219, #83 ) ) ;
#252 = VERTEX_POINT ( 'NONE', #88 ) ;
#253 = STYLED_ITEM ( 'NONE', ( #143 ), #69 ) ;
#254 = DIRECTION ( 'NONE',  ( -1.000000000000000000, 0.0000000000000000000, 0.0000000000000000000 ) ) ;
#255 = FACE_OUTER_BOUND ( 'NONE', #201, .T. ) ;
#256 = CARTESIAN_POINT ( 'NONE',  ( 0.007499999999999999722, 0.0000000000000000000, 1.707404996040164512E-17 ) ) ;
#257 = FACE_OUTER_BOUND ( 'NONE', #154, .T. ) ;
#258 =( CONVERSION_BASED_UNIT ( 'INCH', #149 ) LENGTH_UNIT ( ) NAMED_UNIT ( #85 ) );
#259 = DIRECTION ( 'NONE',  ( 1.000000000000000000, 0.0000000000000000000, -0.0000000000000000000 ) ) ;
#260 = CIRCLE ( 'NONE', #306, 0.1250000000000000000 ) ;
#261 = PRODUCT_RELATED_PRODUCT_CATEGORY ( 'part', '', ( #68 ) ) ;
#262 = EDGE_CURVE ( 'NONE', #274, #252, #63, .T. ) ;
#263 = DIRECTION ( 'NONE',  ( 0.0000000000000000000, 0.0000000000000000000, 1.000000000000000000 ) ) ;
#264 = EDGE_CURVE ( 'NONE', #274, #328, #213, .T. ) ;
#265 =( NAMED_UNIT ( * ) SI_UNIT ( $, .STERADIAN. ) SOLID_ANGLE_UNIT ( ) );
#266 = DIRECTION ( 'NONE',  ( 1.000000000000000000, 0.0000000000000000000, 0.0000000000000000000 ) ) ;
#267 = AXIS2_PLACEMENT_3D ( 'NONE', #90, #36, #93 ) ;
#268 = CARTESIAN_POINT ( 'NONE',  ( -0.007499999999999999722, 8.110223427353348070E-18, 1.707404996040164512E-17 ) ) ;
#269 = DIRECTION ( 'NONE',  ( -1.000000000000000000, 0.0000000000000000000, 0.0000000000000000000 ) ) ;
#270 = DIRECTION ( 'NONE',  ( 0.0000000000000000000, 0.0000000000000000000, -1.000000000000000000 ) ) ;
#271 = DIRECTION ( 'NONE',  ( 0.0000000000000000000, 0.0000000000000000000, 1.000000000000000000 ) ) ;
#272 = EDGE_CURVE ( 'NONE', #316, #53, #199, .T. ) ;
#273 = CARTESIAN_POINT ( 'NONE',  ( 0.0000000000000000000, 0.0000000000000000000, 2.500000000000000000 ) ) ;
#274 = VERTEX_POINT ( 'NONE', #96 ) ;
#275 = CIRCLE ( 'NONE', #38, 0.1100000000000001948 ) ;
#276 = ORIENTED_EDGE ( 'NONE', *, *, #264, .T. ) ;
#277 = AXIS2_PLACEMENT_3D ( 'NONE', #48, #202, #280 ) ;
#278 = ADVANCED_FACE ( 'NONE', ( #284 ), #151, .T. ) ;
#279 = VERTEX_POINT ( 'NONE', #55 ) ;
#280 = DIRECTION ( 'NONE',  ( -1.000000000000000000, 0.0000000000000000000, 0.0000000000000000000 ) ) ;
#281 = PRODUCT_DEFINITION ( 'UNKNOWN', '', #22, #10 ) ;
#282 = PLANE ( 'NONE',  #185 ) ;
#283 = CLOSED_SHELL ( 'NONE', ( #325, #113, #168, #209, #278, #16, #323, #250, #302, #221, #153 ) ) ;
#284 = FACE_OUTER_BOUND ( 'NONE', #251, .T. ) ;
#285 = UNCERTAINTY_MEASURE_WITH_UNIT (LENGTH_MEASURE( 1.000000000000000082E-05 ), #6, 'distance_accuracy_value', 'NONE');
#286 = EDGE_CURVE ( 'NONE', #316, #51, #194, .T. ) ;
#287 = CARTESIAN_POINT ( 'NONE',  ( 0.0000000000000000000, 0.0000000000000000000, 2.500000000000000000 ) ) ;
#288 = SURFACE_STYLE_FILL_AREA ( #28 ) ;
#289 = LINE ( 'NONE', #315, #140 ) ;
#290 = MECHANICAL_DESIGN_GEOMETRIC_PRESENTATION_REPRESENTATION (  '', ( #57 ), #312 ) ;
#291 = AXIS2_PLACEMENT_3D ( 'NONE', #7, #180, #228 ) ;
#292 = CARTESIAN_POINT ( 'NONE',  ( 0.1100000000000001948, 1.347111479062090784E-17, 2.500000000000000000 ) ) ;
#293 = UNCERTAINTY_MEASURE_WITH_UNIT (LENGTH_MEASURE( 1.000000000000000082E-05 ), #65, 'distance_accuracy_value', 'NONE');
#294 = DIRECTION ( 'NONE',  ( -1.000000000000000000, 0.0000000000000000000, 0.0000000000000000000 ) ) ;
#295 = CARTESIAN_POINT ( 'NONE',  ( 0.0000000000000000000, 0.0000000000000000000, 0.0000000000000000000 ) ) ;
#296 = DIRECTION ( 'NONE',  ( 0.0000000000000000000, 0.0000000000000000000, -1.000000000000000000 ) ) ;
#297 = LENGTH_MEASURE_WITH_UNIT ( LENGTH_MEASURE( 0.02539999999999999897 ), #178 );
#298 = DIRECTION ( 'NONE',  ( -0.0000000000000000000, 0.0000000000000000000, -1.000000000000000000 ) ) ;
#299 = DIRECTION ( 'NONE',  ( -0.0000000000000000000, -0.0000000000000000000, -1.000000000000000000 ) ) ;
#300 = EDGE_CURVE ( 'NONE', #51, #224, #171, .T. ) ;
#301 = CARTESIAN_POINT ( 'NONE',  ( 0.0000000000000000000, 0.0000000000000000000, 0.0000000000000000000 ) ) ;
#302 = ADVANCED_FACE ( 'NONE', ( #183 ), #107, .T. ) ;
#303 = FACE_OUTER_BOUND ( 'NONE', #207, .T. ) ;
#304 = FILL_AREA_STYLE_COLOUR ( '', #161 ) ;
#305 = ORIENTED_EDGE ( 'NONE', *, *, #89, .F. ) ;
#306 = AXIS2_PLACEMENT_3D ( 'NONE', #135, #210, #56 ) ;
#307 = VERTEX_POINT ( 'NONE', #256 ) ;
#308 = AXIS2_PLACEMENT_3D ( 'NONE', #317, #298, #269 ) ;
#309 = VERTEX_POINT ( 'NONE', #5 ) ;
#310 = ORIENTED_EDGE ( 'NONE', *, *, #211, .T. ) ;
#311 = CARTESIAN_POINT ( 'NONE',  ( 0.1100000000000001948, 1.438959988998141146E-17, 2.500000000000000000 ) ) ;
#312 =( GEOMETRIC_REPRESENTATION_CONTEXT ( 3 ) GLOBAL_UNCERTAINTY_ASSIGNED_CONTEXT ( ( #293 ) ) GLOBAL_UNIT_ASSIGNED_CONTEXT ( ( #65, #87, #265 ) ) REPRESENTATION_CONTEXT ( 'NONE', 'WORKASPACE' ) );
#313 = CARTESIAN_POINT ( 'NONE',  ( 0.0000000000000000000, 0.0000000000000000000, 2.500000000000000000 ) ) ;
#314 = DIRECTION ( 'NONE',  ( 0.0000000000000000000, 0.0000000000000000000, 1.000000000000000000 ) ) ;
#315 = CARTESIAN_POINT ( 'NONE',  ( 0.1249500000000000610, 1.530196175534618635E-17, 0.0000000000000000000 ) ) ;
#316 = VERTEX_POINT ( 'NONE', #232 ) ;
#317 = CARTESIAN_POINT ( 'NONE',  ( 0.1249500000000001027, 0.0000000000000000000, 0.7500000000000001110 ) ) ;
#318 = FACE_OUTER_BOUND ( 'NONE', #77, .T. ) ;
#319 = AXIS2_PLACEMENT_3D ( 'NONE', #216, #324, #243 ) ;
#320 = MECHANICAL_DESIGN_GEOMETRIC_PRESENTATION_REPRESENTATION (  '', ( #253 ), #204 ) ;
#321 = DIRECTION ( 'NONE',  ( 1.000000000000000000, 0.0000000000000000000, 0.0000000000000000000 ) ) ;
#322 = APPLICATION_CONTEXT ( 'automotive_design' ) ;
#323 = ADVANCED_FACE ( 'NONE', ( #303 ), #81, .T. ) ;
#324 = DIRECTION ( 'NONE',  ( 0.0000000000000000000, 0.0000000000000000000, 1.000000000000000000 ) ) ;
#325 = ADVANCED_FACE ( 'NONE', ( #126 ), #21, .T. ) ;
#326 = CARTESIAN_POINT ( 'NONE',  ( 0.0000000000000000000, 0.0000000000000000000, 0.7499999999999998890 ) ) ;
#327 = ADVANCED_BREP_SHAPE_REPRESENTATION ( 'Micro_DM-250-290', ( #69, #39 ), #45 ) ;
#328 = VERTEX_POINT ( 'NONE', #128 ) ;
#329 = ORIENTED_EDGE ( 'NONE', *, *, #42, .T. ) ;
ENDSEC;
END-ISO-10303-21;
