ISO-10303-21;
HEADER;
FILE_DESCRIPTION (( 'STEP AP214' ),
    '1' );
FILE_NAME ('82512.STEP',
    '2023-06-30T22:46:06',
    ( '' ),
    ( '' ),
    'SwSTEP 2.0',
    'SolidWorks 2023',
    '' );
FILE_SCHEMA (( 'AUTOMOTIVE_DESIGN' ));
ENDSEC;

DATA;
#1 = EDGE_LOOP ( 'NONE', ( #108, #6, #235, #61 ) ) ;
#2 = DIRECTION ( 'NONE',  ( -1.224646799147354193E-16, 1.000000000000000000, -0.000000000000000000 ) ) ;
#3 = ORIENTED_EDGE ( 'NONE', *, *, #323, .F. ) ;
#4 = ORIENTED_EDGE ( 'NONE', *, *, #323, .T. ) ;
#5 = COLOUR_RGB ( '',1.000000000000000000, 0.000000000000000000, 0.000000000000000000 ) ;
#6 = ORIENTED_EDGE ( 'NONE', *, *, #140, .T. ) ;
#7 = EDGE_LOOP ( 'NONE', ( #256, #80 ) ) ;
#8 = DIRECTION ( 'NONE',  ( -1.224646799147354193E-16, 1.000000000000000000, -0.000000000000000000 ) ) ;
#9 =( NAMED_UNIT ( * ) PLANE_ANGLE_UNIT ( ) SI_UNIT ( $, .RADIAN. ) );
#10 = CIRCLE ( 'NONE', #219, 0.1249999999999998057 ) ;
#11 = CARTESIAN_POINT ( 'NONE',  ( 0.000000000000000000, 0.000000000000000000, -0.1249999999999999029 ) ) ;
#12 = DIRECTION ( 'NONE',  ( -1.000000000000000000, 0.000000000000000000, 0.000000000000000000 ) ) ;
#13 =( LENGTH_UNIT ( ) NAMED_UNIT ( * ) SI_UNIT ( $, .METRE. ) );
#14 =( LENGTH_UNIT ( ) NAMED_UNIT ( * ) SI_UNIT ( $, .METRE. ) );
#15 = FACE_OUTER_BOUND ( 'NONE', #7, .T. ) ;
#16 = SURFACE_SIDE_STYLE ('',( #274 ) ) ;
#17 = DIRECTION ( 'NONE',  ( -0.000000000000000000, -1.000000000000000000, -0.000000000000000000 ) ) ;
#18 = AXIS2_PLACEMENT_3D ( 'NONE', #98, #342, #202 ) ;
#19 = FACE_OUTER_BOUND ( 'NONE', #271, .T. ) ;
#20 = SURFACE_SIDE_STYLE ('',( #114 ) ) ;
#21 = FILL_AREA_STYLE ('',( #56 ) ) ;
#22 = AXIS2_PLACEMENT_3D ( 'NONE', #305, #322, #279 ) ;
#23 = ADVANCED_FACE ( 'NONE', ( #190 ), #106, .T. ) ;
#24 = CYLINDRICAL_SURFACE ( 'NONE', #77, 0.1249999999999999029 ) ;
#25 = CARTESIAN_POINT ( 'NONE',  ( 1.530808498934189352E-17, 1.500000000000000222, 0.1249999999999998057 ) ) ;
#26 = ADVANCED_FACE ( 'NONE', ( #19 ), #356, .F. ) ;
#27 = CYLINDRICAL_SURFACE ( 'NONE', #18, 0.1249999999999999029 ) ;
#28 = AXIS2_PLACEMENT_3D ( 'NONE', #88, #62, #350 ) ;
#29 = SURFACE_STYLE_FILL_AREA ( #99 ) ;
#30 = CIRCLE ( 'NONE', #333, 0.1250000000000000000 ) ;
#31 = ADVANCED_FACE ( 'NONE', ( #43 ), #273, .T. ) ;
#32 = DIRECTION ( 'NONE',  ( 1.000000000000000000, 0.000000000000000000, -1.224646799147353207E-16 ) ) ;
#33 = DIRECTION ( 'NONE',  ( -1.000000000000000000, 0.000000000000000000, 0.000000000000000000 ) ) ;
#34 = ORIENTED_EDGE ( 'NONE', *, *, #218, .F. ) ;
#35 = MECHANICAL_DESIGN_GEOMETRIC_PRESENTATION_REPRESENTATION (  '', ( #68 ), #370 ) ;
#36 = AXIS2_PLACEMENT_3D ( 'NONE', #295, #38, #156 ) ;
#37 = ORIENTED_EDGE ( 'NONE', *, *, #119, .T. ) ;
#38 = DIRECTION ( 'NONE',  ( 0.000000000000000000, 0.000000000000000000, 1.000000000000000000 ) ) ;
#39 = DIRECTION ( 'NONE',  ( 1.000000000000000000, 1.224646799147354193E-16, 0.000000000000000000 ) ) ;
#40 = CIRCLE ( 'NONE', #308, 0.1250000000000000000 ) ;
#41 = LENGTH_MEASURE_WITH_UNIT ( LENGTH_MEASURE( 0.02539999999999999897 ), #360 );
#42 = CARTESIAN_POINT ( 'NONE',  ( 0.1249999999999998057, 1.500000000000000222, 1.530808498934190276E-17 ) ) ;
#43 = FACE_OUTER_BOUND ( 'NONE', #177, .T. ) ;
#44 = DIMENSIONAL_EXPONENTS ( 1.000000000000000000, 0.000000000000000000, 0.000000000000000000, 0.000000000000000000, 0.000000000000000000, 0.000000000000000000, 0.000000000000000000 ) ;
#45 = DIRECTION ( 'NONE',  ( -1.000000000000000000, -1.224646799147354193E-16, 0.000000000000000000 ) ) ;
#46 =( CONVERSION_BASED_UNIT ( 'INCH', #158 ) LENGTH_UNIT ( ) NAMED_UNIT ( #54 ) );
#47 = DIRECTION ( 'NONE',  ( -1.224646799147354193E-16, 1.000000000000000000, -0.000000000000000000 ) ) ;
#48 = CARTESIAN_POINT ( 'NONE',  ( 0.1250000000000000000, 0.1250000000000000000, 0.000000000000000000 ) ) ;
#49 = FILL_AREA_STYLE_COLOUR ( '', #89 ) ;
#50 = COLOUR_RGB ( '',0.7921568627450980005, 0.8196078431372548767, 0.9333333333333333481 ) ;
#51 = PRESENTATION_LAYER_ASSIGNMENT (  '', '', ( #373 ) ) ;
#52 = PRODUCT_DEFINITION_FORMATION_WITH_SPECIFIED_SOURCE ( 'ANY', '', #148, .NOT_KNOWN. ) ;
#53 =( NAMED_UNIT ( * ) PLANE_ANGLE_UNIT ( ) SI_UNIT ( $, .RADIAN. ) );
#54 = DIMENSIONAL_EXPONENTS ( 1.000000000000000000, 0.000000000000000000, 0.000000000000000000, 0.000000000000000000, 0.000000000000000000, 0.000000000000000000, 0.000000000000000000 ) ;
#55 = FACE_OUTER_BOUND ( 'NONE', #207, .T. ) ;
#56 = FILL_AREA_STYLE_COLOUR ( '', #281 ) ;
#57 = EDGE_CURVE ( 'NONE', #175, #258, #359, .T. ) ;
#58 =( NAMED_UNIT ( * ) SI_UNIT ( $, .STERADIAN. ) SOLID_ANGLE_UNIT ( ) );
#59 = CIRCLE ( 'NONE', #347, 0.1249999999999997363 ) ;
#60 = DIRECTION ( 'NONE',  ( 0.000000000000000000, 0.000000000000000000, -1.000000000000000000 ) ) ;
#61 = ORIENTED_EDGE ( 'NONE', *, *, #327, .F. ) ;
#62 = DIRECTION ( 'NONE',  ( -1.224646799147354193E-16, 1.000000000000000000, -0.000000000000000000 ) ) ;
#63 = ORIENTED_EDGE ( 'NONE', *, *, #292, .T. ) ;
#64 = DIRECTION ( 'NONE',  ( -0.000000000000000000, -1.000000000000000000, -0.000000000000000000 ) ) ;
#65 = DIRECTION ( 'NONE',  ( -0.000000000000000000, -1.000000000000000000, -0.000000000000000000 ) ) ;
#66 = SURFACE_SIDE_STYLE ('',( #29 ) ) ;
#67 = AXIS2_PLACEMENT_3D ( 'NONE', #214, #217, #39 ) ;
#68 = STYLED_ITEM ( 'NONE', ( #277 ), #200 ) ;
#69 = VECTOR ( 'NONE', #8, 39.37007874015748143 ) ;
#70 = DIRECTION ( 'NONE',  ( 0.000000000000000000, 0.000000000000000000, -1.000000000000000000 ) ) ;
#71 =( NAMED_UNIT ( * ) SI_UNIT ( $, .STERADIAN. ) SOLID_ANGLE_UNIT ( ) );
#72 = DIRECTION ( 'NONE',  ( -0.000000000000000000, -1.000000000000000000, -0.000000000000000000 ) ) ;
#73 =( NAMED_UNIT ( * ) PLANE_ANGLE_UNIT ( ) SI_UNIT ( $, .RADIAN. ) );
#74 = DIRECTION ( 'NONE',  ( -1.224646799147354193E-16, 1.000000000000000000, 0.000000000000000000 ) ) ;
#75 = CARTESIAN_POINT ( 'NONE',  ( 0.000000000000000000, 0.1250000000000000000, -0.1250000000000000000 ) ) ;
#76 = SURFACE_STYLE_FILL_AREA ( #103 ) ;
#77 = AXIS2_PLACEMENT_3D ( 'NONE', #169, #146, #371 ) ;
#78 = AXIS2_PLACEMENT_3D ( 'NONE', #134, #74, #45 ) ;
#79 = DIRECTION ( 'NONE',  ( -0.000000000000000000, -1.000000000000000000, -0.000000000000000000 ) ) ;
#80 = ORIENTED_EDGE ( 'NONE', *, *, #140, .F. ) ;
#81 = DIRECTION ( 'NONE',  ( 0.000000000000000000, 0.000000000000000000, -1.000000000000000000 ) ) ;
#82 = FILL_AREA_STYLE_COLOUR ( '', #228 ) ;
#83 = VERTEX_POINT ( 'NONE', #165 ) ;
#84 = UNCERTAINTY_MEASURE_WITH_UNIT (LENGTH_MEASURE( 1.000000000000000082E-05 ), #147, 'distance_accuracy_value', 'NONE');
#85 = CARTESIAN_POINT ( 'NONE',  ( -0.1250000000000000278, 3.000000000000000444, 0.000000000000000000 ) ) ;
#86 = EDGE_CURVE ( 'NONE', #123, #259, #324, .T. ) ;
#87 =( LENGTH_UNIT ( ) NAMED_UNIT ( * ) SI_UNIT ( $, .METRE. ) );
#88 = CARTESIAN_POINT ( 'NONE',  ( -1.224646799147353700E-16, 3.000000000000000444, 0.000000000000000000 ) ) ;
#89 = COLOUR_RGB ( '',1.000000000000000000, 0.000000000000000000, 0.000000000000000000 ) ;
#90 = CIRCLE ( 'NONE', #287, 0.1250000000000000000 ) ;
#91 = PRESENTATION_STYLE_ASSIGNMENT (( #288 ) ) ;
#92 = CARTESIAN_POINT ( 'NONE',  ( 0.000000000000000000, 1.500000000000000222, -0.1249999999999998057 ) ) ;
#93 = EDGE_LOOP ( 'NONE', ( #263, #316 ) ) ;
#94 = AXIS2_PLACEMENT_3D ( 'NONE', #164, #270, #179 ) ;
#95 = ADVANCED_FACE ( 'NONE', ( #366 ), #336, .T. ) ;
#96 = MANIFOLD_SOLID_BREP ( 'Revolve - Tool Body (Straight Shanked)', #364 ) ;
#97 = ORIENTED_EDGE ( 'NONE', *, *, #351, .T. ) ;
#98 = CARTESIAN_POINT ( 'NONE',  ( 0.000000000000000000, 0.000000000000000000, 0.000000000000000000 ) ) ;
#99 = FILL_AREA_STYLE ('',( #153 ) ) ;
#100 = EDGE_LOOP ( 'NONE', ( #161, #155, #127, #63 ) ) ;
#101 =( GEOMETRIC_REPRESENTATION_CONTEXT ( 3 ) GLOBAL_UNCERTAINTY_ASSIGNED_CONTEXT ( ( #192 ) ) GLOBAL_UNIT_ASSIGNED_CONTEXT ( ( #245, #73, #135 ) ) REPRESENTATION_CONTEXT ( 'NONE', 'WORKASPACE' ) );
#102 = PRESENTATION_STYLE_ASSIGNMENT (( #265 ) ) ;
#103 = FILL_AREA_STYLE ('',( #49 ) ) ;
#104 = DIRECTION ( 'NONE',  ( -1.224646799147354193E-16, 1.000000000000000000, -0.000000000000000000 ) ) ;
#105 =( CONVERSION_BASED_UNIT ( 'INCH', #361 ) LENGTH_UNIT ( ) NAMED_UNIT ( #137 ) );
#106 = CYLINDRICAL_SURFACE ( 'NONE', #22, 0.1249999999999998335 ) ;
#107 = AXIS2_PLACEMENT_3D ( 'NONE', #348, #60, #33 ) ;
#108 = ORIENTED_EDGE ( 'NONE', *, *, #358, .F. ) ;
#109 = EDGE_CURVE ( 'NONE', #128, #174, #40, .T. ) ;
#110 = DIRECTION ( 'NONE',  ( 0.000000000000000000, 0.000000000000000000, 1.000000000000000000 ) ) ;
#111 = ORIENTED_EDGE ( 'NONE', *, *, #278, .T. ) ;
#112 = FILL_AREA_STYLE ('',( #194 ) ) ;
#113 = AXIS2_PLACEMENT_3D ( 'NONE', #312, #65, #198 ) ;
#114 = SURFACE_STYLE_FILL_AREA ( #21 ) ;
#115 = APPLICATION_PROTOCOL_DEFINITION ( 'draft international standard', 'automotive_design', 1998, #343 ) ;
#116 = SURFACE_STYLE_USAGE ( .BOTH. , #20 ) ;
#117 = PRODUCT_CONTEXT ( 'NONE', #343, 'mechanical' ) ;
#118 = LENGTH_MEASURE_WITH_UNIT ( LENGTH_MEASURE( 0.02539999999999999897 ), #280 );
#119 = EDGE_CURVE ( 'NONE', #175, #159, #269, .T. ) ;
#120 =( NAMED_UNIT ( * ) SI_UNIT ( $, .STERADIAN. ) SOLID_ANGLE_UNIT ( ) );
#121 =( GEOMETRIC_REPRESENTATION_CONTEXT ( 3 ) GLOBAL_UNCERTAINTY_ASSIGNED_CONTEXT ( ( #141 ) ) GLOBAL_UNIT_ASSIGNED_CONTEXT ( ( #105, #139, #181 ) ) REPRESENTATION_CONTEXT ( 'NONE', 'WORKASPACE' ) );
#122 = DIRECTION ( 'NONE',  ( -1.000000000000000000, 0.000000000000000000, 0.000000000000000000 ) ) ;
#123 = VERTEX_POINT ( 'NONE', #48 ) ;
#124 = MECHANICAL_DESIGN_GEOMETRIC_PRESENTATION_REPRESENTATION (  '', ( #345 ), #101 ) ;
#125 = STYLED_ITEM ( 'NONE', ( #102 ), #126 ) ;
#126 = ADVANCED_FACE ( 'NONE', ( #355 ), #329, .T. ) ;
#127 = ORIENTED_EDGE ( 'NONE', *, *, #133, .T. ) ;
#128 = VERTEX_POINT ( 'NONE', #298 ) ;
#129 =( CONVERSION_BASED_UNIT ( 'INCH', #41 ) LENGTH_UNIT ( ) NAMED_UNIT ( #299 ) );
#130 = ORIENTED_EDGE ( 'NONE', *, *, #109, .F. ) ;
#131 = LINE ( 'NONE', #264, #69 ) ;
#132 = STYLED_ITEM ( 'NONE', ( #368 ), #260 ) ;
#133 = EDGE_CURVE ( 'NONE', #174, #123, #30, .T. ) ;
#134 = CARTESIAN_POINT ( 'NONE',  ( 6.123233995736772199E-17, 1.500000000000000222, 0.000000000000000000 ) ) ;
#135 =( NAMED_UNIT ( * ) SI_UNIT ( $, .STERADIAN. ) SOLID_ANGLE_UNIT ( ) );
#136 = LINE ( 'NONE', #367, #311 ) ;
#137 = DIMENSIONAL_EXPONENTS ( 1.000000000000000000, 0.000000000000000000, 0.000000000000000000, 0.000000000000000000, 0.000000000000000000, 0.000000000000000000, 0.000000000000000000 ) ;
#138 = DIRECTION ( 'NONE',  ( -0.000000000000000000, -1.000000000000000000, -0.000000000000000000 ) ) ;
#139 =( NAMED_UNIT ( * ) PLANE_ANGLE_UNIT ( ) SI_UNIT ( $, .RADIAN. ) );
#140 = EDGE_CURVE ( 'NONE', #159, #175, #59, .T. ) ;
#141 = UNCERTAINTY_MEASURE_WITH_UNIT (LENGTH_MEASURE( 1.000000000000000082E-05 ), #105, 'distance_accuracy_value', 'NONE');
#142 =( NAMED_UNIT ( * ) SI_UNIT ( $, .STERADIAN. ) SOLID_ANGLE_UNIT ( ) );
#143 = PRESENTATION_LAYER_ASSIGNMENT (  '', '', ( #125 ) ) ;
#144 = CARTESIAN_POINT ( 'NONE',  ( 0.000000000000000000, 0.000000000000000000, 0.000000000000000000 ) ) ;
#145 = AXIS2_PLACEMENT_3D ( 'NONE', #144, #110, #193 ) ;
#146 = DIRECTION ( 'NONE',  ( -0.000000000000000000, -1.000000000000000000, -0.000000000000000000 ) ) ;
#147 =( CONVERSION_BASED_UNIT ( 'INCH', #338 ) LENGTH_UNIT ( ) NAMED_UNIT ( #44 ) );
#148 = PRODUCT ( '82512', '82512', '', ( #117 ) ) ;
#149 = PRESENTATION_LAYER_ASSIGNMENT (  '', '', ( #307 ) ) ;
#150 = CARTESIAN_POINT ( 'NONE',  ( -1.530808498934191509E-17, 0.1250000000000000000, 0.000000000000000000 ) ) ;
#151 =( GEOMETRIC_REPRESENTATION_CONTEXT ( 3 ) GLOBAL_UNCERTAINTY_ASSIGNED_CONTEXT ( ( #246 ) ) GLOBAL_UNIT_ASSIGNED_CONTEXT ( ( #129, #268, #318 ) ) REPRESENTATION_CONTEXT ( 'NONE', 'WORKASPACE' ) );
#152 = ORIENTED_EDGE ( 'NONE', *, *, #332, .F. ) ;
#153 = FILL_AREA_STYLE_COLOUR ( '', #50 ) ;
#154 = AXIS2_PLACEMENT_3D ( 'NONE', #257, #2, #122 ) ;
#155 = ORIENTED_EDGE ( 'NONE', *, *, #109, .T. ) ;
#156 = DIRECTION ( 'NONE',  ( 1.000000000000000000, 0.000000000000000000, 0.000000000000000000 ) ) ;
#157 = DIRECTION ( 'NONE',  ( -1.000000000000000000, 0.000000000000000000, 0.000000000000000000 ) ) ;
#158 = LENGTH_MEASURE_WITH_UNIT ( LENGTH_MEASURE( 0.02539999999999999897 ), #13 );
#159 = VERTEX_POINT ( 'NONE', #42 ) ;
#160 = DIRECTION ( 'NONE',  ( 0.000000000000000000, 0.000000000000000000, -1.000000000000000000 ) ) ;
#161 = ORIENTED_EDGE ( 'NONE', *, *, #284, .F. ) ;
#162 =( LENGTH_UNIT ( ) NAMED_UNIT ( * ) SI_UNIT ( $, .METRE. ) );
#163 = PRESENTATION_STYLE_ASSIGNMENT (( #186 ) ) ;
#164 = CARTESIAN_POINT ( 'NONE',  ( 0.000000000000000000, 1.500000000000000222, 0.000000000000000000 ) ) ;
#165 = CARTESIAN_POINT ( 'NONE',  ( -7.654042494670957545E-18, 0.000000000000000000, 0.000000000000000000 ) ) ;
#166 = ORIENTED_EDGE ( 'NONE', *, *, #292, .F. ) ;
#167 = SURFACE_SIDE_STYLE ('',( #310 ) ) ;
#168 =( CONVERSION_BASED_UNIT ( 'INCH', #372 ) LENGTH_UNIT ( ) NAMED_UNIT ( #275 ) );
#169 = CARTESIAN_POINT ( 'NONE',  ( 0.000000000000000000, 0.000000000000000000, 0.000000000000000000 ) ) ;
#170 = DIRECTION ( 'NONE',  ( -0.000000000000000000, -1.000000000000000000, -0.000000000000000000 ) ) ;
#171 = AXIS2_PLACEMENT_3D ( 'NONE', #150, #225, #32 ) ;
#172 = EDGE_LOOP ( 'NONE', ( #266, #231, #261, #346, #203 ) ) ;
#173 = CARTESIAN_POINT ( 'NONE',  ( 0.000000000000000000, 0.1250000000000000000, 0.000000000000000000 ) ) ;
#174 = VERTEX_POINT ( 'NONE', #75 ) ;
#175 = VERTEX_POINT ( 'NONE', #365 ) ;
#176 =( NAMED_UNIT ( * ) PLANE_ANGLE_UNIT ( ) SI_UNIT ( $, .RADIAN. ) );
#177 = EDGE_LOOP ( 'NONE', ( #289, #314, #166, #302 ) ) ;
#178 = FACE_OUTER_BOUND ( 'NONE', #100, .T. ) ;
#179 = DIRECTION ( 'NONE',  ( 0.000000000000000000, -0.000000000000000000, 1.000000000000000000 ) ) ;
#180 = SPHERICAL_SURFACE ( 'NONE', #36, 0.1250000000000000000 ) ;
#181 =( NAMED_UNIT ( * ) SI_UNIT ( $, .STERADIAN. ) SOLID_ANGLE_UNIT ( ) );
#182 = SURFACE_SIDE_STYLE ('',( #76 ) ) ;
#183 = PRESENTATION_STYLE_ASSIGNMENT (( #290 ) ) ;
#184 = DIRECTION ( 'NONE',  ( -1.224646799147354193E-16, 1.000000000000000000, -0.000000000000000000 ) ) ;
#185 = PRESENTATION_LAYER_ASSIGNMENT (  '', '', ( #68 ) ) ;
#186 = SURFACE_STYLE_USAGE ( .BOTH. , #182 ) ;
#187 = DIRECTION ( 'NONE',  ( 1.000000000000000000, 0.000000000000000000, 0.000000000000000000 ) ) ;
#188 =( NAMED_UNIT ( * ) PLANE_ANGLE_UNIT ( ) SI_UNIT ( $, .RADIAN. ) );
#189 = SURFACE_STYLE_USAGE ( .BOTH. , #16 ) ;
#190 = FACE_OUTER_BOUND ( 'NONE', #1, .T. ) ;
#191 = PRESENTATION_LAYER_ASSIGNMENT (  '', '', ( #132 ) ) ;
#192 = UNCERTAINTY_MEASURE_WITH_UNIT (LENGTH_MEASURE( 1.000000000000000082E-05 ), #245, 'distance_accuracy_value', 'NONE');
#193 = DIRECTION ( 'NONE',  ( 1.000000000000000000, 0.000000000000000000, 0.000000000000000000 ) ) ;
#194 = FILL_AREA_STYLE_COLOUR ( '', #296 ) ;
#195 = CIRCLE ( 'NONE', #241, 0.1249999999999999167 ) ;
#196 = CARTESIAN_POINT ( 'NONE',  ( 0.000000000000000000, 1.500000000000000222, 0.000000000000000000 ) ) ;
#197 = CIRCLE ( 'NONE', #154, 0.1249999999999999167 ) ;
#198 = DIRECTION ( 'NONE',  ( 0.000000000000000000, 0.000000000000000000, -1.000000000000000000 ) ) ;
#199 = EDGE_LOOP ( 'NONE', ( #37, #349, #3, #229 ) ) ;
#200 = MANIFOLD_SOLID_BREP ( 'Revolve - Cutting Edge', #221 ) ;
#201 = ADVANCED_BREP_SHAPE_REPRESENTATION ( '82512', ( #200, #96, #145 ), #151 ) ;
#202 = DIRECTION ( 'NONE',  ( 0.000000000000000000, 0.000000000000000000, -1.000000000000000000 ) ) ;
#203 = ORIENTED_EDGE ( 'NONE', *, *, #351, .F. ) ;
#204 = AXIS2_PLACEMENT_3D ( 'NONE', #276, #17, #242 ) ;
#205 = AXIS2_PLACEMENT_3D ( 'NONE', #240, #184, #12 ) ;
#206 = FILL_AREA_STYLE ('',( #301 ) ) ;
#207 = EDGE_LOOP ( 'NONE', ( #34, #111, #97, #130, #152 ) ) ;
#208 = DIMENSIONAL_EXPONENTS ( 1.000000000000000000, 0.000000000000000000, 0.000000000000000000, 0.000000000000000000, 0.000000000000000000, 0.000000000000000000, 0.000000000000000000 ) ;
#209 = FILL_AREA_STYLE ('',( #354 ) ) ;
#210 = LENGTH_MEASURE_WITH_UNIT ( LENGTH_MEASURE( 0.02539999999999999897 ), #14 );
#211 = LINE ( 'NONE', #11, #222 ) ;
#212 =( NAMED_UNIT ( * ) SI_UNIT ( $, .STERADIAN. ) SOLID_ANGLE_UNIT ( ) );
#213 = CIRCLE ( 'NONE', #171, 0.1250000000000000000 ) ;
#214 = CARTESIAN_POINT ( 'NONE',  ( 0.1249999999999997918, 3.000000000000000444, 0.000000000000000000 ) ) ;
#215 = PRODUCT_DEFINITION_CONTEXT ( 'detailed design', #251, 'design' ) ;
#216 = UNCERTAINTY_MEASURE_WITH_UNIT (LENGTH_MEASURE( 1.000000000000000082E-05 ), #337, 'distance_accuracy_value', 'NONE');
#217 = DIRECTION ( 'NONE',  ( 1.224646799147354193E-16, -1.000000000000000000, 0.000000000000000000 ) ) ;
#218 = EDGE_CURVE ( 'NONE', #230, #259, #136, .T. ) ;
#219 = AXIS2_PLACEMENT_3D ( 'NONE', #196, #64, #313 ) ;
#220 = SURFACE_STYLE_USAGE ( .BOTH. , #167 ) ;
#221 = CLOSED_SHELL ( 'NONE', ( #31, #224, #126, #260, #362 ) ) ;
#222 = VECTOR ( 'NONE', #138, 39.37007874015748143 ) ;
#223 = MECHANICAL_DESIGN_GEOMETRIC_PRESENTATION_REPRESENTATION (  '', ( #297 ), #334 ) ;
#224 = ADVANCED_FACE ( 'NONE', ( #252 ), #24, .T. ) ;
#225 = DIRECTION ( 'NONE',  ( 1.224646799147353207E-16, -0.000000000000000000, 1.000000000000000000 ) ) ;
#226 = CARTESIAN_POINT ( 'NONE',  ( -1.224646799147353700E-16, 3.000000000000000444, 0.000000000000000000 ) ) ;
#227 = ORIENTED_EDGE ( 'NONE', *, *, #327, .T. ) ;
#228 = COLOUR_RGB ( '',0.7921568627450980005, 0.8196078431372548767, 0.9333333333333333481 ) ;
#229 = ORIENTED_EDGE ( 'NONE', *, *, #57, .F. ) ;
#230 = VERTEX_POINT ( 'NONE', #25 ) ;
#231 = ORIENTED_EDGE ( 'NONE', *, *, #218, .T. ) ;
#232 = MECHANICAL_DESIGN_GEOMETRIC_PRESENTATION_REPRESENTATION (  '', ( #307 ), #121 ) ;
#233 = MECHANICAL_DESIGN_GEOMETRIC_PRESENTATION_REPRESENTATION (  '', ( #132 ), #250 ) ;
#234 = CARTESIAN_POINT ( 'NONE',  ( 0.000000000000000000, 0.1250000000000000000, 0.000000000000000000 ) ) ;
#235 = ORIENTED_EDGE ( 'NONE', *, *, #57, .T. ) ;
#236 =( LENGTH_UNIT ( ) NAMED_UNIT ( * ) SI_UNIT ( $, .METRE. ) );
#237 = CARTESIAN_POINT ( 'NONE',  ( 6.123233995736774664E-17, 1.500000000000000222, 0.000000000000000000 ) ) ;
#238 = FILL_AREA_STYLE ('',( #82 ) ) ;
#239 =( CONVERSION_BASED_UNIT ( 'INCH', #293 ) LENGTH_UNIT ( ) NAMED_UNIT ( #319 ) );
#240 = CARTESIAN_POINT ( 'NONE',  ( 6.123233995736774664E-17, 1.500000000000000222, 0.000000000000000000 ) ) ;
#241 = AXIS2_PLACEMENT_3D ( 'NONE', #226, #286, #157 ) ;
#242 = DIRECTION ( 'NONE',  ( 0.000000000000000000, 0.000000000000000000, -1.000000000000000000 ) ) ;
#243 = PRODUCT_DEFINITION_SHAPE ( 'NONE', 'NONE',  #267 ) ;
#244 = DIMENSIONAL_EXPONENTS ( 1.000000000000000000, 0.000000000000000000, 0.000000000000000000, 0.000000000000000000, 0.000000000000000000, 0.000000000000000000, 0.000000000000000000 ) ;
#245 =( CONVERSION_BASED_UNIT ( 'INCH', #210 ) LENGTH_UNIT ( ) NAMED_UNIT ( #208 ) );
#246 = UNCERTAINTY_MEASURE_WITH_UNIT (LENGTH_MEASURE( 1.000000000000000082E-05 ), #129, 'distance_accuracy_value', 'NONE');
#247 = CARTESIAN_POINT ( 'NONE',  ( 1.530808498934191509E-17, 0.1250000000000000000, 0.1250000000000000278 ) ) ;
#248 = PRESENTATION_STYLE_ASSIGNMENT (( #220 ) ) ;
#249 = VECTOR ( 'NONE', #47, 39.37007874015748143 ) ;
#250 =( GEOMETRIC_REPRESENTATION_CONTEXT ( 3 ) GLOBAL_UNCERTAINTY_ASSIGNED_CONTEXT ( ( #84 ) ) GLOBAL_UNIT_ASSIGNED_CONTEXT ( ( #147, #176, #120 ) ) REPRESENTATION_CONTEXT ( 'NONE', 'WORKASPACE' ) );
#251 = APPLICATION_CONTEXT ( 'automotive_design' ) ;
#252 = FACE_OUTER_BOUND ( 'NONE', #172, .T. ) ;
#253 = UNCERTAINTY_MEASURE_WITH_UNIT (LENGTH_MEASURE( 1.000000000000000082E-05 ), #46, 'distance_accuracy_value', 'NONE');
#254 = AXIS2_PLACEMENT_3D ( 'NONE', #363, #326, #187 ) ;
#255 = COLOUR_RGB ( '',1.000000000000000000, 0.000000000000000000, 0.000000000000000000 ) ;
#256 = ORIENTED_EDGE ( 'NONE', *, *, #119, .F. ) ;
#257 = CARTESIAN_POINT ( 'NONE',  ( -1.224646799147353700E-16, 3.000000000000000444, 0.000000000000000000 ) ) ;
#258 = VERTEX_POINT ( 'NONE', #85 ) ;
#259 = VERTEX_POINT ( 'NONE', #247 ) ;
#260 = ADVANCED_FACE ( 'NONE', ( #55 ), #27, .T. ) ;
#261 = ORIENTED_EDGE ( 'NONE', *, *, #86, .F. ) ;
#262 = CARTESIAN_POINT ( 'NONE',  ( 0.1249999999999997918, 3.000000000000000444, 1.530808498934189660E-17 ) ) ;
#263 = ORIENTED_EDGE ( 'NONE', *, *, #303, .F. ) ;
#264 = CARTESIAN_POINT ( 'NONE',  ( 0.1249999999999997086, 3.000000000000000444, 1.530808498934189352E-17 ) ) ;
#265 = SURFACE_STYLE_USAGE ( .BOTH. , #291 ) ;
#266 = ORIENTED_EDGE ( 'NONE', *, *, #303, .T. ) ;
#267 = PRODUCT_DEFINITION ( 'UNKNOWN', '', #52, #215 ) ;
#268 =( NAMED_UNIT ( * ) PLANE_ANGLE_UNIT ( ) SI_UNIT ( $, .RADIAN. ) );
#269 = CIRCLE ( 'NONE', #205, 0.1249999999999997363 ) ;
#270 = DIRECTION ( 'NONE',  ( 0.000000000000000000, 1.000000000000000000, 0.000000000000000000 ) ) ;
#271 = EDGE_LOOP ( 'NONE', ( #4, #227 ) ) ;
#272 = CARTESIAN_POINT ( 'NONE',  ( 0.000000000000000000, 0.1250000000000000000, 0.000000000000000000 ) ) ;
#273 = SPHERICAL_SURFACE ( 'NONE', #254, 0.1250000000000000000 ) ;
#274 = SURFACE_STYLE_FILL_AREA ( #238 ) ;
#275 = DIMENSIONAL_EXPONENTS ( 1.000000000000000000, 0.000000000000000000, 0.000000000000000000, 0.000000000000000000, 0.000000000000000000, 0.000000000000000000, 0.000000000000000000 ) ;
#276 = CARTESIAN_POINT ( 'NONE',  ( 0.000000000000000000, 0.1250000000000000000, 0.000000000000000000 ) ) ;
#277 = PRESENTATION_STYLE_ASSIGNMENT (( #189 ) ) ;
#278 = EDGE_CURVE ( 'NONE', #230, #300, #283, .T. ) ;
#279 = DIRECTION ( 'NONE',  ( -1.000000000000000000, 0.000000000000000000, 0.000000000000000000 ) ) ;
#280 =( LENGTH_UNIT ( ) NAMED_UNIT ( * ) SI_UNIT ( $, .METRE. ) );
#281 = COLOUR_RGB ( '',1.000000000000000000, 0.000000000000000000, 0.000000000000000000 ) ;
#282 =( LENGTH_UNIT ( ) NAMED_UNIT ( * ) SI_UNIT ( $, .METRE. ) );
#283 = CIRCLE ( 'NONE', #113, 0.1249999999999998057 ) ;
#284 = EDGE_CURVE ( 'NONE', #128, #83, #213, .T. ) ;
#285 = PRODUCT_RELATED_PRODUCT_CATEGORY ( 'part', '', ( #148 ) ) ;
#286 = DIRECTION ( 'NONE',  ( -1.224646799147354193E-16, 1.000000000000000000, -0.000000000000000000 ) ) ;
#287 = AXIS2_PLACEMENT_3D ( 'NONE', #272, #79, #81 ) ;
#288 = SURFACE_STYLE_USAGE ( .BOTH. , #66 ) ;
#289 = ORIENTED_EDGE ( 'NONE', *, *, #332, .T. ) ;
#290 = SURFACE_STYLE_USAGE ( .BOTH. , #328 ) ;
#291 = SURFACE_SIDE_STYLE ('',( #304 ) ) ;
#292 = EDGE_CURVE ( 'NONE', #123, #83, #369, .T. ) ;
#293 = LENGTH_MEASURE_WITH_UNIT ( LENGTH_MEASURE( 0.02539999999999999897 ), #236 );
#294 = DIRECTION ( 'NONE',  ( -0.000000000000000000, -1.000000000000000000, -0.000000000000000000 ) ) ;
#295 = CARTESIAN_POINT ( 'NONE',  ( -1.530808498934191509E-17, 0.1250000000000000000, 0.000000000000000000 ) ) ;
#296 = COLOUR_RGB ( '',1.000000000000000000, 0.000000000000000000, 0.000000000000000000 ) ;
#297 = STYLED_ITEM ( 'NONE', ( #183 ), #362 ) ;
#298 = CARTESIAN_POINT ( 'NONE',  ( -0.1250000000000000000, 0.1250000000000000000, 1.530808498934191201E-17 ) ) ;
#299 = DIMENSIONAL_EXPONENTS ( 1.000000000000000000, 0.000000000000000000, 0.000000000000000000, 0.000000000000000000, 0.000000000000000000, 0.000000000000000000, 0.000000000000000000 ) ;
#300 = VERTEX_POINT ( 'NONE', #92 ) ;
#301 = FILL_AREA_STYLE_COLOUR ( '', #255 ) ;
#302 = ORIENTED_EDGE ( 'NONE', *, *, #86, .T. ) ;
#303 = EDGE_CURVE ( 'NONE', #300, #230, #10, .T. ) ;
#304 = SURFACE_STYLE_FILL_AREA ( #206 ) ;
#305 = CARTESIAN_POINT ( 'NONE',  ( -1.224646799147353700E-16, 3.000000000000000444, 0.000000000000000000 ) ) ;
#306 = UNCERTAINTY_MEASURE_WITH_UNIT (LENGTH_MEASURE( 1.000000000000000082E-05 ), #239, 'distance_accuracy_value', 'NONE');
#307 = STYLED_ITEM ( 'NONE', ( #91 ), #96 ) ;
#308 = AXIS2_PLACEMENT_3D ( 'NONE', #173, #294, #70 ) ;
#309 = APPLICATION_PROTOCOL_DEFINITION ( 'draft international standard', 'automotive_design', 1998, #251 ) ;
#310 = SURFACE_STYLE_FILL_AREA ( #112 ) ;
#311 = VECTOR ( 'NONE', #170, 39.37007874015748143 ) ;
#312 = CARTESIAN_POINT ( 'NONE',  ( 0.000000000000000000, 1.500000000000000222, 0.000000000000000000 ) ) ;
#313 = DIRECTION ( 'NONE',  ( 0.000000000000000000, 0.000000000000000000, -1.000000000000000000 ) ) ;
#314 = ORIENTED_EDGE ( 'NONE', *, *, #284, .T. ) ;
#315 = MECHANICAL_DESIGN_GEOMETRIC_PRESENTATION_REPRESENTATION (  '', ( #373 ), #352 ) ;
#316 = ORIENTED_EDGE ( 'NONE', *, *, #278, .F. ) ;
#317 = MECHANICAL_DESIGN_GEOMETRIC_PRESENTATION_REPRESENTATION (  '', ( #125 ), #340 ) ;
#318 =( NAMED_UNIT ( * ) SI_UNIT ( $, .STERADIAN. ) SOLID_ANGLE_UNIT ( ) );
#319 = DIMENSIONAL_EXPONENTS ( 1.000000000000000000, 0.000000000000000000, 0.000000000000000000, 0.000000000000000000, 0.000000000000000000, 0.000000000000000000, 0.000000000000000000 ) ;
#320 = SURFACE_STYLE_FILL_AREA ( #209 ) ;
#321 = DIRECTION ( 'NONE',  ( -1.000000000000000000, 0.000000000000000000, 0.000000000000000000 ) ) ;
#322 = DIRECTION ( 'NONE',  ( -1.224646799147354193E-16, 1.000000000000000000, -0.000000000000000000 ) ) ;
#323 = EDGE_CURVE ( 'NONE', #258, #344, #197, .T. ) ;
#324 = CIRCLE ( 'NONE', #204, 0.1250000000000000000 ) ;
#325 = PRESENTATION_LAYER_ASSIGNMENT (  '', '', ( #297 ) ) ;
#326 = DIRECTION ( 'NONE',  ( 0.000000000000000000, 0.000000000000000000, 1.000000000000000000 ) ) ;
#327 = EDGE_CURVE ( 'NONE', #344, #258, #195, .T. ) ;
#328 = SURFACE_SIDE_STYLE ('',( #320 ) ) ;
#329 = PLANE ( 'NONE',  #94 ) ;
#330 = CARTESIAN_POINT ( 'NONE',  ( -0.1249999999999999445, 3.000000000000000444, 0.000000000000000000 ) ) ;
#331 =( NAMED_UNIT ( * ) PLANE_ANGLE_UNIT ( ) SI_UNIT ( $, .RADIAN. ) );
#332 = EDGE_CURVE ( 'NONE', #259, #128, #90, .T. ) ;
#333 = AXIS2_PLACEMENT_3D ( 'NONE', #234, #72, #160 ) ;
#334 =( GEOMETRIC_REPRESENTATION_CONTEXT ( 3 ) GLOBAL_UNCERTAINTY_ASSIGNED_CONTEXT ( ( #306 ) ) GLOBAL_UNIT_ASSIGNED_CONTEXT ( ( #239, #188, #71 ) ) REPRESENTATION_CONTEXT ( 'NONE', 'WORKASPACE' ) );
#335 = SHAPE_DEFINITION_REPRESENTATION ( #243, #201 ) ;
#336 = CYLINDRICAL_SURFACE ( 'NONE', #28, 0.1249999999999998335 ) ;
#337 =( CONVERSION_BASED_UNIT ( 'INCH', #118 ) LENGTH_UNIT ( ) NAMED_UNIT ( #244 ) );
#338 = LENGTH_MEASURE_WITH_UNIT ( LENGTH_MEASURE( 0.02539999999999999897 ), #282 );
#339 = PRESENTATION_LAYER_ASSIGNMENT (  '', '', ( #345 ) ) ;
#340 =( GEOMETRIC_REPRESENTATION_CONTEXT ( 3 ) GLOBAL_UNCERTAINTY_ASSIGNED_CONTEXT ( ( #253 ) ) GLOBAL_UNIT_ASSIGNED_CONTEXT ( ( #46, #9, #212 ) ) REPRESENTATION_CONTEXT ( 'NONE', 'WORKASPACE' ) );
#341 = UNCERTAINTY_MEASURE_WITH_UNIT (LENGTH_MEASURE( 1.000000000000000082E-05 ), #168, 'distance_accuracy_value', 'NONE');
#342 = DIRECTION ( 'NONE',  ( -0.000000000000000000, -1.000000000000000000, -0.000000000000000000 ) ) ;
#343 = APPLICATION_CONTEXT ( 'automotive_design' ) ;
#344 = VERTEX_POINT ( 'NONE', #262 ) ;
#345 = STYLED_ITEM ( 'NONE', ( #163 ), #31 ) ;
#346 = ORIENTED_EDGE ( 'NONE', *, *, #133, .F. ) ;
#347 = AXIS2_PLACEMENT_3D ( 'NONE', #237, #104, #321 ) ;
#348 = CARTESIAN_POINT ( 'NONE',  ( -1.530808498934191509E-17, 0.1250000000000000000, 0.000000000000000000 ) ) ;
#349 = ORIENTED_EDGE ( 'NONE', *, *, #358, .T. ) ;
#350 = DIRECTION ( 'NONE',  ( -1.000000000000000000, 0.000000000000000000, 0.000000000000000000 ) ) ;
#351 = EDGE_CURVE ( 'NONE', #300, #174, #211, .T. ) ;
#352 =( GEOMETRIC_REPRESENTATION_CONTEXT ( 3 ) GLOBAL_UNCERTAINTY_ASSIGNED_CONTEXT ( ( #216 ) ) GLOBAL_UNIT_ASSIGNED_CONTEXT ( ( #337, #331, #58 ) ) REPRESENTATION_CONTEXT ( 'NONE', 'WORKASPACE' ) );
#353 = ADVANCED_FACE ( 'NONE', ( #15 ), #357, .F. ) ;
#354 = FILL_AREA_STYLE_COLOUR ( '', #5 ) ;
#355 = FACE_OUTER_BOUND ( 'NONE', #93, .T. ) ;
#356 = PLANE ( 'NONE',  #67 ) ;
#357 = PLANE ( 'NONE',  #78 ) ;
#358 = EDGE_CURVE ( 'NONE', #159, #344, #131, .T. ) ;
#359 = LINE ( 'NONE', #330, #249 ) ;
#360 =( LENGTH_UNIT ( ) NAMED_UNIT ( * ) SI_UNIT ( $, .METRE. ) );
#361 = LENGTH_MEASURE_WITH_UNIT ( LENGTH_MEASURE( 0.02539999999999999897 ), #162 );
#362 = ADVANCED_FACE ( 'NONE', ( #178 ), #180, .T. ) ;
#363 = CARTESIAN_POINT ( 'NONE',  ( -1.530808498934191509E-17, 0.1250000000000000000, 0.000000000000000000 ) ) ;
#364 = CLOSED_SHELL ( 'NONE', ( #95, #353, #23, #26 ) ) ;
#365 = CARTESIAN_POINT ( 'NONE',  ( -0.1249999999999996808, 1.500000000000000222, 0.000000000000000000 ) ) ;
#366 = FACE_OUTER_BOUND ( 'NONE', #199, .T. ) ;
#367 = CARTESIAN_POINT ( 'NONE',  ( 1.530808498934190276E-17, 0.000000000000000000, 0.1249999999999999029 ) ) ;
#368 = PRESENTATION_STYLE_ASSIGNMENT (( #116 ) ) ;
#369 = CIRCLE ( 'NONE', #107, 0.1250000000000000000 ) ;
#370 =( GEOMETRIC_REPRESENTATION_CONTEXT ( 3 ) GLOBAL_UNCERTAINTY_ASSIGNED_CONTEXT ( ( #341 ) ) GLOBAL_UNIT_ASSIGNED_CONTEXT ( ( #168, #53, #142 ) ) REPRESENTATION_CONTEXT ( 'NONE', 'WORKASPACE' ) );
#371 = DIRECTION ( 'NONE',  ( 0.000000000000000000, 0.000000000000000000, -1.000000000000000000 ) ) ;
#372 = LENGTH_MEASURE_WITH_UNIT ( LENGTH_MEASURE( 0.02539999999999999897 ), #87 );
#373 = STYLED_ITEM ( 'NONE', ( #248 ), #224 ) ;
ENDSEC;
END-ISO-10303-21;
