ISO-10303-21;
HEADER;
FILE_DESCRIPTION (( 'STEP AP214' ),
    '1' );
FILE_NAME ('Micro_KC-500-750-030.STEP',
    '2021-09-03T19:50:41',
    ( '' ),
    ( '' ),
    'SwSTEP 2.0',
    'SolidWorks 2020',
    '' );
FILE_SCHEMA (( 'AUTOMOTIVE_DESIGN' ));
ENDSEC;

DATA;
#1 = AXIS2_PLACEMENT_3D ( 'NONE', #345, #209, #56 ) ;
#2 = EDGE_CURVE ( 'NONE', #108, #49, #296, .T. ) ;
#3 =( NAMED_UNIT ( * ) PLANE_ANGLE_UNIT ( ) SI_UNIT ( $, .RADIAN. ) );
#4 = EDGE_CURVE ( 'NONE', #183, #240, #267, .T. ) ;
#5 = CARTESIAN_POINT ( 'NONE',  ( 0.0000000000000000000, 0.0000000000000000000, 0.0000000000000000000 ) ) ;
#6 = DIRECTION ( 'NONE',  ( -0.0000000000000000000, -0.0000000000000000000, -1.000000000000000000 ) ) ;
#7 = CARTESIAN_POINT ( 'NONE',  ( 0.0000000000000000000, 0.0000000000000000000, 0.03000000000000002318 ) ) ;
#8 = ORIENTED_EDGE ( 'NONE', *, *, #48, .F. ) ;
#9 = CARTESIAN_POINT ( 'NONE',  ( 0.0000000000000000000, 0.0000000000000000000, 3.000000000000000444 ) ) ;
#10 = ADVANCED_FACE ( 'NONE', ( #289 ), #372, .T. ) ;
#11 = FACE_OUTER_BOUND ( 'NONE', #87, .T. ) ;
#12 = LENGTH_MEASURE_WITH_UNIT ( LENGTH_MEASURE( 0.02539999999999999897 ), #299 );
#13 = AXIS2_PLACEMENT_3D ( 'NONE', #264, #177, #126 ) ;
#14 = AXIS2_PLACEMENT_3D ( 'NONE', #362, #278, #364 ) ;
#15 = ORIENTED_EDGE ( 'NONE', *, *, #34, .F. ) ;
#16 = VECTOR ( 'NONE', #326, 39.37007874015748143 ) ;
#17 = FILL_AREA_STYLE_COLOUR ( '', #262 ) ;
#18 = DIRECTION ( 'NONE',  ( 1.000000000000000000, 0.0000000000000000000, 0.0000000000000000000 ) ) ;
#19 = ADVANCED_FACE ( 'NONE', ( #105 ), #343, .T. ) ;
#20 = ORIENTED_EDGE ( 'NONE', *, *, #172, .T. ) ;
#21 = CARTESIAN_POINT ( 'NONE',  ( 0.1250000000000000833, 0.0000000000000000000, 0.7500000000000001110 ) ) ;
#22 = ORIENTED_EDGE ( 'NONE', *, *, #4, .F. ) ;
#23 = CARTESIAN_POINT ( 'NONE',  ( -0.1250000000000000833, 2.296212748401287726E-17, 0.7500000000000001110 ) ) ;
#24 = CARTESIAN_POINT ( 'NONE',  ( 0.0000000000000000000, 0.0000000000000000000, 3.000000000000000444 ) ) ;
#25 = ADVANCED_FACE ( 'NONE', ( #187 ), #73, .T. ) ;
#26 = CARTESIAN_POINT ( 'NONE',  ( 0.0000000000000000000, 0.0000000000000000000, 3.000000000000000444 ) ) ;
#27 = PRODUCT_RELATED_PRODUCT_CATEGORY ( 'part', '', ( #37 ) ) ;
#28 = EDGE_LOOP ( 'NONE', ( #232, #363, #315, #291 ) ) ;
#29 = AXIS2_PLACEMENT_3D ( 'NONE', #301, #217, #18 ) ;
#30 = MECHANICAL_DESIGN_GEOMETRIC_PRESENTATION_REPRESENTATION (  '', ( #121 ), #247 ) ;
#31 = DIMENSIONAL_EXPONENTS ( 1.000000000000000000, 0.0000000000000000000, 0.0000000000000000000, 0.0000000000000000000, 0.0000000000000000000, 0.0000000000000000000, 0.0000000000000000000 ) ;
#32 = DIRECTION ( 'NONE',  ( 1.000000000000000000, 0.0000000000000000000, -0.0000000000000000000 ) ) ;
#33 = DIRECTION ( 'NONE',  ( -1.000000000000000000, 0.0000000000000000000, 0.0000000000000000000 ) ) ;
#34 = EDGE_CURVE ( 'NONE', #330, #206, #320, .T. ) ;
#35 = DIRECTION ( 'NONE',  ( 1.000000000000000000, 0.0000000000000000000, 0.0000000000000000000 ) ) ;
#36 = DIRECTION ( 'NONE',  ( -1.000000000000000000, 0.0000000000000000000, 0.0000000000000000000 ) ) ;
#37 = PRODUCT ( 'Micro_KC-500-750-030', 'Micro_KC-500-750-030', '', ( #353 ) ) ;
#38 =( LENGTH_UNIT ( ) NAMED_UNIT ( * ) SI_UNIT ( $, .METRE. ) );
#39 = CIRCLE ( 'NONE', #1, 0.2500000000000000000 ) ;
#40 = CONICAL_SURFACE ( 'NONE', #29, 0.1250000000000000833, 0.7853981633974503884 ) ;
#41 = DIRECTION ( 'NONE',  ( 0.0000000000000000000, 0.0000000000000000000, 1.000000000000000000 ) ) ;
#42 = DIRECTION ( 'NONE',  ( 0.0000000000000000000, 0.0000000000000000000, -1.000000000000000000 ) ) ;
#43 = LINE ( 'NONE', #78, #68 ) ;
#44 = EDGE_LOOP ( 'NONE', ( #306, #228 ) ) ;
#45 = CARTESIAN_POINT ( 'NONE',  ( -0.2350000000000011524, 0.0000000000000000000, 3.000000000000000444 ) ) ;
#46 = ADVANCED_FACE ( 'NONE', ( #297 ), #153, .T. ) ;
#47 = ADVANCED_FACE ( 'NONE', ( #323 ), #72, .F. ) ;
#48 = EDGE_CURVE ( 'NONE', #163, #303, #350, .T. ) ;
#49 = VERTEX_POINT ( 'NONE', #160 ) ;
#50 = AXIS2_PLACEMENT_3D ( 'NONE', #134, #274, #35 ) ;
#51 = DIRECTION ( 'NONE',  ( 0.0000000000000000000, 0.0000000000000000000, 1.000000000000000000 ) ) ;
#52 = DIRECTION ( 'NONE',  ( 0.7071067811865490160, 0.0000000000000000000, 0.7071067811865460184 ) ) ;
#53 = ORIENTED_EDGE ( 'NONE', *, *, #286, .T. ) ;
#54 = CARTESIAN_POINT ( 'NONE',  ( 0.2499999999999999722, 3.061616997868381785E-17, 0.02999999999999998848 ) ) ;
#55 = ORIENTED_EDGE ( 'NONE', *, *, #155, .F. ) ;
#56 = DIRECTION ( 'NONE',  ( 1.000000000000000000, 0.0000000000000000000, 0.0000000000000000000 ) ) ;
#57 = AXIS2_PLACEMENT_3D ( 'NONE', #276, #41, #32 ) ;
#58 = DIMENSIONAL_EXPONENTS ( 1.000000000000000000, 0.0000000000000000000, 0.0000000000000000000, 0.0000000000000000000, 0.0000000000000000000, 0.0000000000000000000, 0.0000000000000000000 ) ;
#59 = FACE_OUTER_BOUND ( 'NONE', #335, .T. ) ;
#60 = CARTESIAN_POINT ( 'NONE',  ( -0.2350000000000011524, 0.0000000000000000000, 3.000000000000000444 ) ) ;
#61 = VECTOR ( 'NONE', #305, 39.37007874015748143 ) ;
#62 = STYLED_ITEM ( 'NONE', ( #190 ), #117 ) ;
#63 = ADVANCED_FACE ( 'NONE', ( #11 ), #40, .T. ) ;
#64 = SURFACE_STYLE_USAGE ( .BOTH. , #358 ) ;
#65 = ADVANCED_FACE ( 'NONE', ( #125 ), #131, .T. ) ;
#66 = ORIENTED_EDGE ( 'NONE', *, *, #4, .T. ) ;
#67 = DIRECTION ( 'NONE',  ( -0.0000000000000000000, -0.0000000000000000000, -1.000000000000000000 ) ) ;
#68 = VECTOR ( 'NONE', #161, 39.37007874015748143 ) ;
#69 = DIRECTION ( 'NONE',  ( 1.000000000000000000, 0.0000000000000000000, 0.0000000000000000000 ) ) ;
#70 = AXIS2_PLACEMENT_3D ( 'NONE', #170, #109, #309 ) ;
#71 = EDGE_CURVE ( 'NONE', #196, #313, #151, .T. ) ;
#72 = PLANE ( 'NONE',  #57 ) ;
#73 = CYLINDRICAL_SURFACE ( 'NONE', #14, 0.2500000000000000000 ) ;
#74 = EDGE_LOOP ( 'NONE', ( #93, #369, #189, #344 ) ) ;
#75 = LINE ( 'NONE', #188, #61 ) ;
#76 = ORIENTED_EDGE ( 'NONE', *, *, #100, .F. ) ;
#77 = FACE_BOUND ( 'NONE', #44, .T. ) ;
#78 = CARTESIAN_POINT ( 'NONE',  ( 0.2500000000000000000, 3.061616997868382402E-17, 3.000000000000000444 ) ) ;
#79 = ORIENTED_EDGE ( 'NONE', *, *, #286, .F. ) ;
#80 = DIRECTION ( 'NONE',  ( -0.0000000000000000000, -0.0000000000000000000, -1.000000000000000000 ) ) ;
#81 = EDGE_CURVE ( 'NONE', #196, #198, #236, .T. ) ;
#82 = SURFACE_SIDE_STYLE ('',( #256 ) ) ;
#83 = ORIENTED_EDGE ( 'NONE', *, *, #172, .F. ) ;
#84 = DIRECTION ( 'NONE',  ( 1.000000000000000000, 0.0000000000000000000, 0.0000000000000000000 ) ) ;
#85 = CONICAL_SURFACE ( 'NONE', #378, 0.2350000000000011524, 0.7853981633974380649 ) ;
#86 = CLOSED_SHELL ( 'NONE', ( #65, #230, #275, #179, #25, #234, #10, #210, #63, #19, #142, #47, #46 ) ) ;
#87 = EDGE_LOOP ( 'NONE', ( #146, #308, #300, #53 ) ) ;
#88 = CYLINDRICAL_SURFACE ( 'NONE', #168, 0.1250000000000000278 ) ;
#89 = EDGE_LOOP ( 'NONE', ( #332, #223, #15, #143 ) ) ;
#90 = CARTESIAN_POINT ( 'NONE',  ( 0.0000000000000000000, 0.0000000000000000000, 3.000000000000000444 ) ) ;
#91 = PRODUCT_DEFINITION ( 'UNKNOWN', '', #165, #281 ) ;
#92 = CARTESIAN_POINT ( 'NONE',  ( 0.2350000000000011524, 2.877919977996294002E-17, 3.000000000000000444 ) ) ;
#93 = ORIENTED_EDGE ( 'NONE', *, *, #155, .T. ) ;
#94 = DIRECTION ( 'NONE',  ( -1.000000000000000000, 0.0000000000000000000, 0.0000000000000000000 ) ) ;
#95 = CYLINDRICAL_SURFACE ( 'NONE', #339, 0.2500000000000000000 ) ;
#96 = AXIS2_PLACEMENT_3D ( 'NONE', #307, #304, #144 ) ;
#97 = CARTESIAN_POINT ( 'NONE',  ( 0.0000000000000000000, 0.0000000000000000000, 0.8749999999999994449 ) ) ;
#98 = AXIS2_PLACEMENT_3D ( 'NONE', #233, #342, #84 ) ;
#99 = DIRECTION ( 'NONE',  ( 0.7071067811865402453, 8.659560562354845344E-17, -0.7071067811865546782 ) ) ;
#100 = EDGE_CURVE ( 'NONE', #183, #49, #248, .T. ) ;
#101 = EDGE_LOOP ( 'NONE', ( #366, #20, #317, #79 ) ) ;
#102 = DIRECTION ( 'NONE',  ( -0.0000000000000000000, -0.0000000000000000000, -1.000000000000000000 ) ) ;
#103 = DIRECTION ( 'NONE',  ( -0.0000000000000000000, -0.0000000000000000000, -1.000000000000000000 ) ) ;
#104 = DIRECTION ( 'NONE',  ( -0.0000000000000000000, -0.0000000000000000000, -1.000000000000000000 ) ) ;
#105 = FACE_OUTER_BOUND ( 'NONE', #115, .T. ) ;
#106 = LINE ( 'NONE', #229, #220 ) ;
#107 = AXIS2_PLACEMENT_3D ( 'NONE', #24, #51, #141 ) ;
#108 = VERTEX_POINT ( 'NONE', #273 ) ;
#109 = DIRECTION ( 'NONE',  ( 0.0000000000000000000, 0.0000000000000000000, -1.000000000000000000 ) ) ;
#110 = CARTESIAN_POINT ( 'NONE',  ( 0.0000000000000000000, 0.0000000000000000000, 0.0000000000000000000 ) ) ;
#111 = LINE ( 'NONE', #250, #16 ) ;
#112 = EDGE_LOOP ( 'NONE', ( #76, #282, #257, #83 ) ) ;
#113 = LINE ( 'NONE', #45, #221 ) ;
#114 = DIRECTION ( 'NONE',  ( -1.000000000000000000, 0.0000000000000000000, 0.0000000000000000000 ) ) ;
#115 = EDGE_LOOP ( 'NONE', ( #377, #243, #357, #272 ) ) ;
#116 = DIRECTION ( 'NONE',  ( -0.0000000000000000000, -0.0000000000000000000, -1.000000000000000000 ) ) ;
#117 = MANIFOLD_SOLID_BREP ( 'Cut-Revolve1', #86 ) ;
#118 = ORIENTED_EDGE ( 'NONE', *, *, #347, .F. ) ;
#119 = DIRECTION ( 'NONE',  ( 1.000000000000000000, 0.0000000000000000000, 0.0000000000000000000 ) ) ;
#120 = DIRECTION ( 'NONE',  ( -0.0000000000000000000, -0.0000000000000000000, -1.000000000000000000 ) ) ;
#121 = STYLED_ITEM ( 'NONE', ( #231 ), #290 ) ;
#122 = EDGE_CURVE ( 'NONE', #198, #171, #216, .T. ) ;
#123 = CIRCLE ( 'NONE', #98, 0.2500000000000000000 ) ;
#124 = SHAPE_DEFINITION_REPRESENTATION ( #129, #290 ) ;
#125 = FACE_OUTER_BOUND ( 'NONE', #74, .T. ) ;
#126 = DIRECTION ( 'NONE',  ( -1.000000000000000000, 0.0000000000000000000, 0.0000000000000000000 ) ) ;
#127 = ORIENTED_EDGE ( 'NONE', *, *, #219, .F. ) ;
#128 = FILL_AREA_STYLE ('',( #156 ) ) ;
#129 = PRODUCT_DEFINITION_SHAPE ( 'NONE', 'NONE',  #91 ) ;
#130 = CARTESIAN_POINT ( 'NONE',  ( -0.2500000000000000000, 0.0000000000000000000, 0.8749999999999994449 ) ) ;
#131 = CYLINDRICAL_SURFACE ( 'NONE', #158, 0.2500000000000000000 ) ;
#132 = CIRCLE ( 'NONE', #50, 0.2500000000000000000 ) ;
#133 = CARTESIAN_POINT ( 'NONE',  ( -0.1250000000000000833, 1.530808498934192433E-17, 0.7500000000000001110 ) ) ;
#134 = CARTESIAN_POINT ( 'NONE',  ( 0.0000000000000000000, 0.0000000000000000000, 0.0000000000000000000 ) ) ;
#135 = CARTESIAN_POINT ( 'NONE',  ( 0.0000000000000000000, 0.0000000000000000000, 2.985000000000001208 ) ) ;
#136 = CARTESIAN_POINT ( 'NONE',  ( 0.0000000000000000000, 0.0000000000000000000, 2.985000000000001208 ) ) ;
#137 = AXIS2_PLACEMENT_3D ( 'NONE', #270, #6, #280 ) ;
#138 = EDGE_LOOP ( 'NONE', ( #22, #222, #200, #354 ) ) ;
#139 = CARTESIAN_POINT ( 'NONE',  ( 0.1250000000000000833, 0.0000000000000000000, 0.7500000000000001110 ) ) ;
#140 = FILL_AREA_STYLE ('',( #17 ) ) ;
#141 = DIRECTION ( 'NONE',  ( 1.000000000000000000, 0.0000000000000000000, 0.0000000000000000000 ) ) ;
#142 = ADVANCED_FACE ( 'NONE', ( #77, #224 ), #373, .T. ) ;
#143 = ORIENTED_EDGE ( 'NONE', *, *, #302, .F. ) ;
#144 = DIRECTION ( 'NONE',  ( 1.000000000000000000, 0.0000000000000000000, -0.0000000000000000000 ) ) ;
#145 = AXIS2_PLACEMENT_3D ( 'NONE', #90, #319, #119 ) ;
#146 = ORIENTED_EDGE ( 'NONE', *, *, #71, .F. ) ;
#147 = AXIS2_PLACEMENT_3D ( 'NONE', #26, #238, #341 ) ;
#148 = DIRECTION ( 'NONE',  ( -1.000000000000000000, 0.0000000000000000000, 0.0000000000000000000 ) ) ;
#149 = EDGE_CURVE ( 'NONE', #108, #313, #106, .T. ) ;
#150 = AXIS2_PLACEMENT_3D ( 'NONE', #176, #356, #69 ) ;
#151 = LINE ( 'NONE', #133, #368 ) ;
#152 = EDGE_CURVE ( 'NONE', #303, #208, #253, .T. ) ;
#153 = CYLINDRICAL_SURFACE ( 'NONE', #180, 0.2500000000000000000 ) ;
#154 =( NAMED_UNIT ( * ) SI_UNIT ( $, .STERADIAN. ) SOLID_ANGLE_UNIT ( ) );
#155 = EDGE_CURVE ( 'NONE', #303, #163, #360, .T. ) ;
#156 = FILL_AREA_STYLE_COLOUR ( '', #185 ) ;
#157 = UNCERTAINTY_MEASURE_WITH_UNIT (LENGTH_MEASURE( 1.000000000000000082E-05 ), #370, 'distance_accuracy_value', 'NONE');
#158 = AXIS2_PLACEMENT_3D ( 'NONE', #9, #244, #184 ) ;
#159 = CARTESIAN_POINT ( 'NONE',  ( -0.1250000000000000000, 0.0000000000000000000, 0.03000000000000002318 ) ) ;
#160 = CARTESIAN_POINT ( 'NONE',  ( 0.2500000000000000000, 3.061616997868382402E-17, 2.985000000000001208 ) ) ;
#161 = DIRECTION ( 'NONE',  ( -0.0000000000000000000, -0.0000000000000000000, -1.000000000000000000 ) ) ;
#162 = DIRECTION ( 'NONE',  ( -1.000000000000000000, 0.0000000000000000000, 0.0000000000000000000 ) ) ;
#163 = VERTEX_POINT ( 'NONE', #54 ) ;
#164 = CARTESIAN_POINT ( 'NONE',  ( 0.2500000000000000000, 3.061616997868382402E-17, 0.8749999999999994449 ) ) ;
#165 = PRODUCT_DEFINITION_FORMATION_WITH_SPECIFIED_SOURCE ( 'ANY', '', #37, .NOT_KNOWN. ) ;
#166 = MECHANICAL_DESIGN_GEOMETRIC_PRESENTATION_REPRESENTATION (  '', ( #62 ), #241 ) ;
#167 = EDGE_CURVE ( 'NONE', #240, #108, #113, .T. ) ;
#168 = AXIS2_PLACEMENT_3D ( 'NONE', #207, #120, #271 ) ;
#169 = EDGE_LOOP ( 'NONE', ( #118, #293, #322, #277 ) ) ;
#170 = CARTESIAN_POINT ( 'NONE',  ( 0.0000000000000000000, 0.0000000000000000000, 3.000000000000000444 ) ) ;
#171 = VERTEX_POINT ( 'NONE', #164 ) ;
#172 = EDGE_CURVE ( 'NONE', #49, #108, #214, .T. ) ;
#173 = VERTEX_POINT ( 'NONE', #367 ) ;
#174 = FACE_OUTER_BOUND ( 'NONE', #112, .T. ) ;
#175 = ORIENTED_EDGE ( 'NONE', *, *, #122, .F. ) ;
#176 = CARTESIAN_POINT ( 'NONE',  ( 0.0000000000000000000, 0.0000000000000000000, 0.7500000000000001110 ) ) ;
#177 = DIRECTION ( 'NONE',  ( -0.0000000000000000000, -0.0000000000000000000, -1.000000000000000000 ) ) ;
#178 = CIRCLE ( 'NONE', #13, 0.1250000000000000833 ) ;
#179 = ADVANCED_FACE ( 'NONE', ( #201 ), #337, .T. ) ;
#180 = AXIS2_PLACEMENT_3D ( 'NONE', #355, #67, #94 ) ;
#181 = CIRCLE ( 'NONE', #295, 0.1250000000000000000 ) ;
#182 = DIRECTION ( 'NONE',  ( 0.0000000000000000000, 0.0000000000000000000, 1.000000000000000000 ) ) ;
#183 = VERTEX_POINT ( 'NONE', #375 ) ;
#184 = DIRECTION ( 'NONE',  ( -1.000000000000000000, 0.0000000000000000000, 0.0000000000000000000 ) ) ;
#185 = COLOUR_RGB ( '',0.7921568627450980005, 0.8196078431372548767, 0.9333333333333333481 ) ;
#186 = EDGE_CURVE ( 'NONE', #49, #171, #227, .T. ) ;
#187 = FACE_OUTER_BOUND ( 'NONE', #28, .T. ) ;
#188 = CARTESIAN_POINT ( 'NONE',  ( -0.1250000000000000278, 0.0000000000000000000, 0.0000000000000000000 ) ) ;
#189 = ORIENTED_EDGE ( 'NONE', *, *, #219, .T. ) ;
#190 = PRESENTATION_STYLE_ASSIGNMENT (( #64 ) ) ;
#191 = EDGE_LOOP ( 'NONE', ( #226, #127 ) ) ;
#192 = CARTESIAN_POINT ( 'NONE',  ( 0.0000000000000000000, 0.0000000000000000000, 0.03000000000000002318 ) ) ;
#193 = DIRECTION ( 'NONE',  ( -1.000000000000000000, 0.0000000000000000000, 0.0000000000000000000 ) ) ;
#194 = AXIS2_PLACEMENT_3D ( 'NONE', #192, #102, #36 ) ;
#195 = APPLICATION_PROTOCOL_DEFINITION ( 'draft international standard', 'automotive_design', 1998, #311 ) ;
#196 = VERTEX_POINT ( 'NONE', #23 ) ;
#197 = DIRECTION ( 'NONE',  ( 1.000000000000000000, 0.0000000000000000000, 0.0000000000000000000 ) ) ;
#198 = VERTEX_POINT ( 'NONE', #139 ) ;
#199 =( CONVERSION_BASED_UNIT ( 'INCH', #12 ) LENGTH_UNIT ( ) NAMED_UNIT ( #31 ) );
#200 = ORIENTED_EDGE ( 'NONE', *, *, #2, .F. ) ;
#201 = FACE_OUTER_BOUND ( 'NONE', #138, .T. ) ;
#202 = AXIS2_PLACEMENT_3D ( 'NONE', #292, #261, #162 ) ;
#203 = PRESENTATION_LAYER_ASSIGNMENT (  '', '', ( #121 ) ) ;
#204 = ORIENTED_EDGE ( 'NONE', *, *, #71, .T. ) ;
#205 = FACE_OUTER_BOUND ( 'NONE', #89, .T. ) ;
#206 = VERTEX_POINT ( 'NONE', #239 ) ;
#207 = CARTESIAN_POINT ( 'NONE',  ( 0.0000000000000000000, 0.0000000000000000000, 0.0000000000000000000 ) ) ;
#208 = VERTEX_POINT ( 'NONE', #288 ) ;
#209 = DIRECTION ( 'NONE',  ( -0.0000000000000000000, -0.0000000000000000000, -1.000000000000000000 ) ) ;
#210 = ADVANCED_FACE ( 'NONE', ( #174 ), #85, .T. ) ;
#211 = CARTESIAN_POINT ( 'NONE',  ( 0.0000000000000000000, 0.0000000000000000000, 3.000000000000000444 ) ) ;
#212 = AXIS2_PLACEMENT_3D ( 'NONE', #352, #325, #33 ) ;
#213 = DIRECTION ( 'NONE',  ( -0.0000000000000000000, -0.0000000000000000000, -1.000000000000000000 ) ) ;
#214 = CIRCLE ( 'NONE', #324, 0.2500000000000000000 ) ;
#215 =( CONVERSION_BASED_UNIT ( 'INCH', #285 ) LENGTH_UNIT ( ) NAMED_UNIT ( #58 ) );
#216 = LINE ( 'NONE', #21, #379 ) ;
#217 = DIRECTION ( 'NONE',  ( 0.0000000000000000000, 0.0000000000000000000, 1.000000000000000000 ) ) ;
#218 = DIRECTION ( 'NONE',  ( -1.000000000000000000, 0.0000000000000000000, 0.0000000000000000000 ) ) ;
#219 = EDGE_CURVE ( 'NONE', #173, #208, #123, .T. ) ;
#220 = VECTOR ( 'NONE', #251, 39.37007874015748143 ) ;
#221 = VECTOR ( 'NONE', #365, 39.37007874015748854 ) ;
#222 = ORIENTED_EDGE ( 'NONE', *, *, #100, .T. ) ;
#223 = ORIENTED_EDGE ( 'NONE', *, *, #338, .T. ) ;
#224 = FACE_OUTER_BOUND ( 'NONE', #260, .T. ) ;
#225 = UNCERTAINTY_MEASURE_WITH_UNIT (LENGTH_MEASURE( 1.000000000000000082E-05 ), #199, 'distance_accuracy_value', 'NONE');
#226 = ORIENTED_EDGE ( 'NONE', *, *, #294, .F. ) ;
#227 = LINE ( 'NONE', #283, #346 ) ;
#228 = ORIENTED_EDGE ( 'NONE', *, *, #242, .T. ) ;
#229 = CARTESIAN_POINT ( 'NONE',  ( -0.2500000000000000000, 0.0000000000000000000, 3.000000000000000444 ) ) ;
#230 = ADVANCED_FACE ( 'NONE', ( #205 ), #88, .T. ) ;
#231 = PRESENTATION_STYLE_ASSIGNMENT (( #371 ) ) ;
#232 = ORIENTED_EDGE ( 'NONE', *, *, #2, .T. ) ;
#233 = CARTESIAN_POINT ( 'NONE',  ( 0.0000000000000000000, 0.0000000000000000000, 0.0000000000000000000 ) ) ;
#234 = ADVANCED_FACE ( 'NONE', ( #349 ), #95, .T. ) ;
#235 = EDGE_CURVE ( 'NONE', #240, #183, #361, .T. ) ;
#236 = CIRCLE ( 'NONE', #212, 0.1250000000000000833 ) ;
#237 = CIRCLE ( 'NONE', #269, 0.2500000000000000000 ) ;
#238 = DIRECTION ( 'NONE',  ( 0.0000000000000000000, 0.0000000000000000000, 1.000000000000000000 ) ) ;
#239 = CARTESIAN_POINT ( 'NONE',  ( 0.1250000000000000000, 1.530808498934191817E-17, 0.03000000000000002318 ) ) ;
#240 = VERTEX_POINT ( 'NONE', #60 ) ;
#241 =( GEOMETRIC_REPRESENTATION_CONTEXT ( 3 ) GLOBAL_UNCERTAINTY_ASSIGNED_CONTEXT ( ( #157 ) ) GLOBAL_UNIT_ASSIGNED_CONTEXT ( ( #370, #314, #316 ) ) REPRESENTATION_CONTEXT ( 'NONE', 'WORKASPACE' ) );
#242 = EDGE_CURVE ( 'NONE', #206, #330, #181, .T. ) ;
#243 = ORIENTED_EDGE ( 'NONE', *, *, #258, .T. ) ;
#244 = DIRECTION ( 'NONE',  ( -0.0000000000000000000, -0.0000000000000000000, -1.000000000000000000 ) ) ;
#245 = DIRECTION ( 'NONE',  ( 1.000000000000000000, 0.0000000000000000000, 0.0000000000000000000 ) ) ;
#246 =( NAMED_UNIT ( * ) PLANE_ANGLE_UNIT ( ) SI_UNIT ( $, .RADIAN. ) );
#247 =( GEOMETRIC_REPRESENTATION_CONTEXT ( 3 ) GLOBAL_UNCERTAINTY_ASSIGNED_CONTEXT ( ( #265 ) ) GLOBAL_UNIT_ASSIGNED_CONTEXT ( ( #215, #3, #268 ) ) REPRESENTATION_CONTEXT ( 'NONE', 'WORKASPACE' ) );
#248 = LINE ( 'NONE', #92, #254 ) ;
#249 = ORIENTED_EDGE ( 'NONE', *, *, #81, .F. ) ;
#250 = CARTESIAN_POINT ( 'NONE',  ( 0.1250000000000000278, 1.530808498934191817E-17, 0.0000000000000000000 ) ) ;
#251 = DIRECTION ( 'NONE',  ( -0.0000000000000000000, -0.0000000000000000000, -1.000000000000000000 ) ) ;
#252 = DIRECTION ( 'NONE',  ( 0.0000000000000000000, 0.0000000000000000000, -1.000000000000000000 ) ) ;
#253 = LINE ( 'NONE', #328, #312 ) ;
#254 = VECTOR ( 'NONE', #99, 39.37007874015748854 ) ;
#255 = DIRECTION ( 'NONE',  ( 1.000000000000000000, 0.0000000000000000000, 0.0000000000000000000 ) ) ;
#256 = SURFACE_STYLE_FILL_AREA ( #140 ) ;
#257 = ORIENTED_EDGE ( 'NONE', *, *, #167, .T. ) ;
#258 = EDGE_CURVE ( 'NONE', #198, #196, #178, .T. ) ;
#259 = DIRECTION ( 'NONE',  ( 0.0000000000000000000, 0.0000000000000000000, -1.000000000000000000 ) ) ;
#260 = EDGE_LOOP ( 'NONE', ( #55, #8 ) ) ;
#261 = DIRECTION ( 'NONE',  ( -0.0000000000000000000, -0.0000000000000000000, -1.000000000000000000 ) ) ;
#262 = COLOUR_RGB ( '',0.7921568627450980005, 0.8196078431372548767, 0.9333333333333333481 ) ;
#263 = ORIENTED_EDGE ( 'NONE', *, *, #340, .T. ) ;
#264 = CARTESIAN_POINT ( 'NONE',  ( 0.0000000000000000000, 0.0000000000000000000, 0.7500000000000001110 ) ) ;
#265 = UNCERTAINTY_MEASURE_WITH_UNIT (LENGTH_MEASURE( 1.000000000000000082E-05 ), #215, 'distance_accuracy_value', 'NONE');
#266 = AXIS2_PLACEMENT_3D ( 'NONE', #5, #182, #245 ) ;
#267 = CIRCLE ( 'NONE', #107, 0.2350000000000011524 ) ;
#268 =( NAMED_UNIT ( * ) SI_UNIT ( $, .STERADIAN. ) SOLID_ANGLE_UNIT ( ) );
#269 = AXIS2_PLACEMENT_3D ( 'NONE', #97, #104, #197 ) ;
#270 = CARTESIAN_POINT ( 'NONE',  ( 0.0000000000000000000, 0.0000000000000000000, 0.02999999999999998848 ) ) ;
#271 = DIRECTION ( 'NONE',  ( -1.000000000000000000, 0.0000000000000000000, 0.0000000000000000000 ) ) ;
#272 = ORIENTED_EDGE ( 'NONE', *, *, #242, .F. ) ;
#273 = CARTESIAN_POINT ( 'NONE',  ( -0.2500000000000000000, 0.0000000000000000000, 2.985000000000001208 ) ) ;
#274 = DIRECTION ( 'NONE',  ( 0.0000000000000000000, 0.0000000000000000000, 1.000000000000000000 ) ) ;
#275 = ADVANCED_FACE ( 'NONE', ( #59 ), #310, .T. ) ;
#276 = CARTESIAN_POINT ( 'NONE',  ( 0.0000000000000000000, 0.0000000000000000000, 0.0000000000000000000 ) ) ;
#277 = ORIENTED_EDGE ( 'NONE', *, *, #294, .T. ) ;
#278 = DIRECTION ( 'NONE',  ( -0.0000000000000000000, -0.0000000000000000000, -1.000000000000000000 ) ) ;
#279 = AXIS2_PLACEMENT_3D ( 'NONE', #110, #103, #193 ) ;
#280 = DIRECTION ( 'NONE',  ( -1.000000000000000000, 0.0000000000000000000, 0.0000000000000000000 ) ) ;
#281 = PRODUCT_DEFINITION_CONTEXT ( 'detailed design', #327, 'design' ) ;
#282 = ORIENTED_EDGE ( 'NONE', *, *, #235, .F. ) ;
#283 = CARTESIAN_POINT ( 'NONE',  ( 0.2500000000000000000, 3.061616997868382402E-17, 3.000000000000000444 ) ) ;
#284 =( GEOMETRIC_REPRESENTATION_CONTEXT ( 3 ) GLOBAL_UNCERTAINTY_ASSIGNED_CONTEXT ( ( #225 ) ) GLOBAL_UNIT_ASSIGNED_CONTEXT ( ( #199, #246, #154 ) ) REPRESENTATION_CONTEXT ( 'NONE', 'WORKASPACE' ) );
#285 = LENGTH_MEASURE_WITH_UNIT ( LENGTH_MEASURE( 0.02539999999999999897 ), #334 );
#286 = EDGE_CURVE ( 'NONE', #171, #313, #39, .T. ) ;
#287 = ORIENTED_EDGE ( 'NONE', *, *, #235, .T. ) ;
#288 = CARTESIAN_POINT ( 'NONE',  ( -0.2500000000000000000, 0.0000000000000000000, 0.0000000000000000000 ) ) ;
#289 = FACE_OUTER_BOUND ( 'NONE', #374, .T. ) ;
#290 = ADVANCED_BREP_SHAPE_REPRESENTATION ( 'Micro_KC-500-750-030', ( #117, #266 ), #284 ) ;
#291 = ORIENTED_EDGE ( 'NONE', *, *, #149, .F. ) ;
#292 = CARTESIAN_POINT ( 'NONE',  ( 0.0000000000000000000, 0.0000000000000000000, 0.02999999999999998848 ) ) ;
#293 = ORIENTED_EDGE ( 'NONE', *, *, #48, .T. ) ;
#294 = EDGE_CURVE ( 'NONE', #208, #173, #132, .T. ) ;
#295 = AXIS2_PLACEMENT_3D ( 'NONE', #7, #318, #148 ) ;
#296 = CIRCLE ( 'NONE', #329, 0.2500000000000000000 ) ;
#297 = FACE_OUTER_BOUND ( 'NONE', #169, .T. ) ;
#298 = DIRECTION ( 'NONE',  ( -0.7071067811865490160, 8.659560562354951347E-17, 0.7071067811865460184 ) ) ;
#299 =( LENGTH_UNIT ( ) NAMED_UNIT ( * ) SI_UNIT ( $, .METRE. ) );
#300 = ORIENTED_EDGE ( 'NONE', *, *, #122, .T. ) ;
#301 = CARTESIAN_POINT ( 'NONE',  ( 0.0000000000000000000, 0.0000000000000000000, 0.7500000000000001110 ) ) ;
#302 = EDGE_CURVE ( 'NONE', #196, #330, #75, .T. ) ;
#303 = VERTEX_POINT ( 'NONE', #359 ) ;
#304 = DIRECTION ( 'NONE',  ( 0.0000000000000000000, 0.0000000000000000000, 1.000000000000000000 ) ) ;
#305 = DIRECTION ( 'NONE',  ( -0.0000000000000000000, -0.0000000000000000000, -1.000000000000000000 ) ) ;
#306 = ORIENTED_EDGE ( 'NONE', *, *, #34, .T. ) ;
#307 = CARTESIAN_POINT ( 'NONE',  ( 0.2499999999999999722, 0.0000000000000000000, 0.03000000000000000583 ) ) ;
#308 = ORIENTED_EDGE ( 'NONE', *, *, #258, .F. ) ;
#309 = DIRECTION ( 'NONE',  ( -1.000000000000000000, 0.0000000000000000000, 0.0000000000000000000 ) ) ;
#310 = CONICAL_SURFACE ( 'NONE', #150, 0.1250000000000000833, 0.7853981633974503884 ) ;
#311 = APPLICATION_CONTEXT ( 'automotive_design' ) ;
#312 = VECTOR ( 'NONE', #80, 39.37007874015748143 ) ;
#313 = VERTEX_POINT ( 'NONE', #130 ) ;
#314 =( NAMED_UNIT ( * ) PLANE_ANGLE_UNIT ( ) SI_UNIT ( $, .RADIAN. ) );
#315 = ORIENTED_EDGE ( 'NONE', *, *, #340, .F. ) ;
#316 =( NAMED_UNIT ( * ) SI_UNIT ( $, .STERADIAN. ) SOLID_ANGLE_UNIT ( ) );
#317 = ORIENTED_EDGE ( 'NONE', *, *, #149, .T. ) ;
#318 = DIRECTION ( 'NONE',  ( -0.0000000000000000000, -0.0000000000000000000, -1.000000000000000000 ) ) ;
#319 = DIRECTION ( 'NONE',  ( 0.0000000000000000000, 0.0000000000000000000, 1.000000000000000000 ) ) ;
#320 = CIRCLE ( 'NONE', #194, 0.1250000000000000000 ) ;
#321 = SURFACE_STYLE_FILL_AREA ( #128 ) ;
#322 = ORIENTED_EDGE ( 'NONE', *, *, #152, .T. ) ;
#323 = FACE_OUTER_BOUND ( 'NONE', #191, .T. ) ;
#324 = AXIS2_PLACEMENT_3D ( 'NONE', #136, #42, #336 ) ;
#325 = DIRECTION ( 'NONE',  ( -0.0000000000000000000, -0.0000000000000000000, -1.000000000000000000 ) ) ;
#326 = DIRECTION ( 'NONE',  ( -0.0000000000000000000, -0.0000000000000000000, -1.000000000000000000 ) ) ;
#327 = APPLICATION_CONTEXT ( 'automotive_design' ) ;
#328 = CARTESIAN_POINT ( 'NONE',  ( -0.2500000000000000000, 0.0000000000000000000, 3.000000000000000444 ) ) ;
#329 = AXIS2_PLACEMENT_3D ( 'NONE', #135, #252, #255 ) ;
#330 = VERTEX_POINT ( 'NONE', #159 ) ;
#331 = LENGTH_MEASURE_WITH_UNIT ( LENGTH_MEASURE( 0.02539999999999999897 ), #38 );
#332 = ORIENTED_EDGE ( 'NONE', *, *, #81, .T. ) ;
#333 = CARTESIAN_POINT ( 'NONE',  ( 0.0000000000000000000, 0.0000000000000000000, 3.000000000000000444 ) ) ;
#334 =( LENGTH_UNIT ( ) NAMED_UNIT ( * ) SI_UNIT ( $, .METRE. ) );
#335 = EDGE_LOOP ( 'NONE', ( #249, #204, #263, #175 ) ) ;
#336 = DIRECTION ( 'NONE',  ( 1.000000000000000000, 0.0000000000000000000, 0.0000000000000000000 ) ) ;
#337 = CONICAL_SURFACE ( 'NONE', #70, 0.2350000000000011524, 0.7853981633974380649 ) ;
#338 = EDGE_CURVE ( 'NONE', #198, #206, #111, .T. ) ;
#339 = AXIS2_PLACEMENT_3D ( 'NONE', #211, #213, #218 ) ;
#340 = EDGE_CURVE ( 'NONE', #313, #171, #237, .T. ) ;
#341 = DIRECTION ( 'NONE',  ( 1.000000000000000000, 0.0000000000000000000, -0.0000000000000000000 ) ) ;
#342 = DIRECTION ( 'NONE',  ( 0.0000000000000000000, 0.0000000000000000000, 1.000000000000000000 ) ) ;
#343 = CYLINDRICAL_SURFACE ( 'NONE', #279, 0.1250000000000000278 ) ;
#344 = ORIENTED_EDGE ( 'NONE', *, *, #152, .F. ) ;
#345 = CARTESIAN_POINT ( 'NONE',  ( 0.0000000000000000000, 0.0000000000000000000, 0.8749999999999994449 ) ) ;
#346 = VECTOR ( 'NONE', #116, 39.37007874015748143 ) ;
#347 = EDGE_CURVE ( 'NONE', #163, #173, #43, .T. ) ;
#348 = DIMENSIONAL_EXPONENTS ( 1.000000000000000000, 0.0000000000000000000, 0.0000000000000000000, 0.0000000000000000000, 0.0000000000000000000, 0.0000000000000000000, 0.0000000000000000000 ) ;
#349 = FACE_OUTER_BOUND ( 'NONE', #101, .T. ) ;
#350 = CIRCLE ( 'NONE', #137, 0.2499999999999999722 ) ;
#351 = APPLICATION_PROTOCOL_DEFINITION ( 'draft international standard', 'automotive_design', 1998, #327 ) ;
#352 = CARTESIAN_POINT ( 'NONE',  ( 0.0000000000000000000, 0.0000000000000000000, 0.7500000000000001110 ) ) ;
#353 = PRODUCT_CONTEXT ( 'NONE', #311, 'mechanical' ) ;
#354 = ORIENTED_EDGE ( 'NONE', *, *, #167, .F. ) ;
#355 = CARTESIAN_POINT ( 'NONE',  ( 0.0000000000000000000, 0.0000000000000000000, 3.000000000000000444 ) ) ;
#356 = DIRECTION ( 'NONE',  ( 0.0000000000000000000, 0.0000000000000000000, 1.000000000000000000 ) ) ;
#357 = ORIENTED_EDGE ( 'NONE', *, *, #302, .T. ) ;
#358 = SURFACE_SIDE_STYLE ('',( #321 ) ) ;
#359 = CARTESIAN_POINT ( 'NONE',  ( -0.2499999999999999722, 0.0000000000000000000, 0.02999999999999998848 ) ) ;
#360 = CIRCLE ( 'NONE', #202, 0.2499999999999999722 ) ;
#361 = CIRCLE ( 'NONE', #145, 0.2350000000000011524 ) ;
#362 = CARTESIAN_POINT ( 'NONE',  ( 0.0000000000000000000, 0.0000000000000000000, 3.000000000000000444 ) ) ;
#363 = ORIENTED_EDGE ( 'NONE', *, *, #186, .T. ) ;
#364 = DIRECTION ( 'NONE',  ( -1.000000000000000000, 0.0000000000000000000, 0.0000000000000000000 ) ) ;
#365 = DIRECTION ( 'NONE',  ( -0.7071067811865402453, 0.0000000000000000000, -0.7071067811865546782 ) ) ;
#366 = ORIENTED_EDGE ( 'NONE', *, *, #186, .F. ) ;
#367 = CARTESIAN_POINT ( 'NONE',  ( 0.2500000000000000000, 3.061616997868382402E-17, 0.0000000000000000000 ) ) ;
#368 = VECTOR ( 'NONE', #298, 39.37007874015748143 ) ;
#369 = ORIENTED_EDGE ( 'NONE', *, *, #347, .T. ) ;
#370 =( CONVERSION_BASED_UNIT ( 'INCH', #331 ) LENGTH_UNIT ( ) NAMED_UNIT ( #348 ) );
#371 = SURFACE_STYLE_USAGE ( .BOTH. , #82 ) ;
#372 = PLANE ( 'NONE',  #147 ) ;
#373 = PLANE ( 'NONE',  #96 ) ;
#374 = EDGE_LOOP ( 'NONE', ( #287, #66 ) ) ;
#375 = CARTESIAN_POINT ( 'NONE',  ( 0.2350000000000011524, 2.969768487932338510E-17, 3.000000000000000444 ) ) ;
#376 = PRESENTATION_LAYER_ASSIGNMENT (  '', '', ( #62 ) ) ;
#377 = ORIENTED_EDGE ( 'NONE', *, *, #338, .F. ) ;
#378 = AXIS2_PLACEMENT_3D ( 'NONE', #333, #259, #114 ) ;
#379 = VECTOR ( 'NONE', #52, 39.37007874015748143 ) ;
ENDSEC;
END-ISO-10303-21;
