ISO-10303-21;
HEADER;
FILE_DESCRIPTION (( 'STEP AP214' ),
    '1' );
FILE_NAME ('05502.STEP',
    '2023-06-22T16:10:29',
    ( '' ),
    ( '' ),
    'SwSTEP 2.0',
    'SolidWorks 2023',
    '' );
FILE_SCHEMA (( 'AUTOMOTIVE_DESIGN' ));
ENDSEC;

DATA;
#1 = DIRECTION ( 'NONE',  ( -5.156407575357275299E-17, 1.000000000000000000, -0.000000000000000000 ) ) ;
#2 = CIRCLE ( 'NONE', #93, 0.2500000000000001110 ) ;
#3 =( GEOMETRIC_REPRESENTATION_CONTEXT ( 3 ) GLOBAL_UNCERTAINTY_ASSIGNED_CONTEXT ( ( #237 ) ) GLOBAL_UNIT_ASSIGNED_CONTEXT ( ( #205, #209, #241 ) ) REPRESENTATION_CONTEXT ( 'NONE', 'WORKASPACE' ) );
#4 = PRODUCT_DEFINITION_CONTEXT ( 'detailed design', #267, 'design' ) ;
#5 = FILL_AREA_STYLE ('',( #215 ) ) ;
#6 = SURFACE_SIDE_STYLE ('',( #216 ) ) ;
#7 = ORIENTED_EDGE ( 'NONE', *, *, #155, .T. ) ;
#8 = CYLINDRICAL_SURFACE ( 'NONE', #287, 0.2500000000000000000 ) ;
#9 = ORIENTED_EDGE ( 'NONE', *, *, #294, .T. ) ;
#10 = CARTESIAN_POINT ( 'NONE',  ( 0.000000000000000000, 0.000000000000000000, 0.000000000000000000 ) ) ;
#11 = SURFACE_SIDE_STYLE ('',( #296 ) ) ;
#12 = DIMENSIONAL_EXPONENTS ( 1.000000000000000000, 0.000000000000000000, 0.000000000000000000, 0.000000000000000000, 0.000000000000000000, 0.000000000000000000, 0.000000000000000000 ) ;
#13 = PRODUCT_CONTEXT ( 'NONE', #84, 'mechanical' ) ;
#14 =( GEOMETRIC_REPRESENTATION_CONTEXT ( 3 ) GLOBAL_UNCERTAINTY_ASSIGNED_CONTEXT ( ( #114 ) ) GLOBAL_UNIT_ASSIGNED_CONTEXT ( ( #176, #128, #260 ) ) REPRESENTATION_CONTEXT ( 'NONE', 'WORKASPACE' ) );
#15 = VERTEX_POINT ( 'NONE', #255 ) ;
#16 = DIMENSIONAL_EXPONENTS ( 1.000000000000000000, 0.000000000000000000, 0.000000000000000000, 0.000000000000000000, 0.000000000000000000, 0.000000000000000000, 0.000000000000000000 ) ;
#17 =( GEOMETRIC_REPRESENTATION_CONTEXT ( 3 ) GLOBAL_UNCERTAINTY_ASSIGNED_CONTEXT ( ( #109 ) ) GLOBAL_UNIT_ASSIGNED_CONTEXT ( ( #68, #178, #108 ) ) REPRESENTATION_CONTEXT ( 'NONE', 'WORKASPACE' ) );
#18 = PRESENTATION_LAYER_ASSIGNMENT (  '', '', ( #262 ) ) ;
#19 = EDGE_CURVE ( 'NONE', #15, #220, #168, .T. ) ;
#20 = DIRECTION ( 'NONE',  ( 0.000000000000000000, 0.000000000000000000, -1.000000000000000000 ) ) ;
#21 = PRODUCT_DEFINITION_SHAPE ( 'NONE', 'NONE',  #195 ) ;
#22 = CARTESIAN_POINT ( 'NONE',  ( 0.2500000000000000000, 4.000000000000000000, 0.000000000000000000 ) ) ;
#23 =( LENGTH_UNIT ( ) NAMED_UNIT ( * ) SI_UNIT ( $, .METRE. ) );
#24 =( LENGTH_UNIT ( ) NAMED_UNIT ( * ) SI_UNIT ( $, .METRE. ) );
#25 = EDGE_LOOP ( 'NONE', ( #230, #292 ) ) ;
#26 = SURFACE_STYLE_FILL_AREA ( #110 ) ;
#27 =( GEOMETRIC_REPRESENTATION_CONTEXT ( 3 ) GLOBAL_UNCERTAINTY_ASSIGNED_CONTEXT ( ( #232 ) ) GLOBAL_UNIT_ASSIGNED_CONTEXT ( ( #217, #192, #129 ) ) REPRESENTATION_CONTEXT ( 'NONE', 'WORKASPACE' ) );
#28 = CIRCLE ( 'NONE', #140, 0.2500000000000001110 ) ;
#29 = CARTESIAN_POINT ( 'NONE',  ( -1.224646799147352714E-16, 4.000000000000000000, 0.000000000000000000 ) ) ;
#30 = EDGE_LOOP ( 'NONE', ( #83, #87 ) ) ;
#31 = CARTESIAN_POINT ( 'NONE',  ( -1.224646799147352714E-16, 4.000000000000000000, 0.000000000000000000 ) ) ;
#32 = ORIENTED_EDGE ( 'NONE', *, *, #283, .F. ) ;
#33 = DIRECTION ( 'NONE',  ( -5.156407575357275299E-17, 1.000000000000000000, -0.000000000000000000 ) ) ;
#34 = DIMENSIONAL_EXPONENTS ( 1.000000000000000000, 0.000000000000000000, 0.000000000000000000, 0.000000000000000000, 0.000000000000000000, 0.000000000000000000, 0.000000000000000000 ) ;
#35 = DIRECTION ( 'NONE',  ( -1.000000000000000000, 0.000000000000000000, 0.000000000000000000 ) ) ;
#36 = STYLED_ITEM ( 'NONE', ( #159 ), #243 ) ;
#37 = ORIENTED_EDGE ( 'NONE', *, *, #155, .F. ) ;
#38 = CARTESIAN_POINT ( 'NONE',  ( 0.000000000000000000, 0.000000000000000000, 0.000000000000000000 ) ) ;
#39 = ORIENTED_EDGE ( 'NONE', *, *, #240, .T. ) ;
#40 = FILL_AREA_STYLE ('',( #299 ) ) ;
#41 = PLANE ( 'NONE',  #132 ) ;
#42 = MANIFOLD_SOLID_BREP ( 'Revolve - Cutting Edge', #306 ) ;
#43 = STYLED_ITEM ( 'NONE', ( #89 ), #152 ) ;
#44 = AXIS2_PLACEMENT_3D ( 'NONE', #72, #107, #224 ) ;
#45 = LENGTH_MEASURE_WITH_UNIT ( LENGTH_MEASURE( 0.02539999999999999897 ), #300 );
#46 = EDGE_CURVE ( 'NONE', #171, #271, #280, .T. ) ;
#47 = CARTESIAN_POINT ( 'NONE',  ( 0.000000000000000000, 0.000000000000000000, 0.000000000000000000 ) ) ;
#48 = APPLICATION_PROTOCOL_DEFINITION ( 'draft international standard', 'automotive_design', 1998, #267 ) ;
#49 = UNCERTAINTY_MEASURE_WITH_UNIT (LENGTH_MEASURE( 1.000000000000000082E-05 ), #170, 'distance_accuracy_value', 'NONE');
#50 = CARTESIAN_POINT ( 'NONE',  ( 0.000000000000000000, 0.000000000000000000, -0.2500000000000000000 ) ) ;
#51 = CYLINDRICAL_SURFACE ( 'NONE', #265, 0.2500000000000000000 ) ;
#52 = EDGE_LOOP ( 'NONE', ( #9, #60, #37, #169 ) ) ;
#53 = FACE_OUTER_BOUND ( 'NONE', #112, .T. ) ;
#54 = DIRECTION ( 'NONE',  ( -5.156407575357275299E-17, 1.000000000000000000, -0.000000000000000000 ) ) ;
#55 =( GEOMETRIC_REPRESENTATION_CONTEXT ( 3 ) GLOBAL_UNCERTAINTY_ASSIGNED_CONTEXT ( ( #49 ) ) GLOBAL_UNIT_ASSIGNED_CONTEXT ( ( #170, #293, #193 ) ) REPRESENTATION_CONTEXT ( 'NONE', 'WORKASPACE' ) );
#56 = AXIS2_PLACEMENT_3D ( 'NONE', #29, #144, #35 ) ;
#57 = ORIENTED_EDGE ( 'NONE', *, *, #137, .T. ) ;
#58 = DIRECTION ( 'NONE',  ( 0.000000000000000000, 0.000000000000000000, -1.000000000000000000 ) ) ;
#59 = EDGE_CURVE ( 'NONE', #15, #157, #125, .T. ) ;
#60 = ORIENTED_EDGE ( 'NONE', *, *, #19, .T. ) ;
#61 = DIRECTION ( 'NONE',  ( -5.156407575357275916E-17, 1.000000000000000000, -0.000000000000000000 ) ) ;
#62 = VECTOR ( 'NONE', #295, 39.37007874015748143 ) ;
#63 = ADVANCED_FACE ( 'NONE', ( #266 ), #242, .T. ) ;
#64 = SURFACE_STYLE_USAGE ( .BOTH. , #253 ) ;
#65 = DIRECTION ( 'NONE',  ( -0.000000000000000000, -1.000000000000000000, -0.000000000000000000 ) ) ;
#66 = EDGE_LOOP ( 'NONE', ( #227, #198 ) ) ;
#67 = CARTESIAN_POINT ( 'NONE',  ( 0.2499999999999999167, 4.000000000000000000, 3.061616997868383634E-17 ) ) ;
#68 =( CONVERSION_BASED_UNIT ( 'INCH', #45 ) LENGTH_UNIT ( ) NAMED_UNIT ( #34 ) );
#69 = CARTESIAN_POINT ( 'NONE',  ( 0.000000000000000000, 0.000000000000000000, -0.2500000000000000000 ) ) ;
#70 = APPLICATION_PROTOCOL_DEFINITION ( 'draft international standard', 'automotive_design', 1998, #84 ) ;
#71 = ADVANCED_FACE ( 'NONE', ( #79 ), #238, .F. ) ;
#72 = CARTESIAN_POINT ( 'NONE',  ( 0.000000000000000000, 1.625000000000000000, 0.000000000000000000 ) ) ;
#73 = CARTESIAN_POINT ( 'NONE',  ( 3.032960542342103792E-32, 1.625000000000000000, 0.000000000000000000 ) ) ;
#74 = MECHANICAL_DESIGN_GEOMETRIC_PRESENTATION_REPRESENTATION (  '', ( #235 ), #17 ) ;
#75 = VECTOR ( 'NONE', #175, 39.37007874015748143 ) ;
#76 = SURFACE_STYLE_FILL_AREA ( #208 ) ;
#77 = COLOUR_RGB ( '',1.000000000000000000, 0.000000000000000000, 0.000000000000000000 ) ;
#78 = PRESENTATION_LAYER_ASSIGNMENT (  '', '', ( #36 ) ) ;
#79 = FACE_OUTER_BOUND ( 'NONE', #25, .T. ) ;
#80 = VECTOR ( 'NONE', #61, 39.37007874015748143 ) ;
#81 = DIRECTION ( 'NONE',  ( 0.000000000000000000, 0.000000000000000000, -1.000000000000000000 ) ) ;
#82 = DIRECTION ( 'NONE',  ( -1.000000000000000000, 0.000000000000000000, 0.000000000000000000 ) ) ;
#83 = ORIENTED_EDGE ( 'NONE', *, *, #120, .T. ) ;
#84 = APPLICATION_CONTEXT ( 'automotive_design' ) ;
#85 =( NAMED_UNIT ( * ) PLANE_ANGLE_UNIT ( ) SI_UNIT ( $, .RADIAN. ) );
#86 = FILL_AREA_STYLE ('',( #187 ) ) ;
#87 = ORIENTED_EDGE ( 'NONE', *, *, #283, .T. ) ;
#88 = CARTESIAN_POINT ( 'NONE',  ( -0.2500000000000002776, 4.000000000000000000, 0.000000000000000000 ) ) ;
#89 = PRESENTATION_STYLE_ASSIGNMENT (( #64 ) ) ;
#90 = LINE ( 'NONE', #50, #206 ) ;
#91 = PRODUCT_RELATED_PRODUCT_CATEGORY ( 'part', '', ( #105 ) ) ;
#92 = DIRECTION ( 'NONE',  ( 0.000000000000000000, -1.000000000000000000, -0.000000000000000000 ) ) ;
#93 = AXIS2_PLACEMENT_3D ( 'NONE', #31, #33, #174 ) ;
#94 = FILL_AREA_STYLE_COLOUR ( '', #236 ) ;
#95 = COLOUR_RGB ( '',0.7921568627450980005, 0.8196078431372548767, 0.9333333333333333481 ) ;
#96 = PRODUCT_DEFINITION_FORMATION_WITH_SPECIFIED_SOURCE ( 'ANY', '', #105, .NOT_KNOWN. ) ;
#97 = CARTESIAN_POINT ( 'NONE',  ( 3.061616997868383018E-17, 0.000000000000000000, 0.2500000000000000000 ) ) ;
#98 = DIRECTION ( 'NONE',  ( -1.000000000000000000, -5.156407575357275916E-17, 0.000000000000000000 ) ) ;
#99 =( LENGTH_UNIT ( ) NAMED_UNIT ( * ) SI_UNIT ( $, .METRE. ) );
#100 = EDGE_LOOP ( 'NONE', ( #290, #201, #191, #32 ) ) ;
#101 = PRESENTATION_STYLE_ASSIGNMENT (( #291 ) ) ;
#102 = AXIS2_PLACEMENT_3D ( 'NONE', #246, #1, #163 ) ;
#103 = SHAPE_DEFINITION_REPRESENTATION ( #21, #244 ) ;
#104 = CARTESIAN_POINT ( 'NONE',  ( 0.000000000000000000, 0.000000000000000000, 0.000000000000000000 ) ) ;
#105 = PRODUCT ( '05502', '05502', '', ( #13 ) ) ;
#106 = CIRCLE ( 'NONE', #147, 0.2500000000000000000 ) ;
#107 = DIRECTION ( 'NONE',  ( 0.000000000000000000, 1.000000000000000000, 0.000000000000000000 ) ) ;
#108 =( NAMED_UNIT ( * ) SI_UNIT ( $, .STERADIAN. ) SOLID_ANGLE_UNIT ( ) );
#109 = UNCERTAINTY_MEASURE_WITH_UNIT (LENGTH_MEASURE( 1.000000000000000082E-05 ), #68, 'distance_accuracy_value', 'NONE');
#110 = FILL_AREA_STYLE ('',( #94 ) ) ;
#111 = PRESENTATION_LAYER_ASSIGNMENT (  '', '', ( #172 ) ) ;
#112 = EDGE_LOOP ( 'NONE', ( #252, #303, #196, #274 ) ) ;
#113 = FACE_OUTER_BOUND ( 'NONE', #66, .T. ) ;
#114 = UNCERTAINTY_MEASURE_WITH_UNIT (LENGTH_MEASURE( 1.000000000000000082E-05 ), #176, 'distance_accuracy_value', 'NONE');
#115 = SURFACE_STYLE_USAGE ( .BOTH. , #149 ) ;
#116 = DIRECTION ( 'NONE',  ( 0.000000000000000000, 0.000000000000000000, -1.000000000000000000 ) ) ;
#117 = CIRCLE ( 'NONE', #211, 0.2500000000000000000 ) ;
#118 = CARTESIAN_POINT ( 'NONE',  ( 0.000000000000000000, 1.625000000000000000, 0.000000000000000000 ) ) ;
#119 = CARTESIAN_POINT ( 'NONE',  ( 0.000000000000000000, 1.625000000000000000, -0.2500000000000000000 ) ) ;
#120 = EDGE_CURVE ( 'NONE', #131, #145, #2, .T. ) ;
#121 = LENGTH_MEASURE_WITH_UNIT ( LENGTH_MEASURE( 0.02539999999999999897 ), #99 );
#122 = CARTESIAN_POINT ( 'NONE',  ( 0.000000000000000000, 0.000000000000000000, 0.000000000000000000 ) ) ;
#123 =( LENGTH_UNIT ( ) NAMED_UNIT ( * ) SI_UNIT ( $, .METRE. ) );
#124 = MECHANICAL_DESIGN_GEOMETRIC_PRESENTATION_REPRESENTATION (  '', ( #172 ), #27 ) ;
#125 = CIRCLE ( 'NONE', #189, 0.2500000000000000000 ) ;
#126 = DIRECTION ( 'NONE',  ( -5.156407575357275299E-17, 1.000000000000000000, -0.000000000000000000 ) ) ;
#127 = DIRECTION ( 'NONE',  ( -1.000000000000000000, 0.000000000000000000, 0.000000000000000000 ) ) ;
#128 =( NAMED_UNIT ( * ) PLANE_ANGLE_UNIT ( ) SI_UNIT ( $, .RADIAN. ) );
#129 =( NAMED_UNIT ( * ) SI_UNIT ( $, .STERADIAN. ) SOLID_ANGLE_UNIT ( ) );
#130 = LENGTH_MEASURE_WITH_UNIT ( LENGTH_MEASURE( 0.02539999999999999897 ), #24 );
#131 = VERTEX_POINT ( 'NONE', #88 ) ;
#132 = AXIS2_PLACEMENT_3D ( 'NONE', #47, #92, #20 ) ;
#133 = DIRECTION ( 'NONE',  ( -0.000000000000000000, -1.000000000000000000, -0.000000000000000000 ) ) ;
#134 = FILL_AREA_STYLE_COLOUR ( '', #183 ) ;
#135 = DIRECTION ( 'NONE',  ( 5.156407575357275916E-17, -1.000000000000000000, 0.000000000000000000 ) ) ;
#136 = DIRECTION ( 'NONE',  ( 0.000000000000000000, 0.000000000000000000, -1.000000000000000000 ) ) ;
#137 = EDGE_CURVE ( 'NONE', #171, #145, #146, .T. ) ;
#138 = DIRECTION ( 'NONE',  ( 1.000000000000000000, 5.156407575357275916E-17, 0.000000000000000000 ) ) ;
#139 = CARTESIAN_POINT ( 'NONE',  ( 3.323567385400236968E-34, 1.625000000000000000, 0.000000000000000000 ) ) ;
#140 = AXIS2_PLACEMENT_3D ( 'NONE', #186, #288, #82 ) ;
#141 = ORIENTED_EDGE ( 'NONE', *, *, #120, .F. ) ;
#142 =( CONVERSION_BASED_UNIT ( 'INCH', #121 ) LENGTH_UNIT ( ) NAMED_UNIT ( #257 ) );
#143 = CARTESIAN_POINT ( 'NONE',  ( 0.000000000000000000, 0.000000000000000000, 0.000000000000000000 ) ) ;
#144 = DIRECTION ( 'NONE',  ( -5.156407575357275299E-17, 1.000000000000000000, -0.000000000000000000 ) ) ;
#145 = VERTEX_POINT ( 'NONE', #256 ) ;
#146 = LINE ( 'NONE', #67, #80 ) ;
#147 = AXIS2_PLACEMENT_3D ( 'NONE', #38, #150, #116 ) ;
#148 = STYLED_ITEM ( 'NONE', ( #245 ), #304 ) ;
#149 = SURFACE_SIDE_STYLE ('',( #249 ) ) ;
#150 = DIRECTION ( 'NONE',  ( -0.000000000000000000, -1.000000000000000000, -0.000000000000000000 ) ) ;
#151 = FILL_AREA_STYLE ('',( #275 ) ) ;
#152 = ADVANCED_FACE ( 'NONE', ( #197 ), #8, .T. ) ;
#153 = MECHANICAL_DESIGN_GEOMETRIC_PRESENTATION_REPRESENTATION (  '', ( #262 ), #251 ) ;
#154 =( LENGTH_UNIT ( ) NAMED_UNIT ( * ) SI_UNIT ( $, .METRE. ) );
#155 = EDGE_CURVE ( 'NONE', #190, #220, #106, .T. ) ;
#156 = CARTESIAN_POINT ( 'NONE',  ( -0.2500000000000002220, 4.000000000000000000, 0.000000000000000000 ) ) ;
#157 = VERTEX_POINT ( 'NONE', #119 ) ;
#158 = MECHANICAL_DESIGN_GEOMETRIC_PRESENTATION_REPRESENTATION (  '', ( #43 ), #55 ) ;
#159 = PRESENTATION_STYLE_ASSIGNMENT (( #282 ) ) ;
#160 = UNCERTAINTY_MEASURE_WITH_UNIT (LENGTH_MEASURE( 1.000000000000000082E-05 ), #142, 'distance_accuracy_value', 'NONE');
#161 = FACE_OUTER_BOUND ( 'NONE', #30, .T. ) ;
#162 = DIRECTION ( 'NONE',  ( 0.000000000000000000, 0.000000000000000000, -1.000000000000000000 ) ) ;
#163 = DIRECTION ( 'NONE',  ( -1.000000000000000000, 0.000000000000000000, 0.000000000000000000 ) ) ;
#164 =( GEOMETRIC_REPRESENTATION_CONTEXT ( 3 ) GLOBAL_UNCERTAINTY_ASSIGNED_CONTEXT ( ( #160 ) ) GLOBAL_UNIT_ASSIGNED_CONTEXT ( ( #142, #85, #254 ) ) REPRESENTATION_CONTEXT ( 'NONE', 'WORKASPACE' ) );
#165 = AXIS2_PLACEMENT_3D ( 'NONE', #104, #202, #200 ) ;
#166 = PLANE ( 'NONE',  #44 ) ;
#167 = EDGE_CURVE ( 'NONE', #220, #190, #182, .T. ) ;
#168 = LINE ( 'NONE', #97, #62 ) ;
#169 = ORIENTED_EDGE ( 'NONE', *, *, #261, .F. ) ;
#170 =( CONVERSION_BASED_UNIT ( 'INCH', #250 ) LENGTH_UNIT ( ) NAMED_UNIT ( #16 ) );
#171 = VERTEX_POINT ( 'NONE', #272 ) ;
#172 = STYLED_ITEM ( 'NONE', ( #101 ), #177 ) ;
#173 = PRESENTATION_LAYER_ASSIGNMENT (  '', '', ( #148 ) ) ;
#174 = DIRECTION ( 'NONE',  ( -1.000000000000000000, 0.000000000000000000, 0.000000000000000000 ) ) ;
#175 = DIRECTION ( 'NONE',  ( -5.156407575357275916E-17, 1.000000000000000000, -0.000000000000000000 ) ) ;
#176 =( CONVERSION_BASED_UNIT ( 'INCH', #277 ) LENGTH_UNIT ( ) NAMED_UNIT ( #12 ) );
#177 = ADVANCED_FACE ( 'NONE', ( #219 ), #41, .T. ) ;
#178 =( NAMED_UNIT ( * ) PLANE_ANGLE_UNIT ( ) SI_UNIT ( $, .RADIAN. ) );
#179 = PRESENTATION_LAYER_ASSIGNMENT (  '', '', ( #43 ) ) ;
#180 = FACE_OUTER_BOUND ( 'NONE', #247, .T. ) ;
#181 = LENGTH_MEASURE_WITH_UNIT ( LENGTH_MEASURE( 0.02539999999999999897 ), #23 );
#182 = CIRCLE ( 'NONE', #307, 0.2500000000000000000 ) ;
#183 = COLOUR_RGB ( '',0.7921568627450980005, 0.8196078431372548767, 0.9333333333333333481 ) ;
#184 = PLANE ( 'NONE',  #276 ) ;
#185 = EDGE_CURVE ( 'NONE', #271, #131, #279, .T. ) ;
#186 = CARTESIAN_POINT ( 'NONE',  ( -1.224646799147352714E-16, 4.000000000000000000, 0.000000000000000000 ) ) ;
#187 = FILL_AREA_STYLE_COLOUR ( '', #95 ) ;
#188 = SURFACE_STYLE_USAGE ( .BOTH. , #6 ) ;
#189 = AXIS2_PLACEMENT_3D ( 'NONE', #264, #133, #136 ) ;
#190 = VERTEX_POINT ( 'NONE', #69 ) ;
#191 = ORIENTED_EDGE ( 'NONE', *, *, #185, .T. ) ;
#192 =( NAMED_UNIT ( * ) PLANE_ANGLE_UNIT ( ) SI_UNIT ( $, .RADIAN. ) );
#193 =( NAMED_UNIT ( * ) SI_UNIT ( $, .STERADIAN. ) SOLID_ANGLE_UNIT ( ) );
#194 = DIRECTION ( 'NONE',  ( -0.000000000000000000, -1.000000000000000000, -0.000000000000000000 ) ) ;
#195 = PRODUCT_DEFINITION ( 'UNKNOWN', '', #96, #4 ) ;
#196 = ORIENTED_EDGE ( 'NONE', *, *, #261, .T. ) ;
#197 = FACE_OUTER_BOUND ( 'NONE', #52, .T. ) ;
#198 = ORIENTED_EDGE ( 'NONE', *, *, #59, .F. ) ;
#199 = LENGTH_MEASURE_WITH_UNIT ( LENGTH_MEASURE( 0.02539999999999999897 ), #123 );
#200 = DIRECTION ( 'NONE',  ( 1.000000000000000000, 0.000000000000000000, 0.000000000000000000 ) ) ;
#201 = ORIENTED_EDGE ( 'NONE', *, *, #46, .T. ) ;
#202 = DIRECTION ( 'NONE',  ( 0.000000000000000000, 0.000000000000000000, 1.000000000000000000 ) ) ;
#203 = DIRECTION ( 'NONE',  ( 0.000000000000000000, 0.000000000000000000, -1.000000000000000000 ) ) ;
#204 = CIRCLE ( 'NONE', #298, 0.2500000000000000000 ) ;
#205 =( CONVERSION_BASED_UNIT ( 'INCH', #130 ) LENGTH_UNIT ( ) NAMED_UNIT ( #258 ) );
#206 = VECTOR ( 'NONE', #233, 39.37007874015748143 ) ;
#207 = DIRECTION ( 'NONE',  ( -5.156407575357275916E-17, 1.000000000000000000, 0.000000000000000000 ) ) ;
#208 = FILL_AREA_STYLE ('',( #134 ) ) ;
#209 =( NAMED_UNIT ( * ) PLANE_ANGLE_UNIT ( ) SI_UNIT ( $, .RADIAN. ) );
#210 = AXIS2_PLACEMENT_3D ( 'NONE', #139, #207, #98 ) ;
#211 = AXIS2_PLACEMENT_3D ( 'NONE', #118, #194, #162 ) ;
#212 = SURFACE_STYLE_USAGE ( .BOTH. , #239 ) ;
#213 = CARTESIAN_POINT ( 'NONE',  ( -1.224646799147352714E-16, 4.000000000000000000, 0.000000000000000000 ) ) ;
#214 = ORIENTED_EDGE ( 'NONE', *, *, #185, .F. ) ;
#215 = FILL_AREA_STYLE_COLOUR ( '', #285 ) ;
#216 = SURFACE_STYLE_FILL_AREA ( #86 ) ;
#217 =( CONVERSION_BASED_UNIT ( 'INCH', #199 ) LENGTH_UNIT ( ) NAMED_UNIT ( #273 ) );
#218 = ORIENTED_EDGE ( 'NONE', *, *, #167, .T. ) ;
#219 = FACE_OUTER_BOUND ( 'NONE', #269, .T. ) ;
#220 = VERTEX_POINT ( 'NONE', #309 ) ;
#221 =( LENGTH_UNIT ( ) NAMED_UNIT ( * ) SI_UNIT ( $, .METRE. ) );
#222 = DIRECTION ( 'NONE',  ( -0.000000000000000000, -1.000000000000000000, -0.000000000000000000 ) ) ;
#223 = DIMENSIONAL_EXPONENTS ( 1.000000000000000000, 0.000000000000000000, 0.000000000000000000, 0.000000000000000000, 0.000000000000000000, 0.000000000000000000, 0.000000000000000000 ) ;
#224 = DIRECTION ( 'NONE',  ( 0.000000000000000000, -0.000000000000000000, 1.000000000000000000 ) ) ;
#225 = PRESENTATION_LAYER_ASSIGNMENT (  '', '', ( #235 ) ) ;
#226 = MECHANICAL_DESIGN_GEOMETRIC_PRESENTATION_REPRESENTATION (  '', ( #36 ), #3 ) ;
#227 = ORIENTED_EDGE ( 'NONE', *, *, #294, .F. ) ;
#228 = ADVANCED_FACE ( 'NONE', ( #161 ), #184, .F. ) ;
#229 = COLOUR_RGB ( '',1.000000000000000000, 0.000000000000000000, 0.000000000000000000 ) ;
#230 = ORIENTED_EDGE ( 'NONE', *, *, #240, .F. ) ;
#231 = ADVANCED_FACE ( 'NONE', ( #53 ), #51, .T. ) ;
#232 = UNCERTAINTY_MEASURE_WITH_UNIT (LENGTH_MEASURE( 1.000000000000000082E-05 ), #217, 'distance_accuracy_value', 'NONE');
#233 = DIRECTION ( 'NONE',  ( -0.000000000000000000, -1.000000000000000000, -0.000000000000000000 ) ) ;
#234 = PRESENTATION_STYLE_ASSIGNMENT (( #212 ) ) ;
#235 = STYLED_ITEM ( 'NONE', ( #289 ), #42 ) ;
#236 = COLOUR_RGB ( '',1.000000000000000000, 0.000000000000000000, 0.000000000000000000 ) ;
#237 = UNCERTAINTY_MEASURE_WITH_UNIT (LENGTH_MEASURE( 1.000000000000000082E-05 ), #205, 'distance_accuracy_value', 'NONE');
#238 = PLANE ( 'NONE',  #210 ) ;
#239 = SURFACE_SIDE_STYLE ('',( #26 ) ) ;
#240 = EDGE_CURVE ( 'NONE', #271, #171, #204, .T. ) ;
#241 =( NAMED_UNIT ( * ) SI_UNIT ( $, .STERADIAN. ) SOLID_ANGLE_UNIT ( ) );
#242 = CYLINDRICAL_SURFACE ( 'NONE', #297, 0.2500000000000000555 ) ;
#243 = MANIFOLD_SOLID_BREP ( 'Revolve - Tool Body (Straight Shanked)', #259 ) ;
#244 = ADVANCED_BREP_SHAPE_REPRESENTATION ( '05502', ( #42, #243, #165 ), #14 ) ;
#245 = PRESENTATION_STYLE_ASSIGNMENT (( #115 ) ) ;
#246 = CARTESIAN_POINT ( 'NONE',  ( 3.032960542342103792E-32, 1.625000000000000000, 0.000000000000000000 ) ) ;
#247 = EDGE_LOOP ( 'NONE', ( #39, #57, #141, #214 ) ) ;
#248 = SURFACE_STYLE_FILL_AREA ( #151 ) ;
#249 = SURFACE_STYLE_FILL_AREA ( #5 ) ;
#250 = LENGTH_MEASURE_WITH_UNIT ( LENGTH_MEASURE( 0.02539999999999999897 ), #221 );
#251 =( GEOMETRIC_REPRESENTATION_CONTEXT ( 3 ) GLOBAL_UNCERTAINTY_ASSIGNED_CONTEXT ( ( #302 ) ) GLOBAL_UNIT_ASSIGNED_CONTEXT ( ( #284, #263, #286 ) ) REPRESENTATION_CONTEXT ( 'NONE', 'WORKASPACE' ) );
#252 = ORIENTED_EDGE ( 'NONE', *, *, #19, .F. ) ;
#253 = SURFACE_SIDE_STYLE ('',( #248 ) ) ;
#254 =( NAMED_UNIT ( * ) SI_UNIT ( $, .STERADIAN. ) SOLID_ANGLE_UNIT ( ) );
#255 = CARTESIAN_POINT ( 'NONE',  ( 3.061616997868383018E-17, 1.625000000000000000, 0.2500000000000000000 ) ) ;
#256 = CARTESIAN_POINT ( 'NONE',  ( 0.2500000000000000555, 4.000000000000000000, 3.061616997868384251E-17 ) ) ;
#257 = DIMENSIONAL_EXPONENTS ( 1.000000000000000000, 0.000000000000000000, 0.000000000000000000, 0.000000000000000000, 0.000000000000000000, 0.000000000000000000, 0.000000000000000000 ) ;
#258 = DIMENSIONAL_EXPONENTS ( 1.000000000000000000, 0.000000000000000000, 0.000000000000000000, 0.000000000000000000, 0.000000000000000000, 0.000000000000000000, 0.000000000000000000 ) ;
#259 = CLOSED_SHELL ( 'NONE', ( #278, #71, #63, #228 ) ) ;
#260 =( NAMED_UNIT ( * ) SI_UNIT ( $, .STERADIAN. ) SOLID_ANGLE_UNIT ( ) );
#261 = EDGE_CURVE ( 'NONE', #157, #190, #90, .T. ) ;
#262 = STYLED_ITEM ( 'NONE', ( #234 ), #231 ) ;
#263 =( NAMED_UNIT ( * ) PLANE_ANGLE_UNIT ( ) SI_UNIT ( $, .RADIAN. ) );
#264 = CARTESIAN_POINT ( 'NONE',  ( 0.000000000000000000, 1.625000000000000000, 0.000000000000000000 ) ) ;
#265 = AXIS2_PLACEMENT_3D ( 'NONE', #10, #65, #203 ) ;
#266 = FACE_OUTER_BOUND ( 'NONE', #100, .T. ) ;
#267 = APPLICATION_CONTEXT ( 'automotive_design' ) ;
#268 = DIRECTION ( 'NONE',  ( -1.000000000000000000, 0.000000000000000000, 0.000000000000000000 ) ) ;
#269 = EDGE_LOOP ( 'NONE', ( #7, #218 ) ) ;
#270 = DIRECTION ( 'NONE',  ( -0.000000000000000000, -1.000000000000000000, -0.000000000000000000 ) ) ;
#271 = VERTEX_POINT ( 'NONE', #305 ) ;
#272 = CARTESIAN_POINT ( 'NONE',  ( 0.2500000000000000555, 1.625000000000000000, 3.061616997868384251E-17 ) ) ;
#273 = DIMENSIONAL_EXPONENTS ( 1.000000000000000000, 0.000000000000000000, 0.000000000000000000, 0.000000000000000000, 0.000000000000000000, 0.000000000000000000, 0.000000000000000000 ) ;
#274 = ORIENTED_EDGE ( 'NONE', *, *, #167, .F. ) ;
#275 = FILL_AREA_STYLE_COLOUR ( '', #77 ) ;
#276 = AXIS2_PLACEMENT_3D ( 'NONE', #22, #135, #138 ) ;
#277 = LENGTH_MEASURE_WITH_UNIT ( LENGTH_MEASURE( 0.02539999999999999897 ), #154 );
#278 = ADVANCED_FACE ( 'NONE', ( #180 ), #281, .T. ) ;
#279 = LINE ( 'NONE', #156, #75 ) ;
#280 = CIRCLE ( 'NONE', #102, 0.2500000000000000000 ) ;
#281 = CYLINDRICAL_SURFACE ( 'NONE', #56, 0.2500000000000000555 ) ;
#282 = SURFACE_STYLE_USAGE ( .BOTH. , #308 ) ;
#283 = EDGE_CURVE ( 'NONE', #145, #131, #28, .T. ) ;
#284 =( CONVERSION_BASED_UNIT ( 'INCH', #181 ) LENGTH_UNIT ( ) NAMED_UNIT ( #223 ) );
#285 = COLOUR_RGB ( '',1.000000000000000000, 0.000000000000000000, 0.000000000000000000 ) ;
#286 =( NAMED_UNIT ( * ) SI_UNIT ( $, .STERADIAN. ) SOLID_ANGLE_UNIT ( ) );
#287 = AXIS2_PLACEMENT_3D ( 'NONE', #143, #270, #58 ) ;
#288 = DIRECTION ( 'NONE',  ( -5.156407575357275299E-17, 1.000000000000000000, -0.000000000000000000 ) ) ;
#289 = PRESENTATION_STYLE_ASSIGNMENT (( #188 ) ) ;
#290 = ORIENTED_EDGE ( 'NONE', *, *, #137, .F. ) ;
#291 = SURFACE_STYLE_USAGE ( .BOTH. , #11 ) ;
#292 = ORIENTED_EDGE ( 'NONE', *, *, #46, .F. ) ;
#293 =( NAMED_UNIT ( * ) PLANE_ANGLE_UNIT ( ) SI_UNIT ( $, .RADIAN. ) );
#294 = EDGE_CURVE ( 'NONE', #157, #15, #117, .T. ) ;
#295 = DIRECTION ( 'NONE',  ( -0.000000000000000000, -1.000000000000000000, -0.000000000000000000 ) ) ;
#296 = SURFACE_STYLE_FILL_AREA ( #40 ) ;
#297 = AXIS2_PLACEMENT_3D ( 'NONE', #213, #54, #268 ) ;
#298 = AXIS2_PLACEMENT_3D ( 'NONE', #73, #126, #127 ) ;
#299 = FILL_AREA_STYLE_COLOUR ( '', #229 ) ;
#300 =( LENGTH_UNIT ( ) NAMED_UNIT ( * ) SI_UNIT ( $, .METRE. ) );
#301 = MECHANICAL_DESIGN_GEOMETRIC_PRESENTATION_REPRESENTATION (  '', ( #148 ), #164 ) ;
#302 = UNCERTAINTY_MEASURE_WITH_UNIT (LENGTH_MEASURE( 1.000000000000000082E-05 ), #284, 'distance_accuracy_value', 'NONE');
#303 = ORIENTED_EDGE ( 'NONE', *, *, #59, .T. ) ;
#304 = ADVANCED_FACE ( 'NONE', ( #113 ), #166, .T. ) ;
#305 = CARTESIAN_POINT ( 'NONE',  ( -0.2500000000000000000, 1.625000000000000000, 0.000000000000000000 ) ) ;
#306 = CLOSED_SHELL ( 'NONE', ( #152, #304, #231, #177 ) ) ;
#307 = AXIS2_PLACEMENT_3D ( 'NONE', #122, #222, #81 ) ;
#308 = SURFACE_SIDE_STYLE ('',( #76 ) ) ;
#309 = CARTESIAN_POINT ( 'NONE',  ( 3.061616997868383018E-17, 0.000000000000000000, 0.2500000000000000000 ) ) ;
ENDSEC;
END-ISO-10303-21;
