ISO-10303-21;
HEADER;
FILE_DESCRIPTION (( 'STEP AP214' ),
    '1' );
FILE_NAME ('Micro_SME-017-2X.STEP',
    '2021-09-02T10:34:11',
    ( '' ),
    ( '' ),
    'SwSTEP 2.0',
    'SolidWorks 2020',
    '' );
FILE_SCHEMA (( 'AUTOMOTIVE_DESIGN' ));
ENDSEC;

DATA;
#1 = CARTESIAN_POINT ( 'NONE',  ( -0.04750000000000064587, 0.0000000000000000000, 1.500000000000000222 ) ) ;
#2 = SURFACE_STYLE_FILL_AREA ( #250 ) ;
#3 = FACE_OUTER_BOUND ( 'NONE', #116, .T. ) ;
#4 = VERTEX_POINT ( 'NONE', #1 ) ;
#5 = MECHANICAL_DESIGN_GEOMETRIC_PRESENTATION_REPRESENTATION (  '', ( #148 ), #12 ) ;
#6 = DIRECTION ( 'NONE',  ( 1.224646799147353700E-16, 0.0000000000000000000, 1.000000000000000000 ) ) ;
#7 = FACE_OUTER_BOUND ( 'NONE', #115, .T. ) ;
#8 = FACE_OUTER_BOUND ( 'NONE', #134, .T. ) ;
#9 = DIRECTION ( 'NONE',  ( 1.000000000000000000, 0.0000000000000000000, 0.0000000000000000000 ) ) ;
#10 = EDGE_CURVE ( 'NONE', #54, #23, #251, .T. ) ;
#11 = LINE ( 'NONE', #58, #230 ) ;
#12 =( GEOMETRIC_REPRESENTATION_CONTEXT ( 3 ) GLOBAL_UNCERTAINTY_ASSIGNED_CONTEXT ( ( #261 ) ) GLOBAL_UNIT_ASSIGNED_CONTEXT ( ( #280, #232, #21 ) ) REPRESENTATION_CONTEXT ( 'NONE', 'WORKASPACE' ) );
#13 = PLANE ( 'NONE',  #299 ) ;
#14 = VECTOR ( 'NONE', #279, 39.37007874015748854 ) ;
#15 = LENGTH_MEASURE_WITH_UNIT ( LENGTH_MEASURE( 0.02539999999999999897 ), #176 );
#16 = ORIENTED_EDGE ( 'NONE', *, *, #255, .F. ) ;
#17 = EDGE_CURVE ( 'NONE', #268, #138, #163, .T. ) ;
#18 = SURFACE_STYLE_USAGE ( .BOTH. , #83 ) ;
#19 = AXIS2_PLACEMENT_3D ( 'NONE', #80, #238, #169 ) ;
#20 = DIRECTION ( 'NONE',  ( 1.000000000000000000, 0.0000000000000000000, 0.0000000000000000000 ) ) ;
#21 =( NAMED_UNIT ( * ) SI_UNIT ( $, .STERADIAN. ) SOLID_ANGLE_UNIT ( ) );
#22 = DIRECTION ( 'NONE',  ( -1.000000000000000000, 0.0000000000000000000, 1.224646799147353700E-16 ) ) ;
#23 = VERTEX_POINT ( 'NONE', #25 ) ;
#24 = CARTESIAN_POINT ( 'NONE',  ( 3.061616997868384713E-18, 0.0000000000000000000, 0.02500000000000000139 ) ) ;
#25 = CARTESIAN_POINT ( 'NONE',  ( 0.06250000000000002776, 7.654042494670959086E-18, 1.485000000000000764 ) ) ;
#26 = DIRECTION ( 'NONE',  ( 1.000000000000000000, 0.0000000000000000000, 0.0000000000000000000 ) ) ;
#27 = CIRCLE ( 'NONE', #86, 0.06250000000000002776 ) ;
#28 = CARTESIAN_POINT ( 'NONE',  ( 1.273521019447318016E-34, 0.0000000000000000000, 1.039908829495975830E-18 ) ) ;
#29 = PRODUCT_DEFINITION_CONTEXT ( 'detailed design', #81, 'design' ) ;
#30 = CARTESIAN_POINT ( 'NONE',  ( 0.0000000000000000000, 0.0000000000000000000, 1.500000000000000222 ) ) ;
#31 = DIRECTION ( 'NONE',  ( 0.0000000000000000000, 0.0000000000000000000, 1.000000000000000000 ) ) ;
#32 = CIRCLE ( 'NONE', #275, 0.008491499999999999049 ) ;
#33 = CYLINDRICAL_SURFACE ( 'NONE', #19, 0.06250000000000002776 ) ;
#34 = ADVANCED_FACE ( 'NONE', ( #231 ), #216, .T. ) ;
#35 = CARTESIAN_POINT ( 'NONE',  ( 0.06250000000000002776, 7.654042494670959086E-18, 1.500000000000000222 ) ) ;
#36 = CARTESIAN_POINT ( 'NONE',  ( -0.06250000000000002776, 0.0000000000000000000, 1.485000000000000764 ) ) ;
#37 = EDGE_LOOP ( 'NONE', ( #68, #120, #253, #211 ) ) ;
#38 = EDGE_CURVE ( 'NONE', #164, #201, #195, .T. ) ;
#39 = CONICAL_SURFACE ( 'NONE', #60, 0.008491499999999999049, 0.1745329251994338637 ) ;
#40 = ORIENTED_EDGE ( 'NONE', *, *, #43, .F. ) ;
#41 = DIRECTION ( 'NONE',  ( 0.1736481776669313581, 0.0000000000000000000, 0.9848077530122077983 ) ) ;
#42 = DIRECTION ( 'NONE',  ( -0.0000000000000000000, -0.0000000000000000000, -1.000000000000000000 ) ) ;
#43 = EDGE_CURVE ( 'NONE', #138, #92, #27, .T. ) ;
#44 = PRESENTATION_LAYER_ASSIGNMENT (  '', '', ( #87 ) ) ;
#45 = LENGTH_MEASURE_WITH_UNIT ( LENGTH_MEASURE( 0.02539999999999999897 ), #203 );
#46 = CARTESIAN_POINT ( 'NONE',  ( -0.06250000000000002776, 0.0000000000000000000, 1.500000000000000222 ) ) ;
#47 = LINE ( 'NONE', #170, #67 ) ;
#48 = ORIENTED_EDGE ( 'NONE', *, *, #285, .T. ) ;
#49 = VECTOR ( 'NONE', #73, 39.37007874015748143 ) ;
#50 = AXIS2_PLACEMENT_3D ( 'NONE', #28, #218, #289 ) ;
#51 = CARTESIAN_POINT ( 'NONE',  ( 0.0000000000000000000, 0.0000000000000000000, 0.0000000000000000000 ) ) ;
#52 = ORIENTED_EDGE ( 'NONE', *, *, #202, .T. ) ;
#53 = PRODUCT ( 'Micro_SME-017-2X', 'Micro_SME-017-2X', '', ( #139 ) ) ;
#54 = VERTEX_POINT ( 'NONE', #183 ) ;
#55 = DIRECTION ( 'NONE',  ( -1.224646799147353700E-16, -0.0000000000000000000, -1.000000000000000000 ) ) ;
#56 = CIRCLE ( 'NONE', #242, 0.04750000000000064587 ) ;
#57 = DIRECTION ( 'NONE',  ( 1.000000000000000000, 0.0000000000000000000, 0.0000000000000000000 ) ) ;
#58 = CARTESIAN_POINT ( 'NONE',  ( 0.008491500000000002518, 1.039908829495975252E-18, -1.039908829495975638E-18 ) ) ;
#59 = CARTESIAN_POINT ( 'NONE',  ( 0.0000000000000000000, 0.0000000000000000000, 1.500000000000000222 ) ) ;
#60 = AXIS2_PLACEMENT_3D ( 'NONE', #212, #6, #57 ) ;
#61 = VECTOR ( 'NONE', #42, 39.37007874015748143 ) ;
#62 = CARTESIAN_POINT ( 'NONE',  ( -0.008491500000000002518, 0.0000000000000000000, 1.039908829495975638E-18 ) ) ;
#63 = ORIENTED_EDGE ( 'NONE', *, *, #10, .T. ) ;
#64 = EDGE_LOOP ( 'NONE', ( #229, #48, #40, #161 ) ) ;
#65 =( NAMED_UNIT ( * ) PLANE_ANGLE_UNIT ( ) SI_UNIT ( $, .RADIAN. ) );
#66 = CARTESIAN_POINT ( 'NONE',  ( 0.0000000000000000000, 0.0000000000000000000, 0.0000000000000000000 ) ) ;
#67 = VECTOR ( 'NONE', #239, 39.37007874015747433 ) ;
#68 = ORIENTED_EDGE ( 'NONE', *, *, #219, .F. ) ;
#69 = DIRECTION ( 'NONE',  ( 0.0000000000000000000, 0.0000000000000000000, -1.000000000000000000 ) ) ;
#70 = ADVANCED_FACE ( 'NONE', ( #3 ), #126, .T. ) ;
#71 = ORIENTED_EDGE ( 'NONE', *, *, #141, .F. ) ;
#72 = APPLICATION_PROTOCOL_DEFINITION ( 'draft international standard', 'automotive_design', 1998, #81 ) ;
#73 = DIRECTION ( 'NONE',  ( -0.0000000000000000000, -0.0000000000000000000, -1.000000000000000000 ) ) ;
#74 = AXIS2_PLACEMENT_3D ( 'NONE', #102, #106, #265 ) ;
#75 = EDGE_LOOP ( 'NONE', ( #256, #295, #145, #210 ) ) ;
#76 = FACE_OUTER_BOUND ( 'NONE', #281, .T. ) ;
#77 = UNCERTAINTY_MEASURE_WITH_UNIT (LENGTH_MEASURE( 1.000000000000000082E-05 ), #85, 'distance_accuracy_value', 'NONE');
#78 = CARTESIAN_POINT ( 'NONE',  ( -0.06249999999999997918, 0.0000000000000000000, 0.3312974241548216070 ) ) ;
#79 = CYLINDRICAL_SURFACE ( 'NONE', #108, 0.06250000000000002776 ) ;
#80 = CARTESIAN_POINT ( 'NONE',  ( 0.0000000000000000000, 0.0000000000000000000, 1.500000000000000222 ) ) ;
#81 = APPLICATION_CONTEXT ( 'automotive_design' ) ;
#82 = DIRECTION ( 'NONE',  ( -1.224646799147353700E-16, -0.0000000000000000000, -1.000000000000000000 ) ) ;
#83 = SURFACE_SIDE_STYLE ('',( #157 ) ) ;
#84 = ORIENTED_EDGE ( 'NONE', *, *, #285, .F. ) ;
#85 =( CONVERSION_BASED_UNIT ( 'INCH', #221 ) LENGTH_UNIT ( ) NAMED_UNIT ( #277 ) );
#86 = AXIS2_PLACEMENT_3D ( 'NONE', #119, #207, #297 ) ;
#87 = STYLED_ITEM ( 'NONE', ( #200 ), #240 ) ;
#88 = CYLINDRICAL_SURFACE ( 'NONE', #93, 0.008491500000000002518 ) ;
#89 = FILL_AREA_STYLE_COLOUR ( '', #236 ) ;
#90 = ORIENTED_EDGE ( 'NONE', *, *, #165, .F. ) ;
#91 = SURFACE_SIDE_STYLE ('',( #2 ) ) ;
#92 = VERTEX_POINT ( 'NONE', #252 ) ;
#93 = AXIS2_PLACEMENT_3D ( 'NONE', #66, #248, #220 ) ;
#94 = EDGE_CURVE ( 'NONE', #109, #138, #47, .T. ) ;
#95 = ORIENTED_EDGE ( 'NONE', *, *, #206, .F. ) ;
#96 = DIRECTION ( 'NONE',  ( 0.0000000000000000000, 0.0000000000000000000, 1.000000000000000000 ) ) ;
#97 = DIRECTION ( 'NONE',  ( -1.000000000000000000, 0.0000000000000000000, 0.0000000000000000000 ) ) ;
#98 = ADVANCED_FACE ( 'NONE', ( #103 ), #79, .T. ) ;
#99 = DIRECTION ( 'NONE',  ( 1.224646799147353700E-16, 0.0000000000000000000, 1.000000000000000000 ) ) ;
#100 = AXIS2_PLACEMENT_3D ( 'NONE', #244, #171, #267 ) ;
#101 = DIRECTION ( 'NONE',  ( -0.0000000000000000000, -0.0000000000000000000, -1.000000000000000000 ) ) ;
#102 = CARTESIAN_POINT ( 'NONE',  ( 0.0000000000000000000, 0.0000000000000000000, 1.500000000000000222 ) ) ;
#103 = FACE_OUTER_BOUND ( 'NONE', #64, .T. ) ;
#104 = AXIS2_PLACEMENT_3D ( 'NONE', #123, #264, #291 ) ;
#105 = DIRECTION ( 'NONE',  ( -1.000000000000000000, 0.0000000000000000000, 0.0000000000000000000 ) ) ;
#106 = DIRECTION ( 'NONE',  ( 0.0000000000000000000, 0.0000000000000000000, 1.000000000000000000 ) ) ;
#107 = ADVANCED_FACE ( 'NONE', ( #7 ), #33, .T. ) ;
#108 = AXIS2_PLACEMENT_3D ( 'NONE', #30, #101, #263 ) ;
#109 = VERTEX_POINT ( 'NONE', #214 ) ;
#110 = DIMENSIONAL_EXPONENTS ( 1.000000000000000000, 0.0000000000000000000, 0.0000000000000000000, 0.0000000000000000000, 0.0000000000000000000, 0.0000000000000000000, 0.0000000000000000000 ) ;
#111 = AXIS2_PLACEMENT_3D ( 'NONE', #152, #31, #9 ) ;
#112 = EDGE_LOOP ( 'NONE', ( #113, #178, #143, #175 ) ) ;
#113 = ORIENTED_EDGE ( 'NONE', *, *, #173, .F. ) ;
#114 = EDGE_CURVE ( 'NONE', #109, #201, #124, .T. ) ;
#115 = EDGE_LOOP ( 'NONE', ( #84, #234, #204, #95 ) ) ;
#116 = EDGE_LOOP ( 'NONE', ( #71, #63, #158, #90 ) ) ;
#117 =( GEOMETRIC_REPRESENTATION_CONTEXT ( 3 ) GLOBAL_UNCERTAINTY_ASSIGNED_CONTEXT ( ( #188 ) ) GLOBAL_UNIT_ASSIGNED_CONTEXT ( ( #174, #65, #247 ) ) REPRESENTATION_CONTEXT ( 'NONE', 'WORKASPACE' ) );
#118 =( NAMED_UNIT ( * ) PLANE_ANGLE_UNIT ( ) SI_UNIT ( $, .RADIAN. ) );
#119 = CARTESIAN_POINT ( 'NONE',  ( 4.057223300569654464E-17, 0.0000000000000000000, 0.3312974241548216070 ) ) ;
#120 = ORIENTED_EDGE ( 'NONE', *, *, #128, .T. ) ;
#121 = FACE_OUTER_BOUND ( 'NONE', #37, .T. ) ;
#122 =( GEOMETRIC_REPRESENTATION_CONTEXT ( 3 ) GLOBAL_UNCERTAINTY_ASSIGNED_CONTEXT ( ( #77 ) ) GLOBAL_UNIT_ASSIGNED_CONTEXT ( ( #85, #118, #177 ) ) REPRESENTATION_CONTEXT ( 'NONE', 'WORKASPACE' ) );
#123 = CARTESIAN_POINT ( 'NONE',  ( 4.057223300569654464E-17, 0.0000000000000000000, 0.3312974241548216070 ) ) ;
#124 = LINE ( 'NONE', #62, #162 ) ;
#125 = DIRECTION ( 'NONE',  ( -1.224646799147353700E-16, -0.0000000000000000000, -1.000000000000000000 ) ) ;
#126 = CONICAL_SURFACE ( 'NONE', #235, 0.04750000000000064587, 0.7853981633974466137 ) ;
#127 = CARTESIAN_POINT ( 'NONE',  ( 0.0000000000000000000, 0.0000000000000000000, 1.485000000000000764 ) ) ;
#128 = EDGE_CURVE ( 'NONE', #245, #109, #32, .T. ) ;
#129 = DIRECTION ( 'NONE',  ( 1.000000000000000000, 0.0000000000000000000, -0.0000000000000000000 ) ) ;
#130 = ORIENTED_EDGE ( 'NONE', *, *, #173, .T. ) ;
#131 = AXIS2_PLACEMENT_3D ( 'NONE', #192, #82, #168 ) ;
#132 = LINE ( 'NONE', #197, #249 ) ;
#133 = ADVANCED_FACE ( 'NONE', ( #76 ), #147, .T. ) ;
#134 = EDGE_LOOP ( 'NONE', ( #274, #140, #142, #16 ) ) ;
#135 = PRODUCT_DEFINITION_SHAPE ( 'NONE', 'NONE',  #259 ) ;
#136 = CARTESIAN_POINT ( 'NONE',  ( 0.0000000000000000000, 0.0000000000000000000, 0.0000000000000000000 ) ) ;
#137 = AXIS2_PLACEMENT_3D ( 'NONE', #24, #99, #185 ) ;
#138 = VERTEX_POINT ( 'NONE', #78 ) ;
#139 = PRODUCT_CONTEXT ( 'NONE', #271, 'mechanical' ) ;
#140 = ORIENTED_EDGE ( 'NONE', *, *, #223, .F. ) ;
#141 = EDGE_CURVE ( 'NONE', #54, #4, #56, .T. ) ;
#142 = ORIENTED_EDGE ( 'NONE', *, *, #165, .T. ) ;
#143 = ORIENTED_EDGE ( 'NONE', *, *, #43, .T. ) ;
#144 = ADVANCED_FACE ( 'NONE', ( #8 ), #282, .T. ) ;
#145 = ORIENTED_EDGE ( 'NONE', *, *, #225, .T. ) ;
#146 = EDGE_CURVE ( 'NONE', #268, #23, #222, .T. ) ;
#147 = PLANE ( 'NONE',  #74 ) ;
#148 = STYLED_ITEM ( 'NONE', ( #208 ), #269 ) ;
#149 = ADVANCED_FACE ( 'NONE', ( #121 ), #189, .T. ) ;
#150 = DIRECTION ( 'NONE',  ( -1.000000000000000000, 0.0000000000000000000, 0.0000000000000000000 ) ) ;
#151 = CLOSED_SHELL ( 'NONE', ( #270, #34, #70, #98, #107, #133, #144, #160, #149, #287 ) ) ;
#152 = CARTESIAN_POINT ( 'NONE',  ( 0.0000000000000000000, 0.0000000000000000000, 1.500000000000000222 ) ) ;
#153 = CARTESIAN_POINT ( 'NONE',  ( 3.061616997868384713E-18, 0.0000000000000000000, 0.02500000000000000139 ) ) ;
#154 = DIRECTION ( 'NONE',  ( 1.000000000000000000, 0.0000000000000000000, 0.0000000000000000000 ) ) ;
#155 = FILL_AREA_STYLE ('',( #89 ) ) ;
#156 = ORIENTED_EDGE ( 'NONE', *, *, #114, .F. ) ;
#157 = SURFACE_STYLE_FILL_AREA ( #155 ) ;
#158 = ORIENTED_EDGE ( 'NONE', *, *, #146, .F. ) ;
#159 = ORIENTED_EDGE ( 'NONE', *, *, #38, .T. ) ;
#160 = ADVANCED_FACE ( 'NONE', ( #187 ), #39, .T. ) ;
#161 = ORIENTED_EDGE ( 'NONE', *, *, #17, .F. ) ;
#162 = VECTOR ( 'NONE', #55, 39.37007874015748143 ) ;
#163 = LINE ( 'NONE', #46, #49 ) ;
#164 = VERTEX_POINT ( 'NONE', #290 ) ;
#165 = EDGE_CURVE ( 'NONE', #4, #268, #215, .T. ) ;
#166 = DIRECTION ( 'NONE',  ( 0.0000000000000000000, 0.0000000000000000000, -1.000000000000000000 ) ) ;
#167 = CARTESIAN_POINT ( 'NONE',  ( 0.0000000000000000000, 0.0000000000000000000, 1.500000000000000222 ) ) ;
#168 = DIRECTION ( 'NONE',  ( -1.000000000000000000, 0.0000000000000000000, 1.224646799147353700E-16 ) ) ;
#169 = DIRECTION ( 'NONE',  ( -1.000000000000000000, 0.0000000000000000000, 0.0000000000000000000 ) ) ;
#170 = CARTESIAN_POINT ( 'NONE',  ( -0.008491499999999995579, 1.039908829495974675E-18, 0.02500000000000000139 ) ) ;
#171 = DIRECTION ( 'NONE',  ( 0.0000000000000000000, 0.0000000000000000000, -1.000000000000000000 ) ) ;
#172 = ORIENTED_EDGE ( 'NONE', *, *, #141, .T. ) ;
#173 = EDGE_CURVE ( 'NONE', #109, #245, #224, .T. ) ;
#174 =( CONVERSION_BASED_UNIT ( 'INCH', #15 ) LENGTH_UNIT ( ) NAMED_UNIT ( #199 ) );
#175 = ORIENTED_EDGE ( 'NONE', *, *, #225, .F. ) ;
#176 =( LENGTH_UNIT ( ) NAMED_UNIT ( * ) SI_UNIT ( $, .METRE. ) );
#177 =( NAMED_UNIT ( * ) SI_UNIT ( $, .STERADIAN. ) SOLID_ANGLE_UNIT ( ) );
#178 = ORIENTED_EDGE ( 'NONE', *, *, #94, .T. ) ;
#179 = CIRCLE ( 'NONE', #100, 0.06250000000000002776 ) ;
#180 = SHAPE_DEFINITION_REPRESENTATION ( #135, #269 ) ;
#181 = CARTESIAN_POINT ( 'NONE',  ( 1.273521019447318016E-34, 0.0000000000000000000, 1.039908829495975830E-18 ) ) ;
#182 = EDGE_LOOP ( 'NONE', ( #52, #159 ) ) ;
#183 = CARTESIAN_POINT ( 'NONE',  ( 0.04750000000000064587, 6.735557395310483192E-18, 1.500000000000000222 ) ) ;
#184 = VECTOR ( 'NONE', #266, 39.37007874015748854 ) ;
#185 = DIRECTION ( 'NONE',  ( 1.000000000000000000, 0.0000000000000000000, 0.0000000000000000000 ) ) ;
#186 = COLOUR_RGB ( '',0.7921568627450980005, 0.8196078431372548767, 0.9333333333333333481 ) ;
#187 = FACE_OUTER_BOUND ( 'NONE', #75, .T. ) ;
#188 = UNCERTAINTY_MEASURE_WITH_UNIT (LENGTH_MEASURE( 1.000000000000000082E-05 ), #174, 'distance_accuracy_value', 'NONE');
#189 = CYLINDRICAL_SURFACE ( 'NONE', #131, 0.008491500000000002518 ) ;
#190 = DIRECTION ( 'NONE',  ( 0.0000000000000000000, 0.0000000000000000000, 1.000000000000000000 ) ) ;
#191 = CIRCLE ( 'NONE', #50, 0.008491500000000004253 ) ;
#192 = CARTESIAN_POINT ( 'NONE',  ( 0.0000000000000000000, 0.0000000000000000000, 0.0000000000000000000 ) ) ;
#193 = DIRECTION ( 'NONE',  ( -1.224646799147353700E-16, -0.0000000000000000000, -1.000000000000000000 ) ) ;
#194 = FACE_OUTER_BOUND ( 'NONE', #182, .T. ) ;
#195 = CIRCLE ( 'NONE', #246, 0.008491500000000004253 ) ;
#196 = CIRCLE ( 'NONE', #111, 0.04750000000000064587 ) ;
#197 = CARTESIAN_POINT ( 'NONE',  ( 0.008491500000000002518, 0.0000000000000000000, 0.02500000000000000139 ) ) ;
#198 =( LENGTH_UNIT ( ) NAMED_UNIT ( * ) SI_UNIT ( $, .METRE. ) );
#199 = DIMENSIONAL_EXPONENTS ( 1.000000000000000000, 0.0000000000000000000, 0.0000000000000000000, 0.0000000000000000000, 0.0000000000000000000, 0.0000000000000000000, 0.0000000000000000000 ) ;
#200 = PRESENTATION_STYLE_ASSIGNMENT (( #18 ) ) ;
#201 = VERTEX_POINT ( 'NONE', #258 ) ;
#202 = EDGE_CURVE ( 'NONE', #201, #164, #191, .T. ) ;
#203 =( LENGTH_UNIT ( ) NAMED_UNIT ( * ) SI_UNIT ( $, .METRE. ) );
#204 = ORIENTED_EDGE ( 'NONE', *, *, #17, .T. ) ;
#205 = APPLICATION_PROTOCOL_DEFINITION ( 'draft international standard', 'automotive_design', 1998, #271 ) ;
#206 = EDGE_CURVE ( 'NONE', #92, #138, #288, .T. ) ;
#207 = DIRECTION ( 'NONE',  ( -1.224646799147353700E-16, -0.0000000000000000000, -1.000000000000000000 ) ) ;
#208 = PRESENTATION_STYLE_ASSIGNMENT (( #273 ) ) ;
#209 = EDGE_LOOP ( 'NONE', ( #130, #257, #293, #156 ) ) ;
#210 = ORIENTED_EDGE ( 'NONE', *, *, #206, .T. ) ;
#211 = ORIENTED_EDGE ( 'NONE', *, *, #38, .F. ) ;
#212 = CARTESIAN_POINT ( 'NONE',  ( 3.061616997868384713E-18, 0.0000000000000000000, 0.02500000000000000139 ) ) ;
#213 = DIRECTION ( 'NONE',  ( 0.0000000000000000000, 0.0000000000000000000, -1.000000000000000000 ) ) ;
#214 = CARTESIAN_POINT ( 'NONE',  ( -0.008491499999999995579, 4.346975662083468132E-18, 0.02500000000000000139 ) ) ;
#215 = LINE ( 'NONE', #286, #184 ) ;
#216 = CONICAL_SURFACE ( 'NONE', #137, 0.008491499999999999049, 0.1745329251994338637 ) ;
#217 = AXIS2_PLACEMENT_3D ( 'NONE', #51, #96, #20 ) ;
#218 = DIRECTION ( 'NONE',  ( -1.224646799147353700E-16, -0.0000000000000000000, -1.000000000000000000 ) ) ;
#219 = EDGE_CURVE ( 'NONE', #245, #164, #11, .T. ) ;
#220 = DIRECTION ( 'NONE',  ( -1.000000000000000000, 0.0000000000000000000, 1.224646799147353700E-16 ) ) ;
#221 = LENGTH_MEASURE_WITH_UNIT ( LENGTH_MEASURE( 0.02539999999999999897 ), #198 );
#222 = CIRCLE ( 'NONE', #260, 0.06250000000000002776 ) ;
#223 = EDGE_CURVE ( 'NONE', #4, #54, #196, .T. ) ;
#224 = CIRCLE ( 'NONE', #226, 0.008491499999999999049 ) ;
#225 = EDGE_CURVE ( 'NONE', #245, #92, #132, .T. ) ;
#226 = AXIS2_PLACEMENT_3D ( 'NONE', #237, #284, #150 ) ;
#227 = PRODUCT_RELATED_PRODUCT_CATEGORY ( 'part', '', ( #53 ) ) ;
#228 = CARTESIAN_POINT ( 'NONE',  ( 0.04750000000000064587, 5.817072295950006528E-18, 1.500000000000000222 ) ) ;
#229 = ORIENTED_EDGE ( 'NONE', *, *, #146, .T. ) ;
#230 = VECTOR ( 'NONE', #193, 39.37007874015748143 ) ;
#231 = FACE_OUTER_BOUND ( 'NONE', #112, .T. ) ;
#232 =( NAMED_UNIT ( * ) PLANE_ANGLE_UNIT ( ) SI_UNIT ( $, .RADIAN. ) );
#233 = ORIENTED_EDGE ( 'NONE', *, *, #223, .T. ) ;
#234 = ORIENTED_EDGE ( 'NONE', *, *, #255, .T. ) ;
#235 = AXIS2_PLACEMENT_3D ( 'NONE', #278, #69, #97 ) ;
#236 = COLOUR_RGB ( '',0.7921568627450980005, 0.8196078431372548767, 0.9333333333333333481 ) ;
#237 = CARTESIAN_POINT ( 'NONE',  ( 3.061616997868384713E-18, 0.0000000000000000000, 0.02500000000000000139 ) ) ;
#238 = DIRECTION ( 'NONE',  ( -0.0000000000000000000, -0.0000000000000000000, -1.000000000000000000 ) ) ;
#239 = DIRECTION ( 'NONE',  ( -0.1736481776669311639, 2.126576849575783008E-17, 0.9848077530122080203 ) ) ;
#240 = MANIFOLD_SOLID_BREP ( 'Cut-Revolve1', #151 ) ;
#241 = DIRECTION ( 'NONE',  ( -1.000000000000000000, 0.0000000000000000000, 0.0000000000000000000 ) ) ;
#242 = AXIS2_PLACEMENT_3D ( 'NONE', #59, #190, #154 ) ;
#243 = LINE ( 'NONE', #35, #61 ) ;
#244 = CARTESIAN_POINT ( 'NONE',  ( 0.0000000000000000000, 0.0000000000000000000, 1.485000000000000764 ) ) ;
#245 = VERTEX_POINT ( 'NONE', #294 ) ;
#246 = AXIS2_PLACEMENT_3D ( 'NONE', #181, #283, #22 ) ;
#247 =( NAMED_UNIT ( * ) SI_UNIT ( $, .STERADIAN. ) SOLID_ANGLE_UNIT ( ) );
#248 = DIRECTION ( 'NONE',  ( -1.224646799147353700E-16, -0.0000000000000000000, -1.000000000000000000 ) ) ;
#249 = VECTOR ( 'NONE', #41, 39.37007874015748143 ) ;
#250 = FILL_AREA_STYLE ('',( #296 ) ) ;
#251 = LINE ( 'NONE', #228, #14 ) ;
#252 = CARTESIAN_POINT ( 'NONE',  ( 0.06250000000000006939, 7.654042494670963708E-18, 0.3312974241548216070 ) ) ;
#253 = ORIENTED_EDGE ( 'NONE', *, *, #114, .T. ) ;
#254 = PRODUCT_DEFINITION_FORMATION_WITH_SPECIFIED_SOURCE ( 'ANY', '', #53, .NOT_KNOWN. ) ;
#255 = EDGE_CURVE ( 'NONE', #23, #268, #179, .T. ) ;
#256 = ORIENTED_EDGE ( 'NONE', *, *, #94, .F. ) ;
#257 = ORIENTED_EDGE ( 'NONE', *, *, #219, .T. ) ;
#258 = CARTESIAN_POINT ( 'NONE',  ( -0.008491500000000004253, 0.0000000000000000000, 2.079817658991951660E-18 ) ) ;
#259 = PRODUCT_DEFINITION ( 'UNKNOWN', '', #254, #29 ) ;
#260 = AXIS2_PLACEMENT_3D ( 'NONE', #127, #166, #26 ) ;
#261 = UNCERTAINTY_MEASURE_WITH_UNIT (LENGTH_MEASURE( 1.000000000000000082E-05 ), #280, 'distance_accuracy_value', 'NONE');
#262 = PRESENTATION_LAYER_ASSIGNMENT (  '', '', ( #148 ) ) ;
#263 = DIRECTION ( 'NONE',  ( -1.000000000000000000, 0.0000000000000000000, 0.0000000000000000000 ) ) ;
#264 = DIRECTION ( 'NONE',  ( -1.224646799147353700E-16, -0.0000000000000000000, -1.000000000000000000 ) ) ;
#265 = DIRECTION ( 'NONE',  ( 1.000000000000000000, 0.0000000000000000000, -0.0000000000000000000 ) ) ;
#266 = DIRECTION ( 'NONE',  ( -0.7071067811865462405, 0.0000000000000000000, -0.7071067811865486830 ) ) ;
#267 = DIRECTION ( 'NONE',  ( 1.000000000000000000, 0.0000000000000000000, 0.0000000000000000000 ) ) ;
#268 = VERTEX_POINT ( 'NONE', #36 ) ;
#269 = ADVANCED_BREP_SHAPE_REPRESENTATION ( 'Micro_SME-017-2X', ( #240, #217 ), #122 ) ;
#270 = ADVANCED_FACE ( 'NONE', ( #272 ), #88, .T. ) ;
#271 = APPLICATION_CONTEXT ( 'automotive_design' ) ;
#272 = FACE_OUTER_BOUND ( 'NONE', #209, .T. ) ;
#273 = SURFACE_STYLE_USAGE ( .BOTH. , #91 ) ;
#274 = ORIENTED_EDGE ( 'NONE', *, *, #10, .F. ) ;
#275 = AXIS2_PLACEMENT_3D ( 'NONE', #153, #125, #241 ) ;
#276 = MECHANICAL_DESIGN_GEOMETRIC_PRESENTATION_REPRESENTATION (  '', ( #87 ), #117 ) ;
#277 = DIMENSIONAL_EXPONENTS ( 1.000000000000000000, 0.0000000000000000000, 0.0000000000000000000, 0.0000000000000000000, 0.0000000000000000000, 0.0000000000000000000, 0.0000000000000000000 ) ;
#278 = CARTESIAN_POINT ( 'NONE',  ( 0.0000000000000000000, 0.0000000000000000000, 1.500000000000000222 ) ) ;
#279 = DIRECTION ( 'NONE',  ( 0.7071067811865462405, 8.659560562354916834E-17, -0.7071067811865486830 ) ) ;
#280 =( CONVERSION_BASED_UNIT ( 'INCH', #45 ) LENGTH_UNIT ( ) NAMED_UNIT ( #110 ) );
#281 = EDGE_LOOP ( 'NONE', ( #233, #172 ) ) ;
#282 = CONICAL_SURFACE ( 'NONE', #298, 0.04750000000000064587, 0.7853981633974466137 ) ;
#283 = DIRECTION ( 'NONE',  ( -1.224646799147353700E-16, -0.0000000000000000000, -1.000000000000000000 ) ) ;
#284 = DIRECTION ( 'NONE',  ( -1.224646799147353700E-16, -0.0000000000000000000, -1.000000000000000000 ) ) ;
#285 = EDGE_CURVE ( 'NONE', #23, #92, #243, .T. ) ;
#286 = CARTESIAN_POINT ( 'NONE',  ( -0.04750000000000064587, 0.0000000000000000000, 1.500000000000000222 ) ) ;
#287 = ADVANCED_FACE ( 'NONE', ( #194 ), #13, .F. ) ;
#288 = CIRCLE ( 'NONE', #104, 0.06250000000000002776 ) ;
#289 = DIRECTION ( 'NONE',  ( -1.000000000000000000, 0.0000000000000000000, 1.224646799147353700E-16 ) ) ;
#290 = CARTESIAN_POINT ( 'NONE',  ( 0.008491500000000004253, 1.039908829495975445E-18, 0.0000000000000000000 ) ) ;
#291 = DIRECTION ( 'NONE',  ( 1.000000000000000000, 0.0000000000000000000, 0.0000000000000000000 ) ) ;
#292 = DIRECTION ( 'NONE',  ( 0.0000000000000000000, 0.0000000000000000000, 1.000000000000000000 ) ) ;
#293 = ORIENTED_EDGE ( 'NONE', *, *, #202, .F. ) ;
#294 = CARTESIAN_POINT ( 'NONE',  ( 0.008491500000000002518, 0.0000000000000000000, 0.02500000000000000139 ) ) ;
#295 = ORIENTED_EDGE ( 'NONE', *, *, #128, .F. ) ;
#296 = FILL_AREA_STYLE_COLOUR ( '', #186 ) ;
#297 = DIRECTION ( 'NONE',  ( 1.000000000000000000, 0.0000000000000000000, 0.0000000000000000000 ) ) ;
#298 = AXIS2_PLACEMENT_3D ( 'NONE', #167, #213, #105 ) ;
#299 = AXIS2_PLACEMENT_3D ( 'NONE', #136, #292, #129 ) ;
ENDSEC;
END-ISO-10303-21;
