ISO-10303-21;
HEADER;
FILE_DESCRIPTION (( 'STEP AP214' ),
    '1' );
FILE_NAME ('44302W.STEP',
    '2023-06-22T19:58:45',
    ( '' ),
    ( '' ),
    'SwSTEP 2.0',
    'SolidWorks 2023',
    '' );
FILE_SCHEMA (( 'AUTOMOTIVE_DESIGN' ));
ENDSEC;

DATA;
#1 = AXIS2_PLACEMENT_3D ( 'NONE', #79, #245, #202 ) ;
#2 = DIRECTION ( 'NONE',  ( 0.000000000000000000, -0.000000000000000000, 1.000000000000000000 ) ) ;
#3 = CARTESIAN_POINT ( 'NONE',  ( 0.000000000000000000, 0.000000000000000000, 0.000000000000000000 ) ) ;
#4 = FILL_AREA_STYLE_COLOUR ( '', #63 ) ;
#5 =( GEOMETRIC_REPRESENTATION_CONTEXT ( 3 ) GLOBAL_UNCERTAINTY_ASSIGNED_CONTEXT ( ( #226 ) ) GLOBAL_UNIT_ASSIGNED_CONTEXT ( ( #253, #300, #255 ) ) REPRESENTATION_CONTEXT ( 'NONE', 'WORKASPACE' ) );
#6 = VECTOR ( 'NONE', #215, 39.37007874015748143 ) ;
#7 = DIRECTION ( 'NONE',  ( -0.000000000000000000, -1.000000000000000000, -0.000000000000000000 ) ) ;
#8 = FILL_AREA_STYLE ('',( #128 ) ) ;
#9 = SURFACE_STYLE_FILL_AREA ( #84 ) ;
#10 = AXIS2_PLACEMENT_3D ( 'NONE', #57, #142, #81 ) ;
#11 = PRODUCT_DEFINITION_CONTEXT ( 'detailed design', #285, 'design' ) ;
#12 = SURFACE_SIDE_STYLE ('',( #107 ) ) ;
#13 = ORIENTED_EDGE ( 'NONE', *, *, #193, .T. ) ;
#14 = ADVANCED_BREP_SHAPE_REPRESENTATION ( '44302W', ( #214, #113, #175 ), #236 ) ;
#15 = AXIS2_PLACEMENT_3D ( 'NONE', #19, #282, #281 ) ;
#16 = FACE_OUTER_BOUND ( 'NONE', #223, .T. ) ;
#17 = DIRECTION ( 'NONE',  ( 1.000000000000000000, 5.156407575357275916E-17, 0.000000000000000000 ) ) ;
#18 = ORIENTED_EDGE ( 'NONE', *, *, #105, .F. ) ;
#19 = CARTESIAN_POINT ( 'NONE',  ( 3.323567385400236968E-34, 1.625000000000000000, 0.000000000000000000 ) ) ;
#20 = PRODUCT_DEFINITION ( 'UNKNOWN', '', #159, #11 ) ;
#21 = APPLICATION_PROTOCOL_DEFINITION ( 'draft international standard', 'automotive_design', 1998, #146 ) ;
#22 = VERTEX_POINT ( 'NONE', #162 ) ;
#23 = LINE ( 'NONE', #195, #185 ) ;
#24 = LENGTH_MEASURE_WITH_UNIT ( LENGTH_MEASURE( 0.02539999999999999897 ), #34 );
#25 = ORIENTED_EDGE ( 'NONE', *, *, #60, .F. ) ;
#26 =( NAMED_UNIT ( * ) SI_UNIT ( $, .STERADIAN. ) SOLID_ANGLE_UNIT ( ) );
#27 = COLOUR_RGB ( '',1.000000000000000000, 0.000000000000000000, 0.000000000000000000 ) ;
#28 = CIRCLE ( 'NONE', #31, 0.2500000000000000555 ) ;
#29 =( LENGTH_UNIT ( ) NAMED_UNIT ( * ) SI_UNIT ( $, .METRE. ) );
#30 = SURFACE_SIDE_STYLE ('',( #78 ) ) ;
#31 = AXIS2_PLACEMENT_3D ( 'NONE', #206, #83, #173 ) ;
#32 = ORIENTED_EDGE ( 'NONE', *, *, #116, .T. ) ;
#33 =( NAMED_UNIT ( * ) PLANE_ANGLE_UNIT ( ) SI_UNIT ( $, .RADIAN. ) );
#34 =( LENGTH_UNIT ( ) NAMED_UNIT ( * ) SI_UNIT ( $, .METRE. ) );
#35 = EDGE_CURVE ( 'NONE', #39, #104, #291, .T. ) ;
#36 = EDGE_CURVE ( 'NONE', #299, #138, #265, .T. ) ;
#37 = CARTESIAN_POINT ( 'NONE',  ( 0.000000000000000000, 1.625000000000000000, 0.000000000000000000 ) ) ;
#38 = UNCERTAINTY_MEASURE_WITH_UNIT (LENGTH_MEASURE( 1.000000000000000082E-05 ), #101, 'distance_accuracy_value', 'NONE');
#39 = VERTEX_POINT ( 'NONE', #54 ) ;
#40 = LINE ( 'NONE', #179, #184 ) ;
#41 = SURFACE_STYLE_USAGE ( .BOTH. , #12 ) ;
#42 = VERTEX_POINT ( 'NONE', #148 ) ;
#43 = FILL_AREA_STYLE_COLOUR ( '', #56 ) ;
#44 = DIRECTION ( 'NONE',  ( -1.000000000000000000, 0.000000000000000000, 0.000000000000000000 ) ) ;
#45 = SURFACE_STYLE_USAGE ( .BOTH. , #277 ) ;
#46 =( CONVERSION_BASED_UNIT ( 'INCH', #269 ) LENGTH_UNIT ( ) NAMED_UNIT ( #157 ) );
#47 = PRESENTATION_LAYER_ASSIGNMENT (  '', '', ( #212 ) ) ;
#48 = FACE_OUTER_BOUND ( 'NONE', #167, .T. ) ;
#49 = PRODUCT_CONTEXT ( 'NONE', #146, 'mechanical' ) ;
#50 = CARTESIAN_POINT ( 'NONE',  ( -1.224646799147352714E-16, 4.000000000000000000, 0.000000000000000000 ) ) ;
#51 = PLANE ( 'NONE',  #15 ) ;
#52 = APPLICATION_PROTOCOL_DEFINITION ( 'draft international standard', 'automotive_design', 1998, #285 ) ;
#53 = ORIENTED_EDGE ( 'NONE', *, *, #60, .T. ) ;
#54 = CARTESIAN_POINT ( 'NONE',  ( -0.2500000000000002776, 4.000000000000000000, 0.000000000000000000 ) ) ;
#55 = CARTESIAN_POINT ( 'NONE',  ( 3.032960542342103792E-32, 1.625000000000000000, 0.000000000000000000 ) ) ;
#56 = COLOUR_RGB ( '',0.7921568627450980005, 0.8196078431372548767, 0.9333333333333333481 ) ;
#57 = CARTESIAN_POINT ( 'NONE',  ( 0.000000000000000000, 0.000000000000000000, 0.000000000000000000 ) ) ;
#58 = ADVANCED_FACE ( 'NONE', ( #246 ), #170, .T. ) ;
#59 = VECTOR ( 'NONE', #288, 39.37007874015748143 ) ;
#60 = EDGE_CURVE ( 'NONE', #186, #94, #150, .T. ) ;
#61 = FILL_AREA_STYLE_COLOUR ( '', #27 ) ;
#62 = AXIS2_PLACEMENT_3D ( 'NONE', #74, #164, #224 ) ;
#63 = COLOUR_RGB ( '',0.7921568627450980005, 0.8196078431372548767, 0.9333333333333333481 ) ;
#64 = ORIENTED_EDGE ( 'NONE', *, *, #102, .F. ) ;
#65 = DIRECTION ( 'NONE',  ( -1.000000000000000000, 0.000000000000000000, 0.000000000000000000 ) ) ;
#66 = DIRECTION ( 'NONE',  ( -5.156407575357275299E-17, 1.000000000000000000, -0.000000000000000000 ) ) ;
#67 = UNCERTAINTY_MEASURE_WITH_UNIT (LENGTH_MEASURE( 1.000000000000000082E-05 ), #118, 'distance_accuracy_value', 'NONE');
#68 = DIRECTION ( 'NONE',  ( 0.000000000000000000, 0.000000000000000000, -1.000000000000000000 ) ) ;
#69 = AXIS2_PLACEMENT_3D ( 'NONE', #55, #289, #244 ) ;
#70 = ADVANCED_FACE ( 'NONE', ( #154 ), #131, .T. ) ;
#71 = PRODUCT_RELATED_PRODUCT_CATEGORY ( 'part', '', ( #172 ) ) ;
#72 = ORIENTED_EDGE ( 'NONE', *, *, #116, .F. ) ;
#73 =( NAMED_UNIT ( * ) PLANE_ANGLE_UNIT ( ) SI_UNIT ( $, .RADIAN. ) );
#74 = CARTESIAN_POINT ( 'NONE',  ( 3.032960542342103792E-32, 1.625000000000000000, 0.000000000000000000 ) ) ;
#75 = ORIENTED_EDGE ( 'NONE', *, *, #252, .F. ) ;
#76 = PRESENTATION_LAYER_ASSIGNMENT (  '', '', ( #151 ) ) ;
#77 =( NAMED_UNIT ( * ) PLANE_ANGLE_UNIT ( ) SI_UNIT ( $, .RADIAN. ) );
#78 = SURFACE_STYLE_FILL_AREA ( #100 ) ;
#79 = CARTESIAN_POINT ( 'NONE',  ( 0.000000000000000000, 0.000000000000000000, 0.000000000000000000 ) ) ;
#80 = PRESENTATION_LAYER_ASSIGNMENT (  '', '', ( #227 ) ) ;
#81 = DIRECTION ( 'NONE',  ( 0.000000000000000000, 0.000000000000000000, -1.000000000000000000 ) ) ;
#82 =( NAMED_UNIT ( * ) SI_UNIT ( $, .STERADIAN. ) SOLID_ANGLE_UNIT ( ) );
#83 = DIRECTION ( 'NONE',  ( -0.000000000000000000, -1.000000000000000000, -0.000000000000000000 ) ) ;
#84 = FILL_AREA_STYLE ('',( #61 ) ) ;
#85 = UNCERTAINTY_MEASURE_WITH_UNIT (LENGTH_MEASURE( 1.000000000000000082E-05 ), #233, 'distance_accuracy_value', 'NONE');
#86 = DIRECTION ( 'NONE',  ( 0.000000000000000000, 0.000000000000000000, -1.000000000000000000 ) ) ;
#87 = ORIENTED_EDGE ( 'NONE', *, *, #36, .F. ) ;
#88 = STYLED_ITEM ( 'NONE', ( #207 ), #240 ) ;
#89 =( NAMED_UNIT ( * ) PLANE_ANGLE_UNIT ( ) SI_UNIT ( $, .RADIAN. ) );
#90 = EDGE_LOOP ( 'NONE', ( #283, #232 ) ) ;
#91 = FACE_OUTER_BOUND ( 'NONE', #155, .T. ) ;
#92 = COLOUR_RGB ( '',1.000000000000000000, 0.000000000000000000, 0.000000000000000000 ) ;
#93 = SURFACE_STYLE_FILL_AREA ( #261 ) ;
#94 = VERTEX_POINT ( 'NONE', #183 ) ;
#95 = AXIS2_PLACEMENT_3D ( 'NONE', #275, #276, #65 ) ;
#96 = CIRCLE ( 'NONE', #10, 0.2500000000000000000 ) ;
#97 = DIRECTION ( 'NONE',  ( 0.000000000000000000, 1.000000000000000000, 0.000000000000000000 ) ) ;
#98 = DIRECTION ( 'NONE',  ( 1.000000000000000000, 0.000000000000000000, 0.000000000000000000 ) ) ;
#99 = SURFACE_STYLE_FILL_AREA ( #145 ) ;
#100 = FILL_AREA_STYLE ('',( #4 ) ) ;
#101 =( CONVERSION_BASED_UNIT ( 'INCH', #165 ) LENGTH_UNIT ( ) NAMED_UNIT ( #110 ) );
#102 = EDGE_CURVE ( 'NONE', #299, #39, #40, .T. ) ;
#103 =( NAMED_UNIT ( * ) PLANE_ANGLE_UNIT ( ) SI_UNIT ( $, .RADIAN. ) );
#104 = VERTEX_POINT ( 'NONE', #203 ) ;
#105 = EDGE_CURVE ( 'NONE', #104, #39, #235, .T. ) ;
#106 = LENGTH_MEASURE_WITH_UNIT ( LENGTH_MEASURE( 0.02539999999999999897 ), #108 );
#107 = SURFACE_STYLE_FILL_AREA ( #8 ) ;
#108 =( LENGTH_UNIT ( ) NAMED_UNIT ( * ) SI_UNIT ( $, .METRE. ) );
#109 = FACE_OUTER_BOUND ( 'NONE', #123, .T. ) ;
#110 = DIMENSIONAL_EXPONENTS ( 1.000000000000000000, 0.000000000000000000, 0.000000000000000000, 0.000000000000000000, 0.000000000000000000, 0.000000000000000000, 0.000000000000000000 ) ;
#111 = UNCERTAINTY_MEASURE_WITH_UNIT (LENGTH_MEASURE( 1.000000000000000082E-05 ), #219, 'distance_accuracy_value', 'NONE');
#112 = ORIENTED_EDGE ( 'NONE', *, *, #290, .T. ) ;
#113 = MANIFOLD_SOLID_BREP ( 'Revolve - Tool Body (Straight Shanked)', #153 ) ;
#114 = AXIS2_PLACEMENT_3D ( 'NONE', #213, #307, #17 ) ;
#115 = CARTESIAN_POINT ( 'NONE',  ( -1.224646799147352714E-16, 4.000000000000000000, 0.000000000000000000 ) ) ;
#116 = EDGE_CURVE ( 'NONE', #94, #186, #28, .T. ) ;
#117 = CARTESIAN_POINT ( 'NONE',  ( 3.061616997868383018E-17, 0.000000000000000000, 0.2500000000000000000 ) ) ;
#118 =( CONVERSION_BASED_UNIT ( 'INCH', #160 ) LENGTH_UNIT ( ) NAMED_UNIT ( #210 ) );
#119 = CARTESIAN_POINT ( 'NONE',  ( 0.000000000000000000, 0.000000000000000000, 0.000000000000000000 ) ) ;
#120 = PLANE ( 'NONE',  #1 ) ;
#121 =( LENGTH_UNIT ( ) NAMED_UNIT ( * ) SI_UNIT ( $, .METRE. ) );
#122 = AXIS2_PLACEMENT_3D ( 'NONE', #50, #137, #188 ) ;
#123 = EDGE_LOOP ( 'NONE', ( #259, #218, #216, #18 ) ) ;
#124 = PRESENTATION_LAYER_ASSIGNMENT (  '', '', ( #280 ) ) ;
#125 = AXIS2_PLACEMENT_3D ( 'NONE', #268, #97, #2 ) ;
#126 =( GEOMETRIC_REPRESENTATION_CONTEXT ( 3 ) GLOBAL_UNCERTAINTY_ASSIGNED_CONTEXT ( ( #111 ) ) GLOBAL_UNIT_ASSIGNED_CONTEXT ( ( #219, #73, #26 ) ) REPRESENTATION_CONTEXT ( 'NONE', 'WORKASPACE' ) );
#127 = ORIENTED_EDGE ( 'NONE', *, *, #303, .T. ) ;
#128 = FILL_AREA_STYLE_COLOUR ( '', #92 ) ;
#129 =( LENGTH_UNIT ( ) NAMED_UNIT ( * ) SI_UNIT ( $, .METRE. ) );
#130 = ORIENTED_EDGE ( 'NONE', *, *, #105, .T. ) ;
#131 = CYLINDRICAL_SURFACE ( 'NONE', #181, 0.2500000000000000000 ) ;
#132 = FILL_AREA_STYLE_COLOUR ( '', #158 ) ;
#133 = DIRECTION ( 'NONE',  ( 0.000000000000000000, 0.000000000000000000, -1.000000000000000000 ) ) ;
#134 = LENGTH_MEASURE_WITH_UNIT ( LENGTH_MEASURE( 0.02539999999999999897 ), #237 );
#135 = DIMENSIONAL_EXPONENTS ( 1.000000000000000000, 0.000000000000000000, 0.000000000000000000, 0.000000000000000000, 0.000000000000000000, 0.000000000000000000, 0.000000000000000000 ) ;
#136 = LENGTH_MEASURE_WITH_UNIT ( LENGTH_MEASURE( 0.02539999999999999897 ), #121 );
#137 = DIRECTION ( 'NONE',  ( -5.156407575357275299E-17, 1.000000000000000000, -0.000000000000000000 ) ) ;
#138 = VERTEX_POINT ( 'NONE', #171 ) ;
#139 = AXIS2_PLACEMENT_3D ( 'NONE', #177, #201, #229 ) ;
#140 = AXIS2_PLACEMENT_3D ( 'NONE', #115, #238, #264 ) ;
#141 = SHAPE_DEFINITION_REPRESENTATION ( #189, #14 ) ;
#142 = DIRECTION ( 'NONE',  ( -0.000000000000000000, -1.000000000000000000, -0.000000000000000000 ) ) ;
#143 =( CONVERSION_BASED_UNIT ( 'INCH', #136 ) LENGTH_UNIT ( ) NAMED_UNIT ( #267 ) );
#144 = PLANE ( 'NONE',  #125 ) ;
#145 = FILL_AREA_STYLE ('',( #220 ) ) ;
#146 = APPLICATION_CONTEXT ( 'automotive_design' ) ;
#147 = STYLED_ITEM ( 'NONE', ( #176 ), #70 ) ;
#148 = CARTESIAN_POINT ( 'NONE',  ( 0.000000000000000000, 0.000000000000000000, -0.2500000000000000000 ) ) ;
#149 =( NAMED_UNIT ( * ) SI_UNIT ( $, .STERADIAN. ) SOLID_ANGLE_UNIT ( ) );
#150 = CIRCLE ( 'NONE', #250, 0.2500000000000000555 ) ;
#151 = STYLED_ITEM ( 'NONE', ( #228 ), #178 ) ;
#152 = SURFACE_STYLE_USAGE ( .BOTH. , #274 ) ;
#153 = CLOSED_SHELL ( 'NONE', ( #258, #297, #239, #278 ) ) ;
#154 = FACE_OUTER_BOUND ( 'NONE', #221, .T. ) ;
#155 = EDGE_LOOP ( 'NONE', ( #87, #256 ) ) ;
#156 = DIRECTION ( 'NONE',  ( -5.156407575357275916E-17, 1.000000000000000000, -0.000000000000000000 ) ) ;
#157 = DIMENSIONAL_EXPONENTS ( 1.000000000000000000, 0.000000000000000000, 0.000000000000000000, 0.000000000000000000, 0.000000000000000000, 0.000000000000000000, 0.000000000000000000 ) ;
#158 = COLOUR_RGB ( '',1.000000000000000000, 0.000000000000000000, 0.000000000000000000 ) ;
#159 = PRODUCT_DEFINITION_FORMATION_WITH_SPECIFIED_SOURCE ( 'ANY', '', #172, .NOT_KNOWN. ) ;
#160 = LENGTH_MEASURE_WITH_UNIT ( LENGTH_MEASURE( 0.02539999999999999897 ), #306 );
#161 = PLANE ( 'NONE',  #114 ) ;
#162 = CARTESIAN_POINT ( 'NONE',  ( 3.061616997868383018E-17, 0.000000000000000000, 0.2500000000000000000 ) ) ;
#163 =( NAMED_UNIT ( * ) SI_UNIT ( $, .STERADIAN. ) SOLID_ANGLE_UNIT ( ) );
#164 = DIRECTION ( 'NONE',  ( -5.156407575357275299E-17, 1.000000000000000000, -0.000000000000000000 ) ) ;
#165 = LENGTH_MEASURE_WITH_UNIT ( LENGTH_MEASURE( 0.02539999999999999897 ), #29 );
#166 = CLOSED_SHELL ( 'NONE', ( #70, #178, #58, #240 ) ) ;
#167 = EDGE_LOOP ( 'NONE', ( #230, #13, #180, #64 ) ) ;
#168 = EDGE_CURVE ( 'NONE', #42, #22, #96, .T. ) ;
#169 =( NAMED_UNIT ( * ) PLANE_ANGLE_UNIT ( ) SI_UNIT ( $, .RADIAN. ) );
#170 = CYLINDRICAL_SURFACE ( 'NONE', #139, 0.2500000000000000000 ) ;
#171 = CARTESIAN_POINT ( 'NONE',  ( 0.2500000000000000555, 1.625000000000000000, 3.061616997868384867E-17 ) ) ;
#172 = PRODUCT ( '44302W', '44302W', '', ( #49 ) ) ;
#173 = DIRECTION ( 'NONE',  ( 0.000000000000000000, 0.000000000000000000, -1.000000000000000000 ) ) ;
#174 = DIRECTION ( 'NONE',  ( -0.000000000000000000, -1.000000000000000000, -0.000000000000000000 ) ) ;
#175 = AXIS2_PLACEMENT_3D ( 'NONE', #3, #217, #98 ) ;
#176 = PRESENTATION_STYLE_ASSIGNMENT (( #296 ) ) ;
#177 = CARTESIAN_POINT ( 'NONE',  ( 0.000000000000000000, 0.000000000000000000, 0.000000000000000000 ) ) ;
#178 = ADVANCED_FACE ( 'NONE', ( #222 ), #144, .T. ) ;
#179 = CARTESIAN_POINT ( 'NONE',  ( -0.2500000000000002220, 4.000000000000000000, 0.000000000000000000 ) ) ;
#180 = ORIENTED_EDGE ( 'NONE', *, *, #35, .F. ) ;
#181 = AXIS2_PLACEMENT_3D ( 'NONE', #298, #174, #86 ) ;
#182 = DIMENSIONAL_EXPONENTS ( 1.000000000000000000, 0.000000000000000000, 0.000000000000000000, 0.000000000000000000, 0.000000000000000000, 0.000000000000000000, 0.000000000000000000 ) ;
#183 = CARTESIAN_POINT ( 'NONE',  ( 3.061616997868383634E-17, 1.625000000000000000, 0.2500000000000000555 ) ) ;
#184 = VECTOR ( 'NONE', #156, 39.37007874015748143 ) ;
#185 = VECTOR ( 'NONE', #197, 39.37007874015748143 ) ;
#186 = VERTEX_POINT ( 'NONE', #248 ) ;
#187 = EDGE_CURVE ( 'NONE', #138, #299, #272, .T. ) ;
#188 = DIRECTION ( 'NONE',  ( -1.000000000000000000, 0.000000000000000000, 0.000000000000000000 ) ) ;
#189 = PRODUCT_DEFINITION_SHAPE ( 'NONE', 'NONE',  #20 ) ;
#190 = CARTESIAN_POINT ( 'NONE',  ( -0.2500000000000000555, 1.625000000000000000, 0.000000000000000000 ) ) ;
#191 = CARTESIAN_POINT ( 'NONE',  ( 0.000000000000000000, 0.000000000000000000, -0.2500000000000000000 ) ) ;
#192 = COLOUR_RGB ( '',1.000000000000000000, 0.000000000000000000, 0.000000000000000000 ) ;
#193 = EDGE_CURVE ( 'NONE', #138, #104, #23, .T. ) ;
#194 = PRESENTATION_STYLE_ASSIGNMENT (( #45 ) ) ;
#195 = CARTESIAN_POINT ( 'NONE',  ( 0.2499999999999999722, 4.000000000000000000, 3.061616997868384251E-17 ) ) ;
#196 = SURFACE_SIDE_STYLE ('',( #99 ) ) ;
#197 = DIRECTION ( 'NONE',  ( -5.156407575357275916E-17, 1.000000000000000000, -0.000000000000000000 ) ) ;
#198 =( GEOMETRIC_REPRESENTATION_CONTEXT ( 3 ) GLOBAL_UNCERTAINTY_ASSIGNED_CONTEXT ( ( #85 ) ) GLOBAL_UNIT_ASSIGNED_CONTEXT ( ( #233, #89, #247 ) ) REPRESENTATION_CONTEXT ( 'NONE', 'WORKASPACE' ) );
#199 = ORIENTED_EDGE ( 'NONE', *, *, #35, .T. ) ;
#200 =( NAMED_UNIT ( * ) SI_UNIT ( $, .STERADIAN. ) SOLID_ANGLE_UNIT ( ) );
#201 = DIRECTION ( 'NONE',  ( -0.000000000000000000, -1.000000000000000000, -0.000000000000000000 ) ) ;
#202 = DIRECTION ( 'NONE',  ( 0.000000000000000000, 0.000000000000000000, -1.000000000000000000 ) ) ;
#203 = CARTESIAN_POINT ( 'NONE',  ( 0.2500000000000000555, 4.000000000000000000, 3.061616997868384867E-17 ) ) ;
#204 = PRESENTATION_LAYER_ASSIGNMENT (  '', '', ( #147 ) ) ;
#205 = AXIS2_PLACEMENT_3D ( 'NONE', #119, #304, #68 ) ;
#206 = CARTESIAN_POINT ( 'NONE',  ( 0.000000000000000000, 1.625000000000000000, 0.000000000000000000 ) ) ;
#207 = PRESENTATION_STYLE_ASSIGNMENT (( #41 ) ) ;
#208 = CYLINDRICAL_SURFACE ( 'NONE', #251, 0.2500000000000001110 ) ;
#209 = EDGE_LOOP ( 'NONE', ( #25, #72 ) ) ;
#210 = DIMENSIONAL_EXPONENTS ( 1.000000000000000000, 0.000000000000000000, 0.000000000000000000, 0.000000000000000000, 0.000000000000000000, 0.000000000000000000, 0.000000000000000000 ) ;
#211 = MECHANICAL_DESIGN_GEOMETRIC_PRESENTATION_REPRESENTATION (  '', ( #280 ), #243 ) ;
#212 = STYLED_ITEM ( 'NONE', ( #254 ), #214 ) ;
#213 = CARTESIAN_POINT ( 'NONE',  ( 0.2500000000000000555, 4.000000000000000000, 0.000000000000000000 ) ) ;
#214 = MANIFOLD_SOLID_BREP ( 'Revolve - Cutting Edge', #166 ) ;
#215 = DIRECTION ( 'NONE',  ( -0.000000000000000000, -1.000000000000000000, -0.000000000000000000 ) ) ;
#216 = ORIENTED_EDGE ( 'NONE', *, *, #102, .T. ) ;
#217 = DIRECTION ( 'NONE',  ( 0.000000000000000000, 0.000000000000000000, 1.000000000000000000 ) ) ;
#218 = ORIENTED_EDGE ( 'NONE', *, *, #187, .T. ) ;
#219 =( CONVERSION_BASED_UNIT ( 'INCH', #24 ) LENGTH_UNIT ( ) NAMED_UNIT ( #135 ) );
#220 = FILL_AREA_STYLE_COLOUR ( '', #192 ) ;
#221 = EDGE_LOOP ( 'NONE', ( #53, #112, #309, #242 ) ) ;
#222 = FACE_OUTER_BOUND ( 'NONE', #209, .T. ) ;
#223 = EDGE_LOOP ( 'NONE', ( #199, #130 ) ) ;
#224 = DIRECTION ( 'NONE',  ( -1.000000000000000000, 0.000000000000000000, 0.000000000000000000 ) ) ;
#225 =( GEOMETRIC_REPRESENTATION_CONTEXT ( 3 ) GLOBAL_UNCERTAINTY_ASSIGNED_CONTEXT ( ( #270 ) ) GLOBAL_UNIT_ASSIGNED_CONTEXT ( ( #46, #33, #82 ) ) REPRESENTATION_CONTEXT ( 'NONE', 'WORKASPACE' ) );
#226 = UNCERTAINTY_MEASURE_WITH_UNIT (LENGTH_MEASURE( 1.000000000000000082E-05 ), #253, 'distance_accuracy_value', 'NONE');
#227 = STYLED_ITEM ( 'NONE', ( #241 ), #113 ) ;
#228 = PRESENTATION_STYLE_ASSIGNMENT (( #305 ) ) ;
#229 = DIRECTION ( 'NONE',  ( 0.000000000000000000, 0.000000000000000000, -1.000000000000000000 ) ) ;
#230 = ORIENTED_EDGE ( 'NONE', *, *, #36, .T. ) ;
#231 = CARTESIAN_POINT ( 'NONE',  ( -1.224646799147352714E-16, 4.000000000000000000, 0.000000000000000000 ) ) ;
#232 = ORIENTED_EDGE ( 'NONE', *, *, #252, .T. ) ;
#233 =( CONVERSION_BASED_UNIT ( 'INCH', #134 ) LENGTH_UNIT ( ) NAMED_UNIT ( #260 ) );
#234 = FACE_OUTER_BOUND ( 'NONE', #90, .T. ) ;
#235 = CIRCLE ( 'NONE', #95, 0.2500000000000001665 ) ;
#236 =( GEOMETRIC_REPRESENTATION_CONTEXT ( 3 ) GLOBAL_UNCERTAINTY_ASSIGNED_CONTEXT ( ( #294 ) ) GLOBAL_UNIT_ASSIGNED_CONTEXT ( ( #143, #77, #163 ) ) REPRESENTATION_CONTEXT ( 'NONE', 'WORKASPACE' ) );
#237 =( LENGTH_UNIT ( ) NAMED_UNIT ( * ) SI_UNIT ( $, .METRE. ) );
#238 = DIRECTION ( 'NONE',  ( -5.156407575357275299E-17, 1.000000000000000000, -0.000000000000000000 ) ) ;
#239 = ADVANCED_FACE ( 'NONE', ( #109 ), #208, .T. ) ;
#240 = ADVANCED_FACE ( 'NONE', ( #234 ), #120, .T. ) ;
#241 = PRESENTATION_STYLE_ASSIGNMENT (( #152 ) ) ;
#242 = ORIENTED_EDGE ( 'NONE', *, *, #303, .F. ) ;
#243 =( GEOMETRIC_REPRESENTATION_CONTEXT ( 3 ) GLOBAL_UNCERTAINTY_ASSIGNED_CONTEXT ( ( #38 ) ) GLOBAL_UNIT_ASSIGNED_CONTEXT ( ( #101, #103, #200 ) ) REPRESENTATION_CONTEXT ( 'NONE', 'WORKASPACE' ) );
#244 = DIRECTION ( 'NONE',  ( -1.000000000000000000, 0.000000000000000000, 0.000000000000000000 ) ) ;
#245 = DIRECTION ( 'NONE',  ( 0.000000000000000000, -1.000000000000000000, -0.000000000000000000 ) ) ;
#246 = FACE_OUTER_BOUND ( 'NONE', #284, .T. ) ;
#247 =( NAMED_UNIT ( * ) SI_UNIT ( $, .STERADIAN. ) SOLID_ANGLE_UNIT ( ) );
#248 = CARTESIAN_POINT ( 'NONE',  ( 0.000000000000000000, 1.625000000000000000, -0.2500000000000000555 ) ) ;
#249 = CIRCLE ( 'NONE', #205, 0.2500000000000000000 ) ;
#250 = AXIS2_PLACEMENT_3D ( 'NONE', #37, #7, #133 ) ;
#251 = AXIS2_PLACEMENT_3D ( 'NONE', #231, #66, #44 ) ;
#252 = EDGE_CURVE ( 'NONE', #22, #42, #249, .T. ) ;
#253 =( CONVERSION_BASED_UNIT ( 'INCH', #106 ) LENGTH_UNIT ( ) NAMED_UNIT ( #182 ) );
#254 = PRESENTATION_STYLE_ASSIGNMENT (( #273 ) ) ;
#255 =( NAMED_UNIT ( * ) SI_UNIT ( $, .STERADIAN. ) SOLID_ANGLE_UNIT ( ) );
#256 = ORIENTED_EDGE ( 'NONE', *, *, #187, .F. ) ;
#257 = PRESENTATION_LAYER_ASSIGNMENT (  '', '', ( #88 ) ) ;
#258 = ADVANCED_FACE ( 'NONE', ( #48 ), #279, .T. ) ;
#259 = ORIENTED_EDGE ( 'NONE', *, *, #193, .F. ) ;
#260 = DIMENSIONAL_EXPONENTS ( 1.000000000000000000, 0.000000000000000000, 0.000000000000000000, 0.000000000000000000, 0.000000000000000000, 0.000000000000000000, 0.000000000000000000 ) ;
#261 = FILL_AREA_STYLE ('',( #132 ) ) ;
#262 = LINE ( 'NONE', #117, #6 ) ;
#263 = LINE ( 'NONE', #191, #59 ) ;
#264 = DIRECTION ( 'NONE',  ( -1.000000000000000000, 0.000000000000000000, 0.000000000000000000 ) ) ;
#265 = CIRCLE ( 'NONE', #62, 0.2500000000000000555 ) ;
#266 = MECHANICAL_DESIGN_GEOMETRIC_PRESENTATION_REPRESENTATION (  '', ( #151 ), #198 ) ;
#267 = DIMENSIONAL_EXPONENTS ( 1.000000000000000000, 0.000000000000000000, 0.000000000000000000, 0.000000000000000000, 0.000000000000000000, 0.000000000000000000, 0.000000000000000000 ) ;
#268 = CARTESIAN_POINT ( 'NONE',  ( 0.000000000000000000, 1.625000000000000000, 0.000000000000000000 ) ) ;
#269 = LENGTH_MEASURE_WITH_UNIT ( LENGTH_MEASURE( 0.02539999999999999897 ), #129 );
#270 = UNCERTAINTY_MEASURE_WITH_UNIT (LENGTH_MEASURE( 1.000000000000000082E-05 ), #46, 'distance_accuracy_value', 'NONE');
#271 = FILL_AREA_STYLE ('',( #43 ) ) ;
#272 = CIRCLE ( 'NONE', #69, 0.2500000000000000555 ) ;
#273 = SURFACE_STYLE_USAGE ( .BOTH. , #30 ) ;
#274 = SURFACE_SIDE_STYLE ('',( #295 ) ) ;
#275 = CARTESIAN_POINT ( 'NONE',  ( -1.224646799147352714E-16, 4.000000000000000000, 0.000000000000000000 ) ) ;
#276 = DIRECTION ( 'NONE',  ( -5.156407575357275299E-17, 1.000000000000000000, -0.000000000000000000 ) ) ;
#277 = SURFACE_SIDE_STYLE ('',( #93 ) ) ;
#278 = ADVANCED_FACE ( 'NONE', ( #16 ), #161, .F. ) ;
#279 = CYLINDRICAL_SURFACE ( 'NONE', #140, 0.2500000000000001110 ) ;
#280 = STYLED_ITEM ( 'NONE', ( #194 ), #58 ) ;
#281 = DIRECTION ( 'NONE',  ( -1.000000000000000000, -5.156407575357275916E-17, 0.000000000000000000 ) ) ;
#282 = DIRECTION ( 'NONE',  ( -5.156407575357275916E-17, 1.000000000000000000, 0.000000000000000000 ) ) ;
#283 = ORIENTED_EDGE ( 'NONE', *, *, #168, .T. ) ;
#284 = EDGE_LOOP ( 'NONE', ( #302, #32, #127, #75 ) ) ;
#285 = APPLICATION_CONTEXT ( 'automotive_design' ) ;
#286 = MECHANICAL_DESIGN_GEOMETRIC_PRESENTATION_REPRESENTATION (  '', ( #147 ), #5 ) ;
#287 = MECHANICAL_DESIGN_GEOMETRIC_PRESENTATION_REPRESENTATION (  '', ( #88 ), #225 ) ;
#288 = DIRECTION ( 'NONE',  ( -0.000000000000000000, -1.000000000000000000, -0.000000000000000000 ) ) ;
#289 = DIRECTION ( 'NONE',  ( -5.156407575357275299E-17, 1.000000000000000000, -0.000000000000000000 ) ) ;
#290 = EDGE_CURVE ( 'NONE', #94, #22, #262, .T. ) ;
#291 = CIRCLE ( 'NONE', #122, 0.2500000000000001665 ) ;
#292 = MECHANICAL_DESIGN_GEOMETRIC_PRESENTATION_REPRESENTATION (  '', ( #212 ), #126 ) ;
#293 = SURFACE_SIDE_STYLE ('',( #9 ) ) ;
#294 = UNCERTAINTY_MEASURE_WITH_UNIT (LENGTH_MEASURE( 1.000000000000000082E-05 ), #143, 'distance_accuracy_value', 'NONE');
#295 = SURFACE_STYLE_FILL_AREA ( #271 ) ;
#296 = SURFACE_STYLE_USAGE ( .BOTH. , #293 ) ;
#297 = ADVANCED_FACE ( 'NONE', ( #91 ), #51, .F. ) ;
#298 = CARTESIAN_POINT ( 'NONE',  ( 0.000000000000000000, 0.000000000000000000, 0.000000000000000000 ) ) ;
#299 = VERTEX_POINT ( 'NONE', #190 ) ;
#300 =( NAMED_UNIT ( * ) PLANE_ANGLE_UNIT ( ) SI_UNIT ( $, .RADIAN. ) );
#301 =( GEOMETRIC_REPRESENTATION_CONTEXT ( 3 ) GLOBAL_UNCERTAINTY_ASSIGNED_CONTEXT ( ( #67 ) ) GLOBAL_UNIT_ASSIGNED_CONTEXT ( ( #118, #169, #149 ) ) REPRESENTATION_CONTEXT ( 'NONE', 'WORKASPACE' ) );
#302 = ORIENTED_EDGE ( 'NONE', *, *, #290, .F. ) ;
#303 = EDGE_CURVE ( 'NONE', #186, #42, #263, .T. ) ;
#304 = DIRECTION ( 'NONE',  ( -0.000000000000000000, -1.000000000000000000, -0.000000000000000000 ) ) ;
#305 = SURFACE_STYLE_USAGE ( .BOTH. , #196 ) ;
#306 =( LENGTH_UNIT ( ) NAMED_UNIT ( * ) SI_UNIT ( $, .METRE. ) );
#307 = DIRECTION ( 'NONE',  ( 5.156407575357275916E-17, -1.000000000000000000, 0.000000000000000000 ) ) ;
#308 = MECHANICAL_DESIGN_GEOMETRIC_PRESENTATION_REPRESENTATION (  '', ( #227 ), #301 ) ;
#309 = ORIENTED_EDGE ( 'NONE', *, *, #168, .F. ) ;
ENDSEC;
END-ISO-10303-21;
