ISO-10303-21;
HEADER;
FILE_DESCRIPTION (( 'STEP AP214' ),
    '1' );
FILE_NAME ('Micro_GELM-250-2X.STEP',
    '2021-09-01T18:41:04',
    ( '' ),
    ( '' ),
    'SwSTEP 2.0',
    'SolidWorks 2020',
    '' );
FILE_SCHEMA (( 'AUTOMOTIVE_DESIGN' ));
ENDSEC;

DATA;
#1 = EDGE_LOOP ( 'NONE', ( #169, #204, #277, #93 ) ) ;
#2 = DIRECTION ( 'NONE',  ( -1.000000000000000000, 0.0000000000000000000, 1.224646799147353454E-16 ) ) ;
#3 =( NAMED_UNIT ( * ) PLANE_ANGLE_UNIT ( ) SI_UNIT ( $, .RADIAN. ) );
#4 = DIRECTION ( 'NONE',  ( 1.000000000000000000, 0.0000000000000000000, 0.0000000000000000000 ) ) ;
#5 = CIRCLE ( 'NONE', #34, 0.4916338740000000262 ) ;
#6 = COLOUR_RGB ( '',0.7921568627450980005, 0.8196078431372548767, 0.9333333333333333481 ) ;
#7 = CYLINDRICAL_SURFACE ( 'NONE', #240, 0.4916338740000000262 ) ;
#8 = PRODUCT_CONTEXT ( 'NONE', #123, 'mechanical' ) ;
#9 = EDGE_LOOP ( 'NONE', ( #286, #141 ) ) ;
#10 = ORIENTED_EDGE ( 'NONE', *, *, #50, .T. ) ;
#11 = ORIENTED_EDGE ( 'NONE', *, *, #98, .T. ) ;
#12 = LINE ( 'NONE', #84, #135 ) ;
#13 = CLOSED_SHELL ( 'NONE', ( #297, #149, #285, #116, #25, #270, #75, #261, #35, #180 ) ) ;
#14 = MECHANICAL_DESIGN_GEOMETRIC_PRESENTATION_REPRESENTATION (  '', ( #208 ), #21 ) ;
#15 = DIRECTION ( 'NONE',  ( -1.000000000000000000, 0.0000000000000000000, 0.0000000000000000000 ) ) ;
#16 = CARTESIAN_POINT ( 'NONE',  ( 0.0000000000000000000, 0.0000000000000000000, 5.905511999999999873 ) ) ;
#17 = DIRECTION ( 'NONE',  ( 0.1736481776669313026, 0.0000000000000000000, 0.9848077530122077983 ) ) ;
#18 = CARTESIAN_POINT ( 'NONE',  ( 0.0000000000000000000, 0.0000000000000000000, 5.905511999999999873 ) ) ;
#19 = FILL_AREA_STYLE_COLOUR ( '', #6 ) ;
#20 = PRODUCT_DEFINITION_SHAPE ( 'NONE', 'NONE',  #127 ) ;
#21 =( GEOMETRIC_REPRESENTATION_CONTEXT ( 3 ) GLOBAL_UNCERTAINTY_ASSIGNED_CONTEXT ( ( #206 ) ) GLOBAL_UNIT_ASSIGNED_CONTEXT ( ( #31, #124, #174 ) ) REPRESENTATION_CONTEXT ( 'NONE', 'WORKASPACE' ) );
#22 = DIRECTION ( 'NONE',  ( -1.000000000000000000, 0.0000000000000000000, 0.0000000000000000000 ) ) ;
#23 = UNCERTAINTY_MEASURE_WITH_UNIT (LENGTH_MEASURE( 1.000000000000000082E-05 ), #189, 'distance_accuracy_value', 'NONE');
#24 = DIRECTION ( 'NONE',  ( -1.224646799147353207E-16, -0.0000000000000000000, -1.000000000000000000 ) ) ;
#25 = ADVANCED_FACE ( 'NONE', ( #85 ), #61, .T. ) ;
#26 = DIRECTION ( 'NONE',  ( -1.224646799147353207E-16, -0.0000000000000000000, -1.000000000000000000 ) ) ;
#27 = COLOUR_RGB ( '',0.7921568627450980005, 0.8196078431372548767, 0.9333333333333333481 ) ;
#28 =( LENGTH_UNIT ( ) NAMED_UNIT ( * ) SI_UNIT ( $, .METRE. ) );
#29 = EDGE_LOOP ( 'NONE', ( #166, #144, #275, #71 ) ) ;
#30 = CARTESIAN_POINT ( 'NONE',  ( 0.0000000000000000000, 0.0000000000000000000, 0.0000000000000000000 ) ) ;
#31 =( CONVERSION_BASED_UNIT ( 'INCH', #55 ) LENGTH_UNIT ( ) NAMED_UNIT ( #265 ) );
#32 = ORIENTED_EDGE ( 'NONE', *, *, #83, .F. ) ;
#33 = FACE_OUTER_BOUND ( 'NONE', #42, .T. ) ;
#34 = AXIS2_PLACEMENT_3D ( 'NONE', #91, #36, #37 ) ;
#35 = ADVANCED_FACE ( 'NONE', ( #249 ), #157, .T. ) ;
#36 = DIRECTION ( 'NONE',  ( -1.224646799147353207E-16, -0.0000000000000000000, -1.000000000000000000 ) ) ;
#37 = DIRECTION ( 'NONE',  ( -1.000000000000000000, 0.0000000000000000000, 1.224646799147353454E-16 ) ) ;
#38 = CARTESIAN_POINT ( 'NONE',  ( -0.4771260000000020485, 0.0000000000000000000, 5.905511999999999873 ) ) ;
#39 = CIRCLE ( 'NONE', #63, 0.4916338740000000262 ) ;
#40 = AXIS2_PLACEMENT_3D ( 'NONE', #299, #97, #4 ) ;
#41 = CARTESIAN_POINT ( 'NONE',  ( 0.0000000000000000000, 0.0000000000000000000, 0.0000000000000000000 ) ) ;
#42 = EDGE_LOOP ( 'NONE', ( #68, #10, #121, #210 ) ) ;
#43 = PRESENTATION_STYLE_ASSIGNMENT (( #77 ) ) ;
#44 = CONICAL_SURFACE ( 'NONE', #95, 0.4916338740000000262, 0.1745329251994338082 ) ;
#45 = EDGE_CURVE ( 'NONE', #192, #148, #283, .T. ) ;
#46 = VERTEX_POINT ( 'NONE', #140 ) ;
#47 = CARTESIAN_POINT ( 'NONE',  ( 0.4916338740000000262, 6.020778501465132931E-17, -6.020778501465132931E-17 ) ) ;
#48 = LINE ( 'NONE', #47, #243 ) ;
#49 = ORIENTED_EDGE ( 'NONE', *, *, #241, .T. ) ;
#50 = EDGE_CURVE ( 'NONE', #234, #192, #117, .T. ) ;
#51 = VERTEX_POINT ( 'NONE', #201 ) ;
#52 = AXIS2_PLACEMENT_3D ( 'NONE', #185, #92, #181 ) ;
#53 = STYLED_ITEM ( 'NONE', ( #43 ), #289 ) ;
#54 = ORIENTED_EDGE ( 'NONE', *, *, #215, .F. ) ;
#55 = LENGTH_MEASURE_WITH_UNIT ( LENGTH_MEASURE( 0.02539999999999999897 ), #28 );
#56 = AXIS2_PLACEMENT_3D ( 'NONE', #131, #62, #218 ) ;
#57 = CIRCLE ( 'NONE', #40, 0.4921260000000000634 ) ;
#58 = DIRECTION ( 'NONE',  ( 0.0000000000000000000, 0.0000000000000000000, -1.000000000000000000 ) ) ;
#59 = EDGE_CURVE ( 'NONE', #252, #192, #288, .T. ) ;
#60 = ORIENTED_EDGE ( 'NONE', *, *, #225, .F. ) ;
#61 = CYLINDRICAL_SURFACE ( 'NONE', #52, 0.4921260000000000634 ) ;
#62 = DIRECTION ( 'NONE',  ( 0.0000000000000000000, 0.0000000000000000000, -1.000000000000000000 ) ) ;
#63 = AXIS2_PLACEMENT_3D ( 'NONE', #276, #24, #2 ) ;
#64 = PRESENTATION_LAYER_ASSIGNMENT (  '', '', ( #53 ) ) ;
#65 = DIRECTION ( 'NONE',  ( 1.000000000000000000, 0.0000000000000000000, 0.0000000000000000000 ) ) ;
#66 = FACE_OUTER_BOUND ( 'NONE', #162, .T. ) ;
#67 = CARTESIAN_POINT ( 'NONE',  ( 3.616083184063142379E-16, 0.0000000000000000000, 2.952755999999999936 ) ) ;
#68 = ORIENTED_EDGE ( 'NONE', *, *, #171, .T. ) ;
#69 = CARTESIAN_POINT ( 'NONE',  ( 0.0000000000000000000, 0.0000000000000000000, 5.905511999999999873 ) ) ;
#70 = EDGE_CURVE ( 'NONE', #190, #234, #216, .T. ) ;
#71 = ORIENTED_EDGE ( 'NONE', *, *, #45, .T. ) ;
#72 = CARTESIAN_POINT ( 'NONE',  ( 0.4916338740000004148, 0.0000000000000000000, 2.952755999999999936 ) ) ;
#73 = ORIENTED_EDGE ( 'NONE', *, *, #274, .T. ) ;
#74 = UNCERTAINTY_MEASURE_WITH_UNIT (LENGTH_MEASURE( 1.000000000000000082E-05 ), #207, 'distance_accuracy_value', 'NONE');
#75 = ADVANCED_FACE ( 'NONE', ( #161 ), #287, .T. ) ;
#76 = ORIENTED_EDGE ( 'NONE', *, *, #98, .F. ) ;
#77 = SURFACE_STYLE_USAGE ( .BOTH. , #145 ) ;
#78 = ADVANCED_BREP_SHAPE_REPRESENTATION ( 'Micro_GELM-250-2X', ( #289, #212 ), #146 ) ;
#79 = AXIS2_PLACEMENT_3D ( 'NONE', #16, #269, #65 ) ;
#80 = APPLICATION_PROTOCOL_DEFINITION ( 'draft international standard', 'automotive_design', 1998, #139 ) ;
#81 = PRODUCT_RELATED_PRODUCT_CATEGORY ( 'part', '', ( #173 ) ) ;
#82 = PRESENTATION_LAYER_ASSIGNMENT (  '', '', ( #208 ) ) ;
#83 = EDGE_CURVE ( 'NONE', #232, #51, #12, .T. ) ;
#84 = CARTESIAN_POINT ( 'NONE',  ( -0.4771260000000020485, 0.0000000000000000000, 5.905511999999999873 ) ) ;
#85 = FACE_OUTER_BOUND ( 'NONE', #199, .T. ) ;
#86 = DIRECTION ( 'NONE',  ( 0.0000000000000000000, 0.0000000000000000000, 1.000000000000000000 ) ) ;
#87 = ORIENTED_EDGE ( 'NONE', *, *, #133, .F. ) ;
#88 = CARTESIAN_POINT ( 'NONE',  ( 0.0000000000000000000, 0.0000000000000000000, 5.890512000000001969 ) ) ;
#89 = DIRECTION ( 'NONE',  ( -1.224646799147353207E-16, -0.0000000000000000000, -1.000000000000000000 ) ) ;
#90 = DIRECTION ( 'NONE',  ( -1.000000000000000000, 0.0000000000000000000, 0.0000000000000000000 ) ) ;
#91 = CARTESIAN_POINT ( 'NONE',  ( 7.373327120194471968E-33, 0.0000000000000000000, 6.020778501465132931E-17 ) ) ;
#92 = DIRECTION ( 'NONE',  ( -0.0000000000000000000, -0.0000000000000000000, -1.000000000000000000 ) ) ;
#93 = ORIENTED_EDGE ( 'NONE', *, *, #59, .F. ) ;
#94 = FACE_OUTER_BOUND ( 'NONE', #29, .T. ) ;
#95 = AXIS2_PLACEMENT_3D ( 'NONE', #67, #112, #266 ) ;
#96 = PRODUCT_DEFINITION_FORMATION_WITH_SPECIFIED_SOURCE ( 'ANY', '', #173, .NOT_KNOWN. ) ;
#97 = DIRECTION ( 'NONE',  ( -1.224646799147353207E-16, -0.0000000000000000000, -1.000000000000000000 ) ) ;
#98 = EDGE_CURVE ( 'NONE', #115, #226, #197, .T. ) ;
#99 =( NAMED_UNIT ( * ) SI_UNIT ( $, .STERADIAN. ) SOLID_ANGLE_UNIT ( ) );
#100 = DIRECTION ( 'NONE',  ( -1.000000000000000000, 0.0000000000000000000, 1.224646799147353454E-16 ) ) ;
#101 = PRESENTATION_STYLE_ASSIGNMENT (( #147 ) ) ;
#102 = DIRECTION ( 'NONE',  ( 0.0000000000000000000, 0.0000000000000000000, 1.000000000000000000 ) ) ;
#103 = CIRCLE ( 'NONE', #220, 0.4921260000000000634 ) ;
#104 = CONICAL_SURFACE ( 'NONE', #280, 0.4771260000000020485, 0.7853981633974278509 ) ;
#105 = FILL_AREA_STYLE_COLOUR ( '', #27 ) ;
#106 = CIRCLE ( 'NONE', #152, 0.4771260000000020485 ) ;
#107 = LINE ( 'NONE', #113, #119 ) ;
#108 = DIRECTION ( 'NONE',  ( -0.1736481776669311083, 2.126576849575782084E-17, 0.9848077530122080203 ) ) ;
#109 = EDGE_LOOP ( 'NONE', ( #278, #49, #257, #76 ) ) ;
#110 = FACE_OUTER_BOUND ( 'NONE', #1, .T. ) ;
#111 = ORIENTED_EDGE ( 'NONE', *, *, #50, .F. ) ;
#112 = DIRECTION ( 'NONE',  ( 1.224646799147353207E-16, 0.0000000000000000000, 1.000000000000000000 ) ) ;
#113 = CARTESIAN_POINT ( 'NONE',  ( -0.4916338739999996932, 6.020778501465132931E-17, 2.952755999999999936 ) ) ;
#114 = LENGTH_MEASURE_WITH_UNIT ( LENGTH_MEASURE( 0.02539999999999999897 ), #118 );
#115 = VERTEX_POINT ( 'NONE', #292 ) ;
#116 = ADVANCED_FACE ( 'NONE', ( #33 ), #290, .T. ) ;
#117 = LINE ( 'NONE', #213, #182 ) ;
#118 =( LENGTH_UNIT ( ) NAMED_UNIT ( * ) SI_UNIT ( $, .METRE. ) );
#119 = VECTOR ( 'NONE', #108, 39.37007874015747433 ) ;
#120 = DIRECTION ( 'NONE',  ( 1.224646799147353207E-16, 0.0000000000000000000, 1.000000000000000000 ) ) ;
#121 = ORIENTED_EDGE ( 'NONE', *, *, #293, .F. ) ;
#122 = FILL_AREA_STYLE ('',( #105 ) ) ;
#123 = APPLICATION_CONTEXT ( 'automotive_design' ) ;
#124 =( NAMED_UNIT ( * ) PLANE_ANGLE_UNIT ( ) SI_UNIT ( $, .RADIAN. ) );
#125 = ORIENTED_EDGE ( 'NONE', *, *, #191, .T. ) ;
#126 = EDGE_CURVE ( 'NONE', #115, #148, #107, .T. ) ;
#127 = PRODUCT_DEFINITION ( 'UNKNOWN', '', #96, #224 ) ;
#128 = CIRCLE ( 'NONE', #56, 0.4921260000000000634 ) ;
#129 = DIRECTION ( 'NONE',  ( -0.0000000000000000000, -0.0000000000000000000, -1.000000000000000000 ) ) ;
#130 = CIRCLE ( 'NONE', #211, 0.4916338740000000262 ) ;
#131 = CARTESIAN_POINT ( 'NONE',  ( 0.0000000000000000000, 0.0000000000000000000, 5.890512000000001969 ) ) ;
#132 = CARTESIAN_POINT ( 'NONE',  ( -0.4921260000000000634, 0.0000000000000000000, 5.905511999999999873 ) ) ;
#133 = EDGE_CURVE ( 'NONE', #190, #232, #106, .T. ) ;
#134 = CARTESIAN_POINT ( 'NONE',  ( 3.616083184063142379E-16, 0.0000000000000000000, 2.952755999999999936 ) ) ;
#135 = VECTOR ( 'NONE', #156, 39.37007874015748143 ) ;
#136 = CARTESIAN_POINT ( 'NONE',  ( 0.4771260000000020485, 5.843108286899826453E-17, 5.905511999999999873 ) ) ;
#137 = CIRCLE ( 'NONE', #194, 0.4916338740000000262 ) ;
#138 = DIRECTION ( 'NONE',  ( 1.000000000000000000, 0.0000000000000000000, 0.0000000000000000000 ) ) ;
#139 = APPLICATION_CONTEXT ( 'automotive_design' ) ;
#140 = CARTESIAN_POINT ( 'NONE',  ( 0.4916338740000000262, 6.020778501465132931E-17, 0.0000000000000000000 ) ) ;
#141 = ORIENTED_EDGE ( 'NONE', *, *, #133, .T. ) ;
#142 = DIRECTION ( 'NONE',  ( -1.224646799147353207E-16, -0.0000000000000000000, -1.000000000000000000 ) ) ;
#143 = CARTESIAN_POINT ( 'NONE',  ( 3.616083184063142379E-16, 0.0000000000000000000, 2.952755999999999936 ) ) ;
#144 = ORIENTED_EDGE ( 'NONE', *, *, #284, .F. ) ;
#145 = SURFACE_SIDE_STYLE ('',( #281 ) ) ;
#146 =( GEOMETRIC_REPRESENTATION_CONTEXT ( 3 ) GLOBAL_UNCERTAINTY_ASSIGNED_CONTEXT ( ( #23 ) ) GLOBAL_UNIT_ASSIGNED_CONTEXT ( ( #189, #256, #151 ) ) REPRESENTATION_CONTEXT ( 'NONE', 'WORKASPACE' ) );
#147 = SURFACE_STYLE_USAGE ( .BOTH. , #262 ) ;
#148 = VERTEX_POINT ( 'NONE', #158 ) ;
#149 = ADVANCED_FACE ( 'NONE', ( #110 ), #44, .T. ) ;
#150 = ORIENTED_EDGE ( 'NONE', *, *, #171, .F. ) ;
#151 =( NAMED_UNIT ( * ) SI_UNIT ( $, .STERADIAN. ) SOLID_ANGLE_UNIT ( ) );
#152 = AXIS2_PLACEMENT_3D ( 'NONE', #296, #86, #198 ) ;
#153 = CARTESIAN_POINT ( 'NONE',  ( 0.0000000000000000000, 0.0000000000000000000, 0.0000000000000000000 ) ) ;
#154 = DIMENSIONAL_EXPONENTS ( 1.000000000000000000, 0.0000000000000000000, 0.0000000000000000000, 0.0000000000000000000, 0.0000000000000000000, 0.0000000000000000000, 0.0000000000000000000 ) ;
#155 = AXIS2_PLACEMENT_3D ( 'NONE', #231, #26, #259 ) ;
#156 = DIRECTION ( 'NONE',  ( -0.7071067811865330288, 0.0000000000000000000, -0.7071067811865620056 ) ) ;
#157 = CYLINDRICAL_SURFACE ( 'NONE', #214, 0.4916338740000000262 ) ;
#158 = CARTESIAN_POINT ( 'NONE',  ( -0.4921259999999997303, 0.0000000000000000000, 2.955546985236761071 ) ) ;
#159 = CARTESIAN_POINT ( 'NONE',  ( 0.4771260000000020485, 5.934956796835864798E-17, 5.905511999999999873 ) ) ;
#160 = DIMENSIONAL_EXPONENTS ( 1.000000000000000000, 0.0000000000000000000, 0.0000000000000000000, 0.0000000000000000000, 0.0000000000000000000, 0.0000000000000000000, 0.0000000000000000000 ) ;
#161 = FACE_OUTER_BOUND ( 'NONE', #179, .T. ) ;
#162 = EDGE_LOOP ( 'NONE', ( #125, #73 ) ) ;
#163 = PLANE ( 'NONE',  #175 ) ;
#164 = ORIENTED_EDGE ( 'NONE', *, *, #241, .F. ) ;
#165 = CARTESIAN_POINT ( 'NONE',  ( 3.616083184063142379E-16, 0.0000000000000000000, 2.952755999999999936 ) ) ;
#166 = ORIENTED_EDGE ( 'NONE', *, *, #126, .F. ) ;
#167 = DIRECTION ( 'NONE',  ( 0.0000000000000000000, 0.0000000000000000000, -1.000000000000000000 ) ) ;
#168 = AXIS2_PLACEMENT_3D ( 'NONE', #143, #120, #138 ) ;
#169 = ORIENTED_EDGE ( 'NONE', *, *, #227, .F. ) ;
#170 =( LENGTH_UNIT ( ) NAMED_UNIT ( * ) SI_UNIT ( $, .METRE. ) );
#171 = EDGE_CURVE ( 'NONE', #51, #234, #103, .T. ) ;
#172 = AXIS2_PLACEMENT_3D ( 'NONE', #18, #177, #15 ) ;
#173 = PRODUCT ( 'Micro_GELM-250-2X', 'Micro_GELM-250-2X', '', ( #8 ) ) ;
#174 =( NAMED_UNIT ( * ) SI_UNIT ( $, .STERADIAN. ) SOLID_ANGLE_UNIT ( ) );
#175 = AXIS2_PLACEMENT_3D ( 'NONE', #69, #233, #255 ) ;
#176 =( GEOMETRIC_REPRESENTATION_CONTEXT ( 3 ) GLOBAL_UNCERTAINTY_ASSIGNED_CONTEXT ( ( #74 ) ) GLOBAL_UNIT_ASSIGNED_CONTEXT ( ( #207, #3, #99 ) ) REPRESENTATION_CONTEXT ( 'NONE', 'WORKASPACE' ) );
#177 = DIRECTION ( 'NONE',  ( 0.0000000000000000000, 0.0000000000000000000, -1.000000000000000000 ) ) ;
#178 = DIRECTION ( 'NONE',  ( -1.224646799147353207E-16, -0.0000000000000000000, -1.000000000000000000 ) ) ;
#179 = EDGE_LOOP ( 'NONE', ( #291, #60, #268, #54 ) ) ;
#180 = ADVANCED_FACE ( 'NONE', ( #66 ), #271, .F. ) ;
#181 = DIRECTION ( 'NONE',  ( -1.000000000000000000, 0.0000000000000000000, 0.0000000000000000000 ) ) ;
#182 = VECTOR ( 'NONE', #250, 39.37007874015748143 ) ;
#183 = DIRECTION ( 'NONE',  ( -0.0000000000000000000, -0.0000000000000000000, -1.000000000000000000 ) ) ;
#184 = DIRECTION ( 'NONE',  ( 1.000000000000000000, 0.0000000000000000000, 0.0000000000000000000 ) ) ;
#185 = CARTESIAN_POINT ( 'NONE',  ( 0.0000000000000000000, 0.0000000000000000000, 5.905511999999999873 ) ) ;
#186 = CARTESIAN_POINT ( 'NONE',  ( 0.4921260000000003965, 6.026805306771908073E-17, 2.955546985236761071 ) ) ;
#187 = DIRECTION ( 'NONE',  ( -1.224646799147353207E-16, -0.0000000000000000000, -1.000000000000000000 ) ) ;
#188 = VECTOR ( 'NONE', #129, 39.37007874015748143 ) ;
#189 =( CONVERSION_BASED_UNIT ( 'INCH', #114 ) LENGTH_UNIT ( ) NAMED_UNIT ( #160 ) );
#190 = VERTEX_POINT ( 'NONE', #159 ) ;
#191 = EDGE_CURVE ( 'NONE', #226, #46, #5, .T. ) ;
#192 = VERTEX_POINT ( 'NONE', #186 ) ;
#193 = AXIS2_PLACEMENT_3D ( 'NONE', #153, #245, #267 ) ;
#194 = AXIS2_PLACEMENT_3D ( 'NONE', #165, #142, #230 ) ;
#195 = DIRECTION ( 'NONE',  ( 0.7071067811865330288, 8.659560562354755364E-17, -0.7071067811865620056 ) ) ;
#196 = EDGE_CURVE ( 'NONE', #51, #148, #242, .T. ) ;
#197 = LINE ( 'NONE', #295, #279 ) ;
#198 = DIRECTION ( 'NONE',  ( 1.000000000000000000, 0.0000000000000000000, 0.0000000000000000000 ) ) ;
#199 = EDGE_LOOP ( 'NONE', ( #111, #237, #229, #244 ) ) ;
#200 = CARTESIAN_POINT ( 'NONE',  ( 0.0000000000000000000, 0.0000000000000000000, 5.905511999999999873 ) ) ;
#201 = CARTESIAN_POINT ( 'NONE',  ( -0.4921260000000000634, 0.0000000000000000000, 5.890512000000001969 ) ) ;
#202 = CARTESIAN_POINT ( 'NONE',  ( 0.0000000000000000000, 0.0000000000000000000, 5.905511999999999873 ) ) ;
#203 = DIRECTION ( 'NONE',  ( -1.000000000000000000, 0.0000000000000000000, 1.224646799147353454E-16 ) ) ;
#204 = ORIENTED_EDGE ( 'NONE', *, *, #126, .T. ) ;
#205 = LENGTH_MEASURE_WITH_UNIT ( LENGTH_MEASURE( 0.02539999999999999897 ), #170 );
#206 = UNCERTAINTY_MEASURE_WITH_UNIT (LENGTH_MEASURE( 1.000000000000000082E-05 ), #31, 'distance_accuracy_value', 'NONE');
#207 =( CONVERSION_BASED_UNIT ( 'INCH', #205 ) LENGTH_UNIT ( ) NAMED_UNIT ( #154 ) );
#208 = STYLED_ITEM ( 'NONE', ( #101 ), #78 ) ;
#209 = APPLICATION_PROTOCOL_DEFINITION ( 'draft international standard', 'automotive_design', 1998, #123 ) ;
#210 = ORIENTED_EDGE ( 'NONE', *, *, #196, .F. ) ;
#211 = AXIS2_PLACEMENT_3D ( 'NONE', #134, #219, #247 ) ;
#212 = AXIS2_PLACEMENT_3D ( 'NONE', #30, #102, #235 ) ;
#213 = CARTESIAN_POINT ( 'NONE',  ( 0.4921260000000000634, 6.026805306771904375E-17, 5.905511999999999873 ) ) ;
#214 = AXIS2_PLACEMENT_3D ( 'NONE', #294, #89, #203 ) ;
#215 = EDGE_CURVE ( 'NONE', #234, #51, #128, .T. ) ;
#216 = LINE ( 'NONE', #136, #248 ) ;
#217 = ORIENTED_EDGE ( 'NONE', *, *, #274, .F. ) ;
#218 = DIRECTION ( 'NONE',  ( 1.000000000000000000, 0.0000000000000000000, 0.0000000000000000000 ) ) ;
#219 = DIRECTION ( 'NONE',  ( -1.224646799147353207E-16, -0.0000000000000000000, -1.000000000000000000 ) ) ;
#220 = AXIS2_PLACEMENT_3D ( 'NONE', #88, #58, #184 ) ;
#221 = CARTESIAN_POINT ( 'NONE',  ( 0.4916338740000004148, 0.0000000000000000000, 2.952755999999999936 ) ) ;
#222 = DIRECTION ( 'NONE',  ( -1.224646799147353207E-16, -0.0000000000000000000, -1.000000000000000000 ) ) ;
#223 = FACE_OUTER_BOUND ( 'NONE', #260, .T. ) ;
#224 = PRODUCT_DEFINITION_CONTEXT ( 'detailed design', #139, 'design' ) ;
#225 = EDGE_CURVE ( 'NONE', #232, #190, #258, .T. ) ;
#226 = VERTEX_POINT ( 'NONE', #246 ) ;
#227 = EDGE_CURVE ( 'NONE', #115, #252, #130, .T. ) ;
#228 = CONICAL_SURFACE ( 'NONE', #168, 0.4916338740000000262, 0.1745329251994338082 ) ;
#229 = ORIENTED_EDGE ( 'NONE', *, *, #196, .T. ) ;
#230 = DIRECTION ( 'NONE',  ( -1.000000000000000000, 0.0000000000000000000, 0.0000000000000000000 ) ) ;
#231 = CARTESIAN_POINT ( 'NONE',  ( 3.619501155199809429E-16, 0.0000000000000000000, 2.955546985236761071 ) ) ;
#232 = VERTEX_POINT ( 'NONE', #38 ) ;
#233 = DIRECTION ( 'NONE',  ( 0.0000000000000000000, 0.0000000000000000000, 1.000000000000000000 ) ) ;
#234 = VERTEX_POINT ( 'NONE', #272 ) ;
#235 = DIRECTION ( 'NONE',  ( 1.000000000000000000, 0.0000000000000000000, 0.0000000000000000000 ) ) ;
#236 = VECTOR ( 'NONE', #17, 39.37007874015748143 ) ;
#237 = ORIENTED_EDGE ( 'NONE', *, *, #215, .T. ) ;
#238 = ORIENTED_EDGE ( 'NONE', *, *, #284, .T. ) ;
#239 = AXIS2_PLACEMENT_3D ( 'NONE', #200, #183, #90 ) ;
#240 = AXIS2_PLACEMENT_3D ( 'NONE', #41, #187, #100 ) ;
#241 = EDGE_CURVE ( 'NONE', #252, #46, #48, .T. ) ;
#242 = LINE ( 'NONE', #132, #188 ) ;
#243 = VECTOR ( 'NONE', #222, 39.37007874015748143 ) ;
#244 = ORIENTED_EDGE ( 'NONE', *, *, #45, .F. ) ;
#245 = DIRECTION ( 'NONE',  ( 0.0000000000000000000, 0.0000000000000000000, 1.000000000000000000 ) ) ;
#246 = CARTESIAN_POINT ( 'NONE',  ( -0.4916338740000000262, 0.0000000000000000000, 1.204155700293026586E-16 ) ) ;
#247 = DIRECTION ( 'NONE',  ( -1.000000000000000000, 0.0000000000000000000, 0.0000000000000000000 ) ) ;
#248 = VECTOR ( 'NONE', #195, 39.37007874015748143 ) ;
#249 = FACE_OUTER_BOUND ( 'NONE', #298, .T. ) ;
#250 = DIRECTION ( 'NONE',  ( -0.0000000000000000000, -0.0000000000000000000, -1.000000000000000000 ) ) ;
#251 = FACE_OUTER_BOUND ( 'NONE', #9, .T. ) ;
#252 = VERTEX_POINT ( 'NONE', #72 ) ;
#253 = FILL_AREA_STYLE ('',( #19 ) ) ;
#254 = ORIENTED_EDGE ( 'NONE', *, *, #70, .T. ) ;
#255 = DIRECTION ( 'NONE',  ( 1.000000000000000000, 0.0000000000000000000, -0.0000000000000000000 ) ) ;
#256 =( NAMED_UNIT ( * ) PLANE_ANGLE_UNIT ( ) SI_UNIT ( $, .RADIAN. ) );
#257 = ORIENTED_EDGE ( 'NONE', *, *, #191, .F. ) ;
#258 = CIRCLE ( 'NONE', #79, 0.4771260000000020485 ) ;
#259 = DIRECTION ( 'NONE',  ( 1.000000000000000000, 0.0000000000000000000, 0.0000000000000000000 ) ) ;
#260 = EDGE_LOOP ( 'NONE', ( #87, #254, #150, #32 ) ) ;
#261 = ADVANCED_FACE ( 'NONE', ( #94 ), #228, .T. ) ;
#262 = SURFACE_SIDE_STYLE ('',( #263 ) ) ;
#263 = SURFACE_STYLE_FILL_AREA ( #122 ) ;
#264 = MECHANICAL_DESIGN_GEOMETRIC_PRESENTATION_REPRESENTATION (  '', ( #53 ), #176 ) ;
#265 = DIMENSIONAL_EXPONENTS ( 1.000000000000000000, 0.0000000000000000000, 0.0000000000000000000, 0.0000000000000000000, 0.0000000000000000000, 0.0000000000000000000, 0.0000000000000000000 ) ;
#266 = DIRECTION ( 'NONE',  ( 1.000000000000000000, 0.0000000000000000000, 0.0000000000000000000 ) ) ;
#267 = DIRECTION ( 'NONE',  ( 1.000000000000000000, 0.0000000000000000000, -0.0000000000000000000 ) ) ;
#268 = ORIENTED_EDGE ( 'NONE', *, *, #83, .T. ) ;
#269 = DIRECTION ( 'NONE',  ( 0.0000000000000000000, 0.0000000000000000000, 1.000000000000000000 ) ) ;
#270 = ADVANCED_FACE ( 'NONE', ( #251 ), #163, .T. ) ;
#271 = PLANE ( 'NONE',  #193 ) ;
#272 = CARTESIAN_POINT ( 'NONE',  ( 0.4921260000000000634, 6.026805306771904375E-17, 5.890512000000001969 ) ) ;
#273 = FACE_OUTER_BOUND ( 'NONE', #109, .T. ) ;
#274 = EDGE_CURVE ( 'NONE', #46, #226, #39, .T. ) ;
#275 = ORIENTED_EDGE ( 'NONE', *, *, #59, .T. ) ;
#276 = CARTESIAN_POINT ( 'NONE',  ( 7.373327120194471968E-33, 0.0000000000000000000, 6.020778501465132931E-17 ) ) ;
#277 = ORIENTED_EDGE ( 'NONE', *, *, #293, .T. ) ;
#278 = ORIENTED_EDGE ( 'NONE', *, *, #227, .T. ) ;
#279 = VECTOR ( 'NONE', #178, 39.37007874015748143 ) ;
#280 = AXIS2_PLACEMENT_3D ( 'NONE', #202, #167, #22 ) ;
#281 = SURFACE_STYLE_FILL_AREA ( #253 ) ;
#282 = SHAPE_DEFINITION_REPRESENTATION ( #20, #78 ) ;
#283 = CIRCLE ( 'NONE', #155, 0.4921260000000000634 ) ;
#284 = EDGE_CURVE ( 'NONE', #252, #115, #137, .T. ) ;
#285 = ADVANCED_FACE ( 'NONE', ( #223 ), #104, .T. ) ;
#286 = ORIENTED_EDGE ( 'NONE', *, *, #225, .T. ) ;
#287 = CONICAL_SURFACE ( 'NONE', #172, 0.4771260000000020485, 0.7853981633974278509 ) ;
#288 = LINE ( 'NONE', #221, #236 ) ;
#289 = MANIFOLD_SOLID_BREP ( 'Cut-Revolve1', #13 ) ;
#290 = CYLINDRICAL_SURFACE ( 'NONE', #239, 0.4921260000000000634 ) ;
#291 = ORIENTED_EDGE ( 'NONE', *, *, #70, .F. ) ;
#292 = CARTESIAN_POINT ( 'NONE',  ( -0.4916338739999996932, 6.023791904118518653E-17, 2.952755999999999936 ) ) ;
#293 = EDGE_CURVE ( 'NONE', #148, #192, #57, .T. ) ;
#294 = CARTESIAN_POINT ( 'NONE',  ( 0.0000000000000000000, 0.0000000000000000000, 0.0000000000000000000 ) ) ;
#295 = CARTESIAN_POINT ( 'NONE',  ( -0.4916338740000000262, 0.0000000000000000000, 6.020778501465132931E-17 ) ) ;
#296 = CARTESIAN_POINT ( 'NONE',  ( 0.0000000000000000000, 0.0000000000000000000, 5.905511999999999873 ) ) ;
#297 = ADVANCED_FACE ( 'NONE', ( #273 ), #7, .T. ) ;
#298 = EDGE_LOOP ( 'NONE', ( #164, #238, #11, #217 ) ) ;
#299 = CARTESIAN_POINT ( 'NONE',  ( 3.619501155199809429E-16, 0.0000000000000000000, 2.955546985236761071 ) ) ;
ENDSEC;
END-ISO-10303-21;
