ISO-10303-21;
HEADER;
FILE_DESCRIPTION (( 'STEP AP214' ),
    '1' );
FILE_NAME ('Micro_BMRM-011-2X.STEP',
    '2021-09-03T14:25:29',
    ( '' ),
    ( '' ),
    'SwSTEP 2.0',
    'SolidWorks 2020',
    '' );
FILE_SCHEMA (( 'AUTOMOTIVE_DESIGN' ));
ENDSEC;

DATA;
#1 = AXIS2_PLACEMENT_3D ( 'NONE', #294, #193, #169 ) ;
#2 = ORIENTED_EDGE ( 'NONE', *, *, #233, .F. ) ;
#3 = ORIENTED_EDGE ( 'NONE', *, *, #92, .T. ) ;
#4 = ADVANCED_FACE ( 'NONE', ( #273 ), #249, .T. ) ;
#5 = DIRECTION ( 'NONE',  ( 1.000000000000000000, 0.0000000000000000000, 0.0000000000000000000 ) ) ;
#6 = AXIS2_PLACEMENT_3D ( 'NONE', #119, #314, #288 ) ;
#7 = CARTESIAN_POINT ( 'NONE',  ( 0.06374000000000018540, 8.724383797125754882E-18, 1.968503999999999809 ) ) ;
#8 = LINE ( 'NONE', #304, #206 ) ;
#9 = ADVANCED_FACE ( 'NONE', ( #106 ), #205, .T. ) ;
#10 = DIRECTION ( 'NONE',  ( -1.224646799147353207E-16, -0.0000000000000000000, -1.000000000000000000 ) ) ;
#11 = AXIS2_PLACEMENT_3D ( 'NONE', #31, #231, #36 ) ;
#12 = DIRECTION ( 'NONE',  ( 1.000000000000000000, 0.0000000000000000000, 0.0000000000000000000 ) ) ;
#13 = CARTESIAN_POINT ( 'NONE',  ( 3.973705736380780789E-18, 0.0000000000000000000, 0.0000000000000000000 ) ) ;
#14 = DIMENSIONAL_EXPONENTS ( 1.000000000000000000, 0.0000000000000000000, 0.0000000000000000000, 0.0000000000000000000, 0.0000000000000000000, 0.0000000000000000000, 0.0000000000000000000 ) ;
#15 = LINE ( 'NONE', #89, #230 ) ;
#16 = CIRCLE ( 'NONE', #218, 0.02163184649999999945 ) ;
#17 = CARTESIAN_POINT ( 'NONE',  ( 0.02163184650000002027, 0.0000000000000000000, 0.1299210000000000087 ) ) ;
#18 = CIRCLE ( 'NONE', #130, 0.06374000000000018540 ) ;
#19 = ORIENTED_EDGE ( 'NONE', *, *, #62, .F. ) ;
#20 = CARTESIAN_POINT ( 'NONE',  ( 1.591073367920233116E-17, 0.0000000000000000000, 0.1299210000000000087 ) ) ;
#21 = EDGE_CURVE ( 'NONE', #181, #29, #16, .T. ) ;
#22 = APPLICATION_PROTOCOL_DEFINITION ( 'draft international standard', 'automotive_design', 1998, #47 ) ;
#23 = AXIS2_PLACEMENT_3D ( 'NONE', #317, #263, #216 ) ;
#24 = PRESENTATION_STYLE_ASSIGNMENT (( #144 ) ) ;
#25 = ADVANCED_FACE ( 'NONE', ( #107 ), #325, .T. ) ;
#26 = EDGE_LOOP ( 'NONE', ( #138, #127, #270, #290 ) ) ;
#27 = EDGE_LOOP ( 'NONE', ( #104, #203, #72, #323 ) ) ;
#28 = CIRCLE ( 'NONE', #1, 0.07874000000000000443 ) ;
#29 = VERTEX_POINT ( 'NONE', #255 ) ;
#30 = FACE_OUTER_BOUND ( 'NONE', #173, .T. ) ;
#31 = CARTESIAN_POINT ( 'NONE',  ( 0.0000000000000000000, 0.0000000000000000000, 1.968503999999999809 ) ) ;
#32 = DIMENSIONAL_EXPONENTS ( 1.000000000000000000, 0.0000000000000000000, 0.0000000000000000000, 0.0000000000000000000, 0.0000000000000000000, 0.0000000000000000000, 0.0000000000000000000 ) ;
#33 = CARTESIAN_POINT ( 'NONE',  ( 0.06374000000000018540, 7.805898697765251255E-18, 1.968503999999999809 ) ) ;
#34 = CARTESIAN_POINT ( 'NONE',  ( 0.0000000000000000000, 0.0000000000000000000, 0.0000000000000000000 ) ) ;
#35 = VERTEX_POINT ( 'NONE', #282 ) ;
#36 = DIRECTION ( 'NONE',  ( 1.000000000000000000, 0.0000000000000000000, -0.0000000000000000000 ) ) ;
#37 = CIRCLE ( 'NONE', #108, 0.07874000000000000443 ) ;
#38 = FACE_OUTER_BOUND ( 'NONE', #26, .T. ) ;
#39 = FILL_AREA_STYLE ('',( #69 ) ) ;
#40 = DIRECTION ( 'NONE',  ( 1.224646799147353207E-16, 0.0000000000000000000, 1.000000000000000000 ) ) ;
#41 = AXIS2_PLACEMENT_3D ( 'NONE', #296, #117, #191 ) ;
#42 = CARTESIAN_POINT ( 'NONE',  ( 2.649137157587187450E-18, 0.0000000000000000000, 0.02163184649999999945 ) ) ;
#43 = CIRCLE ( 'NONE', #6, 0.02163184650000000292 ) ;
#44 = ADVANCED_FACE ( 'NONE', ( #111 ), #82, .T. ) ;
#45 = DIRECTION ( 'NONE',  ( -1.224646799147353207E-16, -0.0000000000000000000, -1.000000000000000000 ) ) ;
#46 = UNCERTAINTY_MEASURE_WITH_UNIT (LENGTH_MEASURE( 1.000000000000000082E-05 ), #124, 'distance_accuracy_value', 'NONE');
#47 = APPLICATION_CONTEXT ( 'automotive_design' ) ;
#48 = ORIENTED_EDGE ( 'NONE', *, *, #175, .T. ) ;
#49 = ORIENTED_EDGE ( 'NONE', *, *, #238, .F. ) ;
#50 = AXIS2_PLACEMENT_3D ( 'NONE', #110, #135, #12 ) ;
#51 =( GEOMETRIC_REPRESENTATION_CONTEXT ( 3 ) GLOBAL_UNCERTAINTY_ASSIGNED_CONTEXT ( ( #122 ) ) GLOBAL_UNIT_ASSIGNED_CONTEXT ( ( #52, #177, #129 ) ) REPRESENTATION_CONTEXT ( 'NONE', 'WORKASPACE' ) );
#52 =( CONVERSION_BASED_UNIT ( 'INCH', #217 ) LENGTH_UNIT ( ) NAMED_UNIT ( #32 ) );
#53 = ORIENTED_EDGE ( 'NONE', *, *, #156, .F. ) ;
#54 = EDGE_CURVE ( 'NONE', #178, #35, #37, .T. ) ;
#55 = DIRECTION ( 'NONE',  ( -1.000000000000000000, 0.0000000000000000000, 1.973253873681292640E-16 ) ) ;
#56 = DIRECTION ( 'NONE',  ( 0.1736481776669313581, 0.0000000000000000000, 0.9848077530122077983 ) ) ;
#57 = ORIENTED_EDGE ( 'NONE', *, *, #287, .F. ) ;
#58 = FACE_OUTER_BOUND ( 'NONE', #75, .T. ) ;
#59 = STYLED_ITEM ( 'NONE', ( #298 ), #280 ) ;
#60 = CARTESIAN_POINT ( 'NONE',  ( -0.02163184649999999945, 0.0000000000000000000, 2.649137157587187450E-18 ) ) ;
#61 = DIRECTION ( 'NONE',  ( 0.0000000000000000000, 0.0000000000000000000, -1.000000000000000000 ) ) ;
#62 = EDGE_CURVE ( 'NONE', #29, #116, #74, .T. ) ;
#63 = LINE ( 'NONE', #266, #262 ) ;
#64 = CIRCLE ( 'NONE', #68, 0.02163184650000000292 ) ;
#65 = DIRECTION ( 'NONE',  ( -1.000000000000000000, 0.0000000000000000000, 1.973253873681292640E-16 ) ) ;
#66 = LINE ( 'NONE', #146, #240 ) ;
#67 = ADVANCED_FACE ( 'NONE', ( #58 ), #157, .T. ) ;
#68 = AXIS2_PLACEMENT_3D ( 'NONE', #20, #261, #243 ) ;
#69 = FILL_AREA_STYLE_COLOUR ( '', #90 ) ;
#70 = EDGE_CURVE ( 'NONE', #155, #35, #165, .T. ) ;
#71 = SURFACE_STYLE_FILL_AREA ( #199 ) ;
#72 = ORIENTED_EDGE ( 'NONE', *, *, #195, .T. ) ;
#73 = EDGE_LOOP ( 'NONE', ( #236, #241, #57 ) ) ;
#74 = CIRCLE ( 'NONE', #300, 0.02163184649999999945 ) ;
#75 = EDGE_LOOP ( 'NONE', ( #299, #151, #19 ) ) ;
#76 = LENGTH_MEASURE_WITH_UNIT ( LENGTH_MEASURE( 0.02539999999999999897 ), #98 );
#77 = EDGE_CURVE ( 'NONE', #155, #252, #276, .T. ) ;
#78 = CARTESIAN_POINT ( 'NONE',  ( 0.0000000000000000000, 0.0000000000000000000, 1.968503999999999809 ) ) ;
#79 = CIRCLE ( 'NONE', #147, 0.07874000000000000443 ) ;
#80 = LINE ( 'NONE', #60, #267 ) ;
#81 = ORIENTED_EDGE ( 'NONE', *, *, #92, .F. ) ;
#82 = CYLINDRICAL_SURFACE ( 'NONE', #186, 0.07874000000000000443 ) ;
#83 = DIRECTION ( 'NONE',  ( 1.224646799147353207E-16, 0.0000000000000000000, 1.000000000000000000 ) ) ;
#84 = PRESENTATION_LAYER_ASSIGNMENT (  '', '', ( #202 ) ) ;
#85 = SHAPE_DEFINITION_REPRESENTATION ( #315, #280 ) ;
#86 = DIRECTION ( 'NONE',  ( 0.0000000000000000000, 0.0000000000000000000, -1.000000000000000000 ) ) ;
#87 = DIRECTION ( 'NONE',  ( -0.0000000000000000000, -0.0000000000000000000, -1.000000000000000000 ) ) ;
#88 = ORIENTED_EDGE ( 'NONE', *, *, #54, .F. ) ;
#89 = CARTESIAN_POINT ( 'NONE',  ( -0.02163184649999998557, 2.649137157587188220E-18, 0.1299210000000000087 ) ) ;
#90 = COLOUR_RGB ( '',0.7921568627450980005, 0.8196078431372548767, 0.9333333333333333481 ) ;
#91 = SURFACE_SIDE_STYLE ('',( #121 ) ) ;
#92 = EDGE_CURVE ( 'NONE', #252, #178, #8, .T. ) ;
#93 = DIRECTION ( 'NONE',  ( -0.0000000000000000000, -0.0000000000000000000, -1.000000000000000000 ) ) ;
#94 = CARTESIAN_POINT ( 'NONE',  ( 1.591073367920233116E-17, 0.0000000000000000000, 0.1299210000000000087 ) ) ;
#95 = AXIS2_PLACEMENT_3D ( 'NONE', #320, #142, #194 ) ;
#96 =( NAMED_UNIT ( * ) PLANE_ANGLE_UNIT ( ) SI_UNIT ( $, .RADIAN. ) );
#97 = ORIENTED_EDGE ( 'NONE', *, *, #139, .F. ) ;
#98 =( LENGTH_UNIT ( ) NAMED_UNIT ( * ) SI_UNIT ( $, .METRE. ) );
#99 = ORIENTED_EDGE ( 'NONE', *, *, #293, .F. ) ;
#100 = FILL_AREA_STYLE_COLOUR ( '', #154 ) ;
#101 = EDGE_LOOP ( 'NONE', ( #49, #222, #313, #53 ) ) ;
#102 = AXIS2_PLACEMENT_3D ( 'NONE', #257, #160, #164 ) ;
#103 = SURFACE_SIDE_STYLE ('',( #71 ) ) ;
#104 = ORIENTED_EDGE ( 'NONE', *, *, #269, .F. ) ;
#105 = DIRECTION ( 'NONE',  ( 1.000000000000000000, 0.0000000000000000000, 0.0000000000000000000 ) ) ;
#106 = FACE_OUTER_BOUND ( 'NONE', #101, .T. ) ;
#107 = FACE_OUTER_BOUND ( 'NONE', #234, .T. ) ;
#108 = AXIS2_PLACEMENT_3D ( 'NONE', #204, #86, #228 ) ;
#109 = EDGE_CURVE ( 'NONE', #187, #29, #80, .T. ) ;
#110 = CARTESIAN_POINT ( 'NONE',  ( 0.0000000000000000000, 0.0000000000000000000, 1.968503999999999809 ) ) ;
#111 = FACE_OUTER_BOUND ( 'NONE', #27, .T. ) ;
#112 = CLOSED_SHELL ( 'NONE', ( #4, #311, #9, #25, #190, #44, #145, #213, #265, #132, #67 ) ) ;
#113 = ORIENTED_EDGE ( 'NONE', *, *, #62, .T. ) ;
#114 = DIRECTION ( 'NONE',  ( -1.000000000000000000, 0.0000000000000000000, 1.224646799147353207E-16 ) ) ;
#115 = MECHANICAL_DESIGN_GEOMETRIC_PRESENTATION_REPRESENTATION (  '', ( #202 ), #321 ) ;
#116 = VERTEX_POINT ( 'NONE', #259 ) ;
#117 = DIRECTION ( 'NONE',  ( -0.0000000000000000000, -0.0000000000000000000, -1.000000000000000000 ) ) ;
#118 = PRODUCT_RELATED_PRODUCT_CATEGORY ( 'part', '', ( #198 ) ) ;
#119 = CARTESIAN_POINT ( 'NONE',  ( 1.591073367920233116E-17, 0.0000000000000000000, 0.1299210000000000087 ) ) ;
#120 = LINE ( 'NONE', #170, #125 ) ;
#121 = SURFACE_STYLE_FILL_AREA ( #39 ) ;
#122 = UNCERTAINTY_MEASURE_WITH_UNIT (LENGTH_MEASURE( 1.000000000000000082E-05 ), #52, 'distance_accuracy_value', 'NONE');
#123 = CYLINDRICAL_SURFACE ( 'NONE', #95, 0.02163184649999999945 ) ;
#124 =( CONVERSION_BASED_UNIT ( 'INCH', #219 ) LENGTH_UNIT ( ) NAMED_UNIT ( #14 ) );
#125 = VECTOR ( 'NONE', #87, 39.37007874015748143 ) ;
#126 =( NAMED_UNIT ( * ) SI_UNIT ( $, .STERADIAN. ) SOLID_ANGLE_UNIT ( ) );
#127 = ORIENTED_EDGE ( 'NONE', *, *, #233, .T. ) ;
#128 = ORIENTED_EDGE ( 'NONE', *, *, #316, .F. ) ;
#129 =( NAMED_UNIT ( * ) SI_UNIT ( $, .STERADIAN. ) SOLID_ANGLE_UNIT ( ) );
#130 = AXIS2_PLACEMENT_3D ( 'NONE', #78, #180, #5 ) ;
#131 = DIRECTION ( 'NONE',  ( 1.000000000000000000, 0.0000000000000000000, 0.0000000000000000000 ) ) ;
#132 = ADVANCED_FACE ( 'NONE', ( #30 ), #260, .T. ) ;
#133 = CARTESIAN_POINT ( 'NONE',  ( 1.591073367920233116E-17, 0.0000000000000000000, 0.1299210000000000087 ) ) ;
#134 = ORIENTED_EDGE ( 'NONE', *, *, #77, .T. ) ;
#135 = DIRECTION ( 'NONE',  ( 0.0000000000000000000, 0.0000000000000000000, 1.000000000000000000 ) ) ;
#136 = ORIENTED_EDGE ( 'NONE', *, *, #220, .F. ) ;
#137 = DIRECTION ( 'NONE',  ( -0.0000000000000000000, -0.0000000000000000000, -1.000000000000000000 ) ) ;
#138 = ORIENTED_EDGE ( 'NONE', *, *, #238, .T. ) ;
#139 = EDGE_CURVE ( 'NONE', #35, #178, #79, .T. ) ;
#140 = LINE ( 'NONE', #239, #247 ) ;
#141 = AXIS2_PLACEMENT_3D ( 'NONE', #34, #10, #114 ) ;
#142 = DIRECTION ( 'NONE',  ( -1.224646799147353207E-16, -0.0000000000000000000, -1.000000000000000000 ) ) ;
#143 = ORIENTED_EDGE ( 'NONE', *, *, #77, .F. ) ;
#144 = SURFACE_STYLE_USAGE ( .BOTH. , #91 ) ;
#145 = ADVANCED_FACE ( 'NONE', ( #302 ), #286, .T. ) ;
#146 = CARTESIAN_POINT ( 'NONE',  ( -0.07874000000000000443, 0.0000000000000000000, 1.968503999999999809 ) ) ;
#147 = AXIS2_PLACEMENT_3D ( 'NONE', #210, #188, #131 ) ;
#148 = CARTESIAN_POINT ( 'NONE',  ( 0.07874000000000004607, 9.642868896486264672E-18, 0.4537974326964857585 ) ) ;
#149 = CARTESIAN_POINT ( 'NONE',  ( 0.0000000000000000000, 0.0000000000000000000, 1.968503999999999809 ) ) ;
#150 = CIRCLE ( 'NONE', #23, 0.07874000000000000443 ) ;
#151 = ORIENTED_EDGE ( 'NONE', *, *, #200, .T. ) ;
#152 =( NAMED_UNIT ( * ) PLANE_ANGLE_UNIT ( ) SI_UNIT ( $, .RADIAN. ) );
#153 = DIRECTION ( 'NONE',  ( 0.0000000000000000000, 0.0000000000000000000, 1.000000000000000000 ) ) ;
#154 = COLOUR_RGB ( '',0.7921568627450980005, 0.8196078431372548767, 0.9333333333333333481 ) ;
#155 = VERTEX_POINT ( 'NONE', #7 ) ;
#156 = EDGE_CURVE ( 'NONE', #318, #237, #140, .T. ) ;
#157 = SPHERICAL_SURFACE ( 'NONE', #102, 0.02163184649999999945 ) ;
#158 = DIRECTION ( 'NONE',  ( 1.000000000000000000, 0.0000000000000000000, 0.0000000000000000000 ) ) ;
#159 = PRODUCT_CONTEXT ( 'NONE', #47, 'mechanical' ) ;
#160 = DIRECTION ( 'NONE',  ( 0.0000000000000000000, 1.000000000000000000, 0.0000000000000000000 ) ) ;
#161 = AXIS2_PLACEMENT_3D ( 'NONE', #133, #310, #158 ) ;
#162 =( GEOMETRIC_REPRESENTATION_CONTEXT ( 3 ) GLOBAL_UNCERTAINTY_ASSIGNED_CONTEXT ( ( #254 ) ) GLOBAL_UNIT_ASSIGNED_CONTEXT ( ( #248, #152, #221 ) ) REPRESENTATION_CONTEXT ( 'NONE', 'WORKASPACE' ) );
#163 = APPLICATION_PROTOCOL_DEFINITION ( 'draft international standard', 'automotive_design', 1998, #229 ) ;
#164 = DIRECTION ( 'NONE',  ( 1.000000000000000000, 0.0000000000000000000, 0.0000000000000000000 ) ) ;
#165 = LINE ( 'NONE', #33, #309 ) ;
#166 = DIRECTION ( 'NONE',  ( 0.0000000000000000000, 0.0000000000000000000, -1.000000000000000000 ) ) ;
#167 = CIRCLE ( 'NONE', #250, 0.02163184649999999945 ) ;
#168 = ORIENTED_EDGE ( 'NONE', *, *, #54, .T. ) ;
#169 = DIRECTION ( 'NONE',  ( 1.000000000000000000, 0.0000000000000000000, 0.0000000000000000000 ) ) ;
#170 = CARTESIAN_POINT ( 'NONE',  ( 0.07874000000000000443, 9.642868896486258509E-18, 1.968503999999999809 ) ) ;
#171 = DIRECTION ( 'NONE',  ( 1.224646799147353207E-16, 0.0000000000000000000, 1.000000000000000000 ) ) ;
#172 = AXIS2_PLACEMENT_3D ( 'NONE', #268, #212, #214 ) ;
#173 = EDGE_LOOP ( 'NONE', ( #2, #307, #275, #113 ) ) ;
#174 = SURFACE_STYLE_USAGE ( .BOTH. , #103 ) ;
#175 = EDGE_CURVE ( 'NONE', #252, #155, #18, .T. ) ;
#176 = DIRECTION ( 'NONE',  ( 0.0000000000000000000, 1.000000000000000000, 0.0000000000000000000 ) ) ;
#177 =( NAMED_UNIT ( * ) PLANE_ANGLE_UNIT ( ) SI_UNIT ( $, .RADIAN. ) );
#178 = VERTEX_POINT ( 'NONE', #278 ) ;
#179 = CARTESIAN_POINT ( 'NONE',  ( 2.649137157587187450E-18, 0.0000000000000000000, 0.02163184649999999945 ) ) ;
#180 = DIRECTION ( 'NONE',  ( 0.0000000000000000000, 0.0000000000000000000, 1.000000000000000000 ) ) ;
#181 = VERTEX_POINT ( 'NONE', #13 ) ;
#182 = DIRECTION ( 'NONE',  ( -1.000000000000000000, 0.0000000000000000000, 0.0000000000000000000 ) ) ;
#183 = ORIENTED_EDGE ( 'NONE', *, *, #195, .F. ) ;
#184 = DIRECTION ( 'NONE',  ( 1.000000000000000000, 0.0000000000000000000, 0.0000000000000000000 ) ) ;
#185 = AXIS2_PLACEMENT_3D ( 'NONE', #306, #61, #182 ) ;
#186 = AXIS2_PLACEMENT_3D ( 'NONE', #207, #137, #277 ) ;
#187 = VERTEX_POINT ( 'NONE', #192 ) ;
#188 = DIRECTION ( 'NONE',  ( 0.0000000000000000000, 0.0000000000000000000, -1.000000000000000000 ) ) ;
#189 = CYLINDRICAL_SURFACE ( 'NONE', #41, 0.07874000000000000443 ) ;
#190 = ADVANCED_FACE ( 'NONE', ( #312 ), #189, .T. ) ;
#191 = DIRECTION ( 'NONE',  ( -1.000000000000000000, 0.0000000000000000000, 0.0000000000000000000 ) ) ;
#192 = CARTESIAN_POINT ( 'NONE',  ( -0.02163184649999998557, 6.146003027036724905E-18, 0.1299210000000000087 ) ) ;
#193 = DIRECTION ( 'NONE',  ( -1.224646799147353207E-16, -0.0000000000000000000, -1.000000000000000000 ) ) ;
#194 = DIRECTION ( 'NONE',  ( -1.000000000000000000, 0.0000000000000000000, 1.224646799147353207E-16 ) ) ;
#195 = EDGE_CURVE ( 'NONE', #178, #227, #66, .T. ) ;
#196 = MECHANICAL_DESIGN_GEOMETRIC_PRESENTATION_REPRESENTATION (  '', ( #59 ), #51 ) ;
#197 =( LENGTH_UNIT ( ) NAMED_UNIT ( * ) SI_UNIT ( $, .METRE. ) );
#198 = PRODUCT ( 'Micro_BMRM-011-2X', 'Micro_BMRM-011-2X', '', ( #159 ) ) ;
#199 = FILL_AREA_STYLE ('',( #100 ) ) ;
#200 = EDGE_CURVE ( 'NONE', #181, #116, #224, .T. ) ;
#201 = ORIENTED_EDGE ( 'NONE', *, *, #156, .T. ) ;
#202 = STYLED_ITEM ( 'NONE', ( #24 ), #324 ) ;
#203 = ORIENTED_EDGE ( 'NONE', *, *, #139, .T. ) ;
#204 = CARTESIAN_POINT ( 'NONE',  ( 0.0000000000000000000, 0.0000000000000000000, 1.953504000000000129 ) ) ;
#205 = CONICAL_SURFACE ( 'NONE', #161, 0.02163184650000000292, 0.1745329251994338637 ) ;
#206 = VECTOR ( 'NONE', #308, 39.37007874015748854 ) ;
#207 = CARTESIAN_POINT ( 'NONE',  ( 0.0000000000000000000, 0.0000000000000000000, 1.968503999999999809 ) ) ;
#208 = CARTESIAN_POINT ( 'NONE',  ( 2.649137157587187450E-18, 0.0000000000000000000, 0.02163184649999999945 ) ) ;
#209 = DIRECTION ( 'NONE',  ( -1.000000000000000000, 1.224646799147353207E-16, 0.0000000000000000000 ) ) ;
#210 = CARTESIAN_POINT ( 'NONE',  ( 0.0000000000000000000, 0.0000000000000000000, 1.953504000000000129 ) ) ;
#211 = AXIS2_PLACEMENT_3D ( 'NONE', #149, #166, #264 ) ;
#212 = DIRECTION ( 'NONE',  ( 0.0000000000000000000, -1.000000000000000000, 0.0000000000000000000 ) ) ;
#213 = ADVANCED_FACE ( 'NONE', ( #215 ), #272, .T. ) ;
#214 = DIRECTION ( 'NONE',  ( 0.0000000000000000000, 0.0000000000000000000, -1.000000000000000000 ) ) ;
#215 = FACE_OUTER_BOUND ( 'NONE', #289, .T. ) ;
#216 = DIRECTION ( 'NONE',  ( 1.000000000000000000, 0.0000000000000000000, 0.0000000000000000000 ) ) ;
#217 = LENGTH_MEASURE_WITH_UNIT ( LENGTH_MEASURE( 0.02539999999999999897 ), #301 );
#218 = AXIS2_PLACEMENT_3D ( 'NONE', #179, #285, #209 ) ;
#219 = LENGTH_MEASURE_WITH_UNIT ( LENGTH_MEASURE( 0.02539999999999999897 ), #197 );
#220 = EDGE_CURVE ( 'NONE', #227, #237, #28, .T. ) ;
#221 =( NAMED_UNIT ( * ) SI_UNIT ( $, .STERADIAN. ) SOLID_ANGLE_UNIT ( ) );
#222 = ORIENTED_EDGE ( 'NONE', *, *, #316, .T. ) ;
#223 = CARTESIAN_POINT ( 'NONE',  ( 2.649137157587187450E-18, 0.0000000000000000000, 0.02163184649999999945 ) ) ;
#224 = CIRCLE ( 'NONE', #172, 0.02163184649999999945 ) ;
#225 = CONICAL_SURFACE ( 'NONE', #303, 0.02163184650000000292, 0.1745329251994338637 ) ;
#226 = PRODUCT_DEFINITION ( 'UNKNOWN', '', #258, #279 ) ;
#227 = VERTEX_POINT ( 'NONE', #242 ) ;
#228 = DIRECTION ( 'NONE',  ( 1.000000000000000000, 0.0000000000000000000, 0.0000000000000000000 ) ) ;
#229 = APPLICATION_CONTEXT ( 'automotive_design' ) ;
#230 = VECTOR ( 'NONE', #291, 39.37007874015747433 ) ;
#231 = DIRECTION ( 'NONE',  ( 0.0000000000000000000, 0.0000000000000000000, 1.000000000000000000 ) ) ;
#232 = DIMENSIONAL_EXPONENTS ( 1.000000000000000000, 0.0000000000000000000, 0.0000000000000000000, 0.0000000000000000000, 0.0000000000000000000, 0.0000000000000000000, 0.0000000000000000000 ) ;
#233 = EDGE_CURVE ( 'NONE', #318, #116, #63, .T. ) ;
#234 = EDGE_LOOP ( 'NONE', ( #143, #281, #88, #81 ) ) ;
#235 = DIRECTION ( 'NONE',  ( 0.7071067811865502373, 8.659560562354966138E-17, -0.7071067811865446862 ) ) ;
#236 = ORIENTED_EDGE ( 'NONE', *, *, #200, .F. ) ;
#237 = VERTEX_POINT ( 'NONE', #148 ) ;
#238 = EDGE_CURVE ( 'NONE', #187, #318, #43, .T. ) ;
#239 = CARTESIAN_POINT ( 'NONE',  ( 0.02163184650000002027, 0.0000000000000000000, 0.1299210000000000087 ) ) ;
#240 = VECTOR ( 'NONE', #93, 39.37007874015748143 ) ;
#241 = ORIENTED_EDGE ( 'NONE', *, *, #21, .T. ) ;
#242 = CARTESIAN_POINT ( 'NONE',  ( -0.07873999999999994892, 0.0000000000000000000, 0.4537974326964857585 ) ) ;
#243 = DIRECTION ( 'NONE',  ( -1.000000000000000000, 0.0000000000000000000, 0.0000000000000000000 ) ) ;
#244 = PRESENTATION_LAYER_ASSIGNMENT (  '', '', ( #59 ) ) ;
#245 = DIRECTION ( 'NONE',  ( 1.000000000000000000, 0.0000000000000000000, 0.0000000000000000000 ) ) ;
#246 = CARTESIAN_POINT ( 'NONE',  ( -0.06374000000000018540, 0.0000000000000000000, 1.968503999999999809 ) ) ;
#247 = VECTOR ( 'NONE', #56, 39.37007874015748143 ) ;
#248 =( CONVERSION_BASED_UNIT ( 'INCH', #76 ) LENGTH_UNIT ( ) NAMED_UNIT ( #232 ) );
#249 = SPHERICAL_SURFACE ( 'NONE', #295, 0.02163184649999999945 ) ;
#250 = AXIS2_PLACEMENT_3D ( 'NONE', #42, #40, #65 ) ;
#251 = EDGE_CURVE ( 'NONE', #237, #227, #150, .T. ) ;
#252 = VERTEX_POINT ( 'NONE', #246 ) ;
#253 = DIRECTION ( 'NONE',  ( -1.224646799147353207E-16, -0.0000000000000000000, -1.000000000000000000 ) ) ;
#254 = UNCERTAINTY_MEASURE_WITH_UNIT (LENGTH_MEASURE( 1.000000000000000082E-05 ), #248, 'distance_accuracy_value', 'NONE');
#255 = CARTESIAN_POINT ( 'NONE',  ( -0.02163184649999999598, 0.0000000000000000000, 0.02163184650000000292 ) ) ;
#256 = EDGE_LOOP ( 'NONE', ( #168, #284, #136, #183 ) ) ;
#257 = CARTESIAN_POINT ( 'NONE',  ( 2.649137157587187450E-18, 0.0000000000000000000, 0.02163184649999999945 ) ) ;
#258 = PRODUCT_DEFINITION_FORMATION_WITH_SPECIFIED_SOURCE ( 'ANY', '', #198, .NOT_KNOWN. ) ;
#259 = CARTESIAN_POINT ( 'NONE',  ( 0.02163184650000000292, 2.649137157587187450E-18, 0.02163184649999999598 ) ) ;
#260 = CYLINDRICAL_SURFACE ( 'NONE', #141, 0.02163184649999999945 ) ;
#261 = DIRECTION ( 'NONE',  ( -1.224646799147353207E-16, -0.0000000000000000000, -1.000000000000000000 ) ) ;
#262 = VECTOR ( 'NONE', #45, 39.37007874015748143 ) ;
#263 = DIRECTION ( 'NONE',  ( -1.224646799147353207E-16, -0.0000000000000000000, -1.000000000000000000 ) ) ;
#264 = DIRECTION ( 'NONE',  ( -1.000000000000000000, 0.0000000000000000000, 0.0000000000000000000 ) ) ;
#265 = ADVANCED_FACE ( 'NONE', ( #319 ), #225, .T. ) ;
#266 = CARTESIAN_POINT ( 'NONE',  ( 0.02163184649999999945, 2.649137157587187450E-18, -2.649137157587187450E-18 ) ) ;
#267 = VECTOR ( 'NONE', #253, 39.37007874015748143 ) ;
#268 = CARTESIAN_POINT ( 'NONE',  ( 2.649137157587187450E-18, 0.0000000000000000000, 0.02163184649999999945 ) ) ;
#269 = EDGE_CURVE ( 'NONE', #35, #237, #120, .T. ) ;
#270 = ORIENTED_EDGE ( 'NONE', *, *, #287, .T. ) ;
#271 = ORIENTED_EDGE ( 'NONE', *, *, #70, .F. ) ;
#272 = CONICAL_SURFACE ( 'NONE', #211, 0.06374000000000018540, 0.7853981633974522758 ) ;
#273 = FACE_OUTER_BOUND ( 'NONE', #73, .T. ) ;
#274 = EDGE_LOOP ( 'NONE', ( #48, #134 ) ) ;
#275 = ORIENTED_EDGE ( 'NONE', *, *, #109, .T. ) ;
#276 = CIRCLE ( 'NONE', #50, 0.06374000000000018540 ) ;
#277 = DIRECTION ( 'NONE',  ( -1.000000000000000000, 0.0000000000000000000, 0.0000000000000000000 ) ) ;
#278 = CARTESIAN_POINT ( 'NONE',  ( -0.07874000000000000443, 0.0000000000000000000, 1.953504000000000129 ) ) ;
#279 = PRODUCT_DEFINITION_CONTEXT ( 'detailed design', #229, 'design' ) ;
#280 = ADVANCED_BREP_SHAPE_REPRESENTATION ( 'Micro_BMRM-011-2X', ( #324, #292 ), #162 ) ;
#281 = ORIENTED_EDGE ( 'NONE', *, *, #70, .T. ) ;
#282 = CARTESIAN_POINT ( 'NONE',  ( 0.07874000000000000443, 9.642868896486258509E-18, 1.953504000000000129 ) ) ;
#283 = ORIENTED_EDGE ( 'NONE', *, *, #175, .F. ) ;
#284 = ORIENTED_EDGE ( 'NONE', *, *, #269, .T. ) ;
#285 = DIRECTION ( 'NONE',  ( 1.224646799147353207E-16, 1.000000000000000000, -0.0000000000000000000 ) ) ;
#286 = PLANE ( 'NONE',  #11 ) ;
#287 = EDGE_CURVE ( 'NONE', #116, #29, #167, .T. ) ;
#288 = DIRECTION ( 'NONE',  ( -1.000000000000000000, 0.0000000000000000000, 0.0000000000000000000 ) ) ;
#289 = EDGE_LOOP ( 'NONE', ( #271, #283, #3, #97 ) ) ;
#290 = ORIENTED_EDGE ( 'NONE', *, *, #109, .F. ) ;
#291 = DIRECTION ( 'NONE',  ( -0.1736481776669311639, 2.126576849575783008E-17, 0.9848077530122080203 ) ) ;
#292 = AXIS2_PLACEMENT_3D ( 'NONE', #297, #153, #105 ) ;
#293 = EDGE_CURVE ( 'NONE', #318, #187, #64, .T. ) ;
#294 = CARTESIAN_POINT ( 'NONE',  ( 5.557415734130376665E-17, 0.0000000000000000000, 0.4537974326964857585 ) ) ;
#295 = AXIS2_PLACEMENT_3D ( 'NONE', #223, #176, #184 ) ;
#296 = CARTESIAN_POINT ( 'NONE',  ( 0.0000000000000000000, 0.0000000000000000000, 1.968503999999999809 ) ) ;
#297 = CARTESIAN_POINT ( 'NONE',  ( 0.0000000000000000000, 0.0000000000000000000, 0.0000000000000000000 ) ) ;
#298 = PRESENTATION_STYLE_ASSIGNMENT (( #174 ) ) ;
#299 = ORIENTED_EDGE ( 'NONE', *, *, #21, .F. ) ;
#300 = AXIS2_PLACEMENT_3D ( 'NONE', #208, #83, #55 ) ;
#301 =( LENGTH_UNIT ( ) NAMED_UNIT ( * ) SI_UNIT ( $, .METRE. ) );
#302 = FACE_OUTER_BOUND ( 'NONE', #274, .T. ) ;
#303 = AXIS2_PLACEMENT_3D ( 'NONE', #94, #171, #245 ) ;
#304 = CARTESIAN_POINT ( 'NONE',  ( -0.06374000000000018540, 0.0000000000000000000, 1.968503999999999809 ) ) ;
#305 = ORIENTED_EDGE ( 'NONE', *, *, #251, .T. ) ;
#306 = CARTESIAN_POINT ( 'NONE',  ( 0.0000000000000000000, 0.0000000000000000000, 1.968503999999999809 ) ) ;
#307 = ORIENTED_EDGE ( 'NONE', *, *, #293, .T. ) ;
#308 = DIRECTION ( 'NONE',  ( -0.7071067811865502373, 0.0000000000000000000, -0.7071067811865446862 ) ) ;
#309 = VECTOR ( 'NONE', #235, 39.37007874015748854 ) ;
#310 = DIRECTION ( 'NONE',  ( 1.224646799147353207E-16, 0.0000000000000000000, 1.000000000000000000 ) ) ;
#311 = ADVANCED_FACE ( 'NONE', ( #38 ), #123, .T. ) ;
#312 = FACE_OUTER_BOUND ( 'NONE', #256, .T. ) ;
#313 = ORIENTED_EDGE ( 'NONE', *, *, #220, .T. ) ;
#314 = DIRECTION ( 'NONE',  ( -1.224646799147353207E-16, -0.0000000000000000000, -1.000000000000000000 ) ) ;
#315 = PRODUCT_DEFINITION_SHAPE ( 'NONE', 'NONE',  #226 ) ;
#316 = EDGE_CURVE ( 'NONE', #187, #227, #15, .T. ) ;
#317 = CARTESIAN_POINT ( 'NONE',  ( 5.557415734130376665E-17, 0.0000000000000000000, 0.4537974326964857585 ) ) ;
#318 = VERTEX_POINT ( 'NONE', #17 ) ;
#319 = FACE_OUTER_BOUND ( 'NONE', #322, .T. ) ;
#320 = CARTESIAN_POINT ( 'NONE',  ( 0.0000000000000000000, 0.0000000000000000000, 0.0000000000000000000 ) ) ;
#321 =( GEOMETRIC_REPRESENTATION_CONTEXT ( 3 ) GLOBAL_UNCERTAINTY_ASSIGNED_CONTEXT ( ( #46 ) ) GLOBAL_UNIT_ASSIGNED_CONTEXT ( ( #124, #96, #126 ) ) REPRESENTATION_CONTEXT ( 'NONE', 'WORKASPACE' ) );
#322 = EDGE_LOOP ( 'NONE', ( #128, #99, #201, #305 ) ) ;
#323 = ORIENTED_EDGE ( 'NONE', *, *, #251, .F. ) ;
#324 = MANIFOLD_SOLID_BREP ( 'Fillet1', #112 ) ;
#325 = CONICAL_SURFACE ( 'NONE', #185, 0.06374000000000018540, 0.7853981633974522758 ) ;
ENDSEC;
END-ISO-10303-21;
