ISO-10303-21;
HEADER;
FILE_DESCRIPTION (( 'STEP AP214' ),
    '1' );
FILE_NAME ('Micro_EMSM-030-4.STEP',
    '2022-03-15T14:37:49',
    ( '' ),
    ( '' ),
    'SwSTEP 2.0',
    'SolidWorks 2022',
    '' );
FILE_SCHEMA (( 'AUTOMOTIVE_DESIGN' ));
ENDSEC;

DATA;
#1 = AXIS2_PLACEMENT_3D ( 'NONE', #179, #178, #14 ) ;
#2 = DIRECTION ( 'NONE',  ( -0.7071067811865482389, 0.000000000000000000, -0.7071067811865469066 ) ) ;
#3 = CARTESIAN_POINT ( 'NONE',  ( 0.000000000000000000, 0.000000000000000000, 0.000000000000000000 ) ) ;
#4 = AXIS2_PLACEMENT_3D ( 'NONE', #242, #222, #111 ) ;
#5 = CARTESIAN_POINT ( 'NONE',  ( -0.04405499999999973326, 0.000000000000000000, 1.496062999999999921 ) ) ;
#6 = ORIENTED_EDGE ( 'NONE', *, *, #109, .F. ) ;
#7 =( LENGTH_UNIT ( ) NAMED_UNIT ( * ) SI_UNIT ( $, .METRE. ) );
#8 = PRODUCT_CONTEXT ( 'NONE', #84, 'mechanical' ) ;
#9 = ORIENTED_EDGE ( 'NONE', *, *, #44, .T. ) ;
#10 = CARTESIAN_POINT ( 'NONE',  ( 0.000000000000000000, 0.000000000000000000, 1.496062999999999921 ) ) ;
#11 = ORIENTED_EDGE ( 'NONE', *, *, #229, .F. ) ;
#12 = DIRECTION ( 'NONE',  ( 0.000000000000000000, 0.000000000000000000, -1.000000000000000000 ) ) ;
#13 = CIRCLE ( 'NONE', #103, 0.05905500000000000332 ) ;
#14 = DIRECTION ( 'NONE',  ( -1.000000000000000000, 0.000000000000000000, 0.000000000000000000 ) ) ;
#15 = ORIENTED_EDGE ( 'NONE', *, *, #138, .T. ) ;
#16 = FACE_OUTER_BOUND ( 'NONE', #194, .T. ) ;
#17 = ORIENTED_EDGE ( 'NONE', *, *, #20, .T. ) ;
#18 = STYLED_ITEM ( 'NONE', ( #234 ), #77 ) ;
#19 = FACE_OUTER_BOUND ( 'NONE', #288, .T. ) ;
#20 = EDGE_CURVE ( 'NONE', #147, #25, #141, .T. ) ;
#21 = AXIS2_PLACEMENT_3D ( 'NONE', #27, #100, #37 ) ;
#22 = CIRCLE ( 'NONE', #201, 0.05899594499999999409 ) ;
#23 = EDGE_CURVE ( 'NONE', #94, #126, #22, .T. ) ;
#24 = CARTESIAN_POINT ( 'NONE',  ( 8.847974565113090185E-34, 0.000000000000000000, 7.224919520692329689E-18 ) ) ;
#25 = VERTEX_POINT ( 'NONE', #76 ) ;
#26 = AXIS2_PLACEMENT_3D ( 'NONE', #105, #172, #129 ) ;
#27 = CARTESIAN_POINT ( 'NONE',  ( 7.232163918832686227E-17, 0.000000000000000000, 0.5905510000000000481 ) ) ;
#28 = CARTESIAN_POINT ( 'NONE',  ( 0.000000000000000000, 0.000000000000000000, 1.496062999999999921 ) ) ;
#29 = CARTESIAN_POINT ( 'NONE',  ( -0.05899594499999991776, 7.224919520692328148E-18, 0.5905510000000000481 ) ) ;
#30 = VERTEX_POINT ( 'NONE', #274 ) ;
#31 = CIRCLE ( 'NONE', #186, 0.04405499999999973326 ) ;
#32 = CARTESIAN_POINT ( 'NONE',  ( 0.000000000000000000, 0.000000000000000000, 0.000000000000000000 ) ) ;
#33 =( NAMED_UNIT ( * ) PLANE_ANGLE_UNIT ( ) SI_UNIT ( $, .RADIAN. ) );
#34 = ORIENTED_EDGE ( 'NONE', *, *, #82, .T. ) ;
#35 = CARTESIAN_POINT ( 'NONE',  ( 0.000000000000000000, 0.000000000000000000, 1.496062999999999921 ) ) ;
#36 = ORIENTED_EDGE ( 'NONE', *, *, #231, .F. ) ;
#37 = DIRECTION ( 'NONE',  ( 1.000000000000000000, 0.000000000000000000, 0.000000000000000000 ) ) ;
#38 = PRODUCT ( 'Micro_EMSM-030-4', 'Micro_EMSM-030-4', '', ( #8 ) ) ;
#39 = VERTEX_POINT ( 'NONE', #163 ) ;
#40 = CARTESIAN_POINT ( 'NONE',  ( 0.05899594500000005654, 0.000000000000000000, 0.5905510000000000481 ) ) ;
#41 = CIRCLE ( 'NONE', #184, 0.05899594499999999409 ) ;
#42 = ORIENTED_EDGE ( 'NONE', *, *, #56, .T. ) ;
#43 = DIRECTION ( 'NONE',  ( 0.000000000000000000, 0.000000000000000000, 1.000000000000000000 ) ) ;
#44 = EDGE_CURVE ( 'NONE', #39, #241, #31, .T. ) ;
#45 = SURFACE_SIDE_STYLE ('',( #93 ) ) ;
#46 = ORIENTED_EDGE ( 'NONE', *, *, #213, .F. ) ;
#47 = DIRECTION ( 'NONE',  ( 0.1736481776669314692, 0.000000000000000000, 0.9848077530122077983 ) ) ;
#48 = CIRCLE ( 'NONE', #206, 0.05905500000000000332 ) ;
#49 = FILL_AREA_STYLE ('',( #254 ) ) ;
#50 = EDGE_CURVE ( 'NONE', #25, #147, #68, .T. ) ;
#51 = DIRECTION ( 'NONE',  ( -1.224646799147353207E-16, -0.000000000000000000, -1.000000000000000000 ) ) ;
#52 = ORIENTED_EDGE ( 'NONE', *, *, #231, .T. ) ;
#53 = ADVANCED_FACE ( 'NONE', ( #139 ), #136, .T. ) ;
#54 = DIRECTION ( 'NONE',  ( 1.000000000000000000, 0.000000000000000000, 0.000000000000000000 ) ) ;
#55 = MECHANICAL_DESIGN_GEOMETRIC_PRESENTATION_REPRESENTATION (  '', ( #18 ), #151 ) ;
#56 = EDGE_CURVE ( 'NONE', #30, #112, #13, .T. ) ;
#57 = DIRECTION ( 'NONE',  ( -1.000000000000000000, 0.000000000000000000, 0.000000000000000000 ) ) ;
#58 =( NAMED_UNIT ( * ) SI_UNIT ( $, .STERADIAN. ) SOLID_ANGLE_UNIT ( ) );
#59 =( CONVERSION_BASED_UNIT ( 'INCH', #190 ) LENGTH_UNIT ( ) NAMED_UNIT ( #209 ) );
#60 = AXIS2_PLACEMENT_3D ( 'NONE', #10, #61, #57 ) ;
#61 = DIRECTION ( 'NONE',  ( -0.000000000000000000, -0.000000000000000000, -1.000000000000000000 ) ) ;
#62 = CARTESIAN_POINT ( 'NONE',  ( 0.000000000000000000, 0.000000000000000000, 1.481062999999999574 ) ) ;
#63 = VERTEX_POINT ( 'NONE', #79 ) ;
#64 = ORIENTED_EDGE ( 'NONE', *, *, #192, .F. ) ;
#65 = CARTESIAN_POINT ( 'NONE',  ( -0.05899594499999998715, 0.000000000000000000, 7.224919520692328148E-18 ) ) ;
#66 = DIRECTION ( 'NONE',  ( -1.000000000000000000, 0.000000000000000000, 1.224646799147353207E-16 ) ) ;
#67 = ORIENTED_EDGE ( 'NONE', *, *, #220, .T. ) ;
#68 = CIRCLE ( 'NONE', #218, 0.05905500000000000332 ) ;
#69 = PRESENTATION_LAYER_ASSIGNMENT (  '', '', ( #202 ) ) ;
#70 =( LENGTH_UNIT ( ) NAMED_UNIT ( * ) SI_UNIT ( $, .METRE. ) );
#71 = EDGE_LOOP ( 'NONE', ( #11, #34, #17, #64 ) ) ;
#72 = ADVANCED_FACE ( 'NONE', ( #260 ), #123, .F. ) ;
#73 = DIRECTION ( 'NONE',  ( -0.000000000000000000, -0.000000000000000000, -1.000000000000000000 ) ) ;
#74 = VERTEX_POINT ( 'NONE', #143 ) ;
#75 =( GEOMETRIC_REPRESENTATION_CONTEXT ( 3 ) GLOBAL_UNCERTAINTY_ASSIGNED_CONTEXT ( ( #295 ) ) GLOBAL_UNIT_ASSIGNED_CONTEXT ( ( #296, #203, #252 ) ) REPRESENTATION_CONTEXT ( 'NONE', 'WORKASPACE' ) );
#76 = CARTESIAN_POINT ( 'NONE',  ( 0.05905500000000007271, 7.232151672364703126E-18, 0.5908859175478576864 ) ) ;
#77 = MANIFOLD_SOLID_BREP ( 'Cut-Revolve1', #153 ) ;
#78 = ADVANCED_FACE ( 'NONE', ( #168 ), #282, .T. ) ;
#79 = CARTESIAN_POINT ( 'NONE',  ( -0.05899594499999991776, 7.228535596528511785E-18, 0.5905510000000000481 ) ) ;
#80 = AXIS2_PLACEMENT_3D ( 'NONE', #35, #195, #102 ) ;
#81 = FACE_OUTER_BOUND ( 'NONE', #246, .T. ) ;
#82 = EDGE_CURVE ( 'NONE', #63, #147, #281, .T. ) ;
#83 = FILL_AREA_STYLE ('',( #142 ) ) ;
#84 = APPLICATION_CONTEXT ( 'automotive_design' ) ;
#85 = VECTOR ( 'NONE', #87, 39.37007874015748143 ) ;
#86 = CARTESIAN_POINT ( 'NONE',  ( -0.05899594499999999409, 0.000000000000000000, 1.444983904138465938E-17 ) ) ;
#87 = DIRECTION ( 'NONE',  ( -1.224646799147353207E-16, -0.000000000000000000, -1.000000000000000000 ) ) ;
#88 = EDGE_LOOP ( 'NONE', ( #90, #9 ) ) ;
#89 = CARTESIAN_POINT ( 'NONE',  ( 0.000000000000000000, 0.000000000000000000, 1.496062999999999921 ) ) ;
#90 = ORIENTED_EDGE ( 'NONE', *, *, #109, .T. ) ;
#91 = VECTOR ( 'NONE', #47, 39.37007874015748143 ) ;
#92 = PRODUCT_DEFINITION_CONTEXT ( 'detailed design', #232, 'design' ) ;
#93 = SURFACE_STYLE_FILL_AREA ( #49 ) ;
#94 = VERTEX_POINT ( 'NONE', #210 ) ;
#95 = EDGE_CURVE ( 'NONE', #126, #94, #41, .T. ) ;
#96 = CARTESIAN_POINT ( 'NONE',  ( -0.05905500000000000332, 0.000000000000000000, 1.496062999999999921 ) ) ;
#97 = DIRECTION ( 'NONE',  ( -1.224646799147353207E-16, -0.000000000000000000, -1.000000000000000000 ) ) ;
#98 = CARTESIAN_POINT ( 'NONE',  ( 7.236265475862306734E-17, 0.000000000000000000, 0.5908859175478576864 ) ) ;
#99 = AXIS2_PLACEMENT_3D ( 'NONE', #28, #238, #211 ) ;
#100 = DIRECTION ( 'NONE',  ( 1.224646799147353207E-16, 0.000000000000000000, 1.000000000000000000 ) ) ;
#101 = ORIENTED_EDGE ( 'NONE', *, *, #116, .T. ) ;
#102 = DIRECTION ( 'NONE',  ( 1.000000000000000000, 0.000000000000000000, 0.000000000000000000 ) ) ;
#103 = AXIS2_PLACEMENT_3D ( 'NONE', #298, #216, #214 ) ;
#104 = APPLICATION_PROTOCOL_DEFINITION ( 'draft international standard', 'automotive_design', 1998, #232 ) ;
#105 = CARTESIAN_POINT ( 'NONE',  ( 0.000000000000000000, 0.000000000000000000, 0.000000000000000000 ) ) ;
#106 = ORIENTED_EDGE ( 'NONE', *, *, #247, .F. ) ;
#107 =( LENGTH_UNIT ( ) NAMED_UNIT ( * ) SI_UNIT ( $, .METRE. ) );
#108 = VECTOR ( 'NONE', #284, 39.37007874015748143 ) ;
#109 = EDGE_CURVE ( 'NONE', #241, #39, #205, .T. ) ;
#110 = ORIENTED_EDGE ( 'NONE', *, *, #213, .T. ) ;
#111 = DIRECTION ( 'NONE',  ( -1.000000000000000000, 0.000000000000000000, 0.000000000000000000 ) ) ;
#112 = VERTEX_POINT ( 'NONE', #144 ) ;
#113 = ORIENTED_EDGE ( 'NONE', *, *, #56, .F. ) ;
#114 = ADVANCED_FACE ( 'NONE', ( #81 ), #140, .T. ) ;
#115 = CARTESIAN_POINT ( 'NONE',  ( 0.04405499999999973326, 5.395181473643630390E-18, 1.496062999999999921 ) ) ;
#116 = EDGE_CURVE ( 'NONE', #112, #25, #259, .T. ) ;
#117 = ORIENTED_EDGE ( 'NONE', *, *, #271, .F. ) ;
#118 =( NAMED_UNIT ( * ) PLANE_ANGLE_UNIT ( ) SI_UNIT ( $, .RADIAN. ) );
#119 = CARTESIAN_POINT ( 'NONE',  ( 8.847974565113090185E-34, 0.000000000000000000, 7.224919520692329689E-18 ) ) ;
#120 = DIRECTION ( 'NONE',  ( -1.000000000000000000, 0.000000000000000000, 1.224646799147353454E-16 ) ) ;
#121 = AXIS2_PLACEMENT_3D ( 'NONE', #148, #12, #177 ) ;
#122 =( NAMED_UNIT ( * ) SI_UNIT ( $, .STERADIAN. ) SOLID_ANGLE_UNIT ( ) );
#123 = PLANE ( 'NONE',  #191 ) ;
#124 = ORIENTED_EDGE ( 'NONE', *, *, #192, .T. ) ;
#125 = LINE ( 'NONE', #287, #85 ) ;
#126 = VERTEX_POINT ( 'NONE', #86 ) ;
#127 = PRODUCT_RELATED_PRODUCT_CATEGORY ( 'part', '', ( #38 ) ) ;
#128 = CYLINDRICAL_SURFACE ( 'NONE', #294, 0.05899594499999998715 ) ;
#129 = DIRECTION ( 'NONE',  ( 1.000000000000000000, 0.000000000000000000, 0.000000000000000000 ) ) ;
#130 = ORIENTED_EDGE ( 'NONE', *, *, #247, .T. ) ;
#131 = EDGE_LOOP ( 'NONE', ( #42, #101, #196, #46 ) ) ;
#132 = PLANE ( 'NONE',  #279 ) ;
#133 = CIRCLE ( 'NONE', #1, 0.05899594499999998715 ) ;
#134 = DIMENSIONAL_EXPONENTS ( 1.000000000000000000, 0.000000000000000000, 0.000000000000000000, 0.000000000000000000, 0.000000000000000000, 0.000000000000000000, 0.000000000000000000 ) ;
#135 = CARTESIAN_POINT ( 'NONE',  ( 0.000000000000000000, 0.000000000000000000, 1.496062999999999921 ) ) ;
#136 = CONICAL_SURFACE ( 'NONE', #285, 0.05899594499999998715, 0.1745329251994339748 ) ;
#137 = DIRECTION ( 'NONE',  ( -1.000000000000000000, 0.000000000000000000, 1.224646799147353207E-16 ) ) ;
#138 = EDGE_CURVE ( 'NONE', #241, #30, #278, .T. ) ;
#139 = FACE_OUTER_BOUND ( 'NONE', #270, .T. ) ;
#140 = CYLINDRICAL_SURFACE ( 'NONE', #99, 0.05905500000000000332 ) ;
#141 = CIRCLE ( 'NONE', #166, 0.05905500000000000332 ) ;
#142 = FILL_AREA_STYLE_COLOUR ( '', #181 ) ;
#143 = CARTESIAN_POINT ( 'NONE',  ( 0.05899594500000005654, 0.000000000000000000, 0.5905510000000000481 ) ) ;
#144 = CARTESIAN_POINT ( 'NONE',  ( 0.05905500000000000332, 7.232151672364695422E-18, 1.481062999999999574 ) ) ;
#145 = DIRECTION ( 'NONE',  ( -1.224646799147353207E-16, -0.000000000000000000, -1.000000000000000000 ) ) ;
#146 = ADVANCED_FACE ( 'NONE', ( #265 ), #264, .T. ) ;
#147 = VERTEX_POINT ( 'NONE', #250 ) ;
#148 = CARTESIAN_POINT ( 'NONE',  ( 0.000000000000000000, 0.000000000000000000, 1.496062999999999921 ) ) ;
#149 = FACE_OUTER_BOUND ( 'NONE', #198, .T. ) ;
#150 = ORIENTED_EDGE ( 'NONE', *, *, #95, .T. ) ;
#151 =( GEOMETRIC_REPRESENTATION_CONTEXT ( 3 ) GLOBAL_UNCERTAINTY_ASSIGNED_CONTEXT ( ( #156 ) ) GLOBAL_UNIT_ASSIGNED_CONTEXT ( ( #59, #118, #58 ) ) REPRESENTATION_CONTEXT ( 'NONE', 'WORKASPACE' ) );
#152 = DIRECTION ( 'NONE',  ( 1.000000000000000000, 0.000000000000000000, -0.000000000000000000 ) ) ;
#153 = CLOSED_SHELL ( 'NONE', ( #255, #146, #286, #78, #114, #155, #189, #53, #261, #72 ) ) ;
#154 = ORIENTED_EDGE ( 'NONE', *, *, #50, .T. ) ;
#155 = ADVANCED_FACE ( 'NONE', ( #289 ), #132, .T. ) ;
#156 = UNCERTAINTY_MEASURE_WITH_UNIT (LENGTH_MEASURE( 1.000000000000000082E-05 ), #59, 'distance_accuracy_value', 'NONE');
#157 = SURFACE_STYLE_USAGE ( .BOTH. , #45 ) ;
#158 = LINE ( 'NONE', #115, #185 ) ;
#159 = LINE ( 'NONE', #65, #160 ) ;
#160 = VECTOR ( 'NONE', #197, 39.37007874015748143 ) ;
#161 = DIRECTION ( 'NONE',  ( 1.000000000000000000, 0.000000000000000000, 0.000000000000000000 ) ) ;
#162 = CONICAL_SURFACE ( 'NONE', #4, 0.04405499999999973326, 0.7853981633974491672 ) ;
#163 = CARTESIAN_POINT ( 'NONE',  ( 0.04405499999999973326, 6.313666573004162521E-18, 1.496062999999999921 ) ) ;
#164 = CARTESIAN_POINT ( 'NONE',  ( 7.232163918832686227E-17, 0.000000000000000000, 0.5905510000000000481 ) ) ;
#165 = DIRECTION ( 'NONE',  ( 1.000000000000000000, 0.000000000000000000, -0.000000000000000000 ) ) ;
#166 = AXIS2_PLACEMENT_3D ( 'NONE', #273, #299, #207 ) ;
#167 = EDGE_CURVE ( 'NONE', #74, #63, #276, .T. ) ;
#168 = FACE_OUTER_BOUND ( 'NONE', #131, .T. ) ;
#169 = PRODUCT_DEFINITION_SHAPE ( 'NONE', 'NONE',  #183 ) ;
#170 = SURFACE_STYLE_FILL_AREA ( #83 ) ;
#171 = FACE_OUTER_BOUND ( 'NONE', #176, .T. ) ;
#172 = DIRECTION ( 'NONE',  ( 0.000000000000000000, 0.000000000000000000, 1.000000000000000000 ) ) ;
#173 = DIRECTION ( 'NONE',  ( -0.1736481776669312471, 2.126576849575783933E-17, 0.9848077530122077983 ) ) ;
#174 =( GEOMETRIC_REPRESENTATION_CONTEXT ( 3 ) GLOBAL_UNCERTAINTY_ASSIGNED_CONTEXT ( ( #199 ) ) GLOBAL_UNIT_ASSIGNED_CONTEXT ( ( #243, #33, #122 ) ) REPRESENTATION_CONTEXT ( 'NONE', 'WORKASPACE' ) );
#175 = CARTESIAN_POINT ( 'NONE',  ( -0.04405499999999973326, 0.000000000000000000, 1.496062999999999921 ) ) ;
#176 = EDGE_LOOP ( 'NONE', ( #230, #130, #272, #267 ) ) ;
#177 = DIRECTION ( 'NONE',  ( -1.000000000000000000, 0.000000000000000000, 0.000000000000000000 ) ) ;
#178 = DIRECTION ( 'NONE',  ( -1.224646799147353207E-16, -0.000000000000000000, -1.000000000000000000 ) ) ;
#179 = CARTESIAN_POINT ( 'NONE',  ( 7.232163918832686227E-17, 0.000000000000000000, 0.5905510000000000481 ) ) ;
#180 = EDGE_LOOP ( 'NONE', ( #150, #251 ) ) ;
#181 = COLOUR_RGB ( '',0.7921568627450980005, 0.8196078431372548767, 0.9333333333333333481 ) ;
#182 = ORIENTED_EDGE ( 'NONE', *, *, #271, .T. ) ;
#183 = PRODUCT_DEFINITION ( 'UNKNOWN', '', #227, #92 ) ;
#184 = AXIS2_PLACEMENT_3D ( 'NONE', #119, #145, #120 ) ;
#185 = VECTOR ( 'NONE', #253, 39.37007874015748143 ) ;
#186 = AXIS2_PLACEMENT_3D ( 'NONE', #135, #228, #161 ) ;
#187 = DIRECTION ( 'NONE',  ( -1.000000000000000000, 0.000000000000000000, 1.224646799147353454E-16 ) ) ;
#188 = DIRECTION ( 'NONE',  ( 0.000000000000000000, 0.000000000000000000, 1.000000000000000000 ) ) ;
#189 = ADVANCED_FACE ( 'NONE', ( #16 ), #256, .T. ) ;
#190 = LENGTH_MEASURE_WITH_UNIT ( LENGTH_MEASURE( 0.02539999999999999897 ), #7 );
#191 = AXIS2_PLACEMENT_3D ( 'NONE', #3, #188, #165 ) ;
#192 = EDGE_CURVE ( 'NONE', #74, #25, #248, .T. ) ;
#193 = SHAPE_DEFINITION_REPRESENTATION ( #169, #277 ) ;
#194 = EDGE_LOOP ( 'NONE', ( #117, #6, #15, #36 ) ) ;
#195 = DIRECTION ( 'NONE',  ( 0.000000000000000000, 0.000000000000000000, 1.000000000000000000 ) ) ;
#196 = ORIENTED_EDGE ( 'NONE', *, *, #20, .F. ) ;
#197 = DIRECTION ( 'NONE',  ( -1.224646799147353207E-16, -0.000000000000000000, -1.000000000000000000 ) ) ;
#198 = EDGE_LOOP ( 'NONE', ( #106, #275, #67, #237 ) ) ;
#199 = UNCERTAINTY_MEASURE_WITH_UNIT (LENGTH_MEASURE( 1.000000000000000082E-05 ), #243, 'distance_accuracy_value', 'NONE');
#200 = LENGTH_MEASURE_WITH_UNIT ( LENGTH_MEASURE( 0.02539999999999999897 ), #70 );
#201 = AXIS2_PLACEMENT_3D ( 'NONE', #24, #97, #187 ) ;
#202 = STYLED_ITEM ( 'NONE', ( #223 ), #277 ) ;
#203 =( NAMED_UNIT ( * ) PLANE_ANGLE_UNIT ( ) SI_UNIT ( $, .RADIAN. ) );
#204 = DIMENSIONAL_EXPONENTS ( 1.000000000000000000, 0.000000000000000000, 0.000000000000000000, 0.000000000000000000, 0.000000000000000000, 0.000000000000000000, 0.000000000000000000 ) ;
#205 = CIRCLE ( 'NONE', #80, 0.04405499999999973326 ) ;
#206 = AXIS2_PLACEMENT_3D ( 'NONE', #62, #245, #268 ) ;
#207 = DIRECTION ( 'NONE',  ( 1.000000000000000000, 0.000000000000000000, 0.000000000000000000 ) ) ;
#208 = ORIENTED_EDGE ( 'NONE', *, *, #116, .F. ) ;
#209 = DIMENSIONAL_EXPONENTS ( 1.000000000000000000, 0.000000000000000000, 0.000000000000000000, 0.000000000000000000, 0.000000000000000000, 0.000000000000000000, 0.000000000000000000 ) ;
#210 = CARTESIAN_POINT ( 'NONE',  ( 0.05899594500000000796, 7.224919520692329689E-18, 0.000000000000000000 ) ) ;
#211 = DIRECTION ( 'NONE',  ( -1.000000000000000000, 0.000000000000000000, 0.000000000000000000 ) ) ;
#212 = AXIS2_PLACEMENT_3D ( 'NONE', #244, #217, #291 ) ;
#213 = EDGE_CURVE ( 'NONE', #30, #147, #297, .T. ) ;
#214 = DIRECTION ( 'NONE',  ( 1.000000000000000000, 0.000000000000000000, 0.000000000000000000 ) ) ;
#215 = ORIENTED_EDGE ( 'NONE', *, *, #44, .F. ) ;
#216 = DIRECTION ( 'NONE',  ( 0.000000000000000000, 0.000000000000000000, -1.000000000000000000 ) ) ;
#217 = DIRECTION ( 'NONE',  ( -1.224646799147353207E-16, -0.000000000000000000, -1.000000000000000000 ) ) ;
#218 = AXIS2_PLACEMENT_3D ( 'NONE', #98, #51, #54 ) ;
#219 = DIRECTION ( 'NONE',  ( -1.224646799147353207E-16, -0.000000000000000000, -1.000000000000000000 ) ) ;
#220 = EDGE_CURVE ( 'NONE', #63, #126, #159, .T. ) ;
#221 = ORIENTED_EDGE ( 'NONE', *, *, #82, .F. ) ;
#222 = DIRECTION ( 'NONE',  ( 0.000000000000000000, 0.000000000000000000, -1.000000000000000000 ) ) ;
#223 = PRESENTATION_STYLE_ASSIGNMENT (( #157 ) ) ;
#224 = ORIENTED_EDGE ( 'NONE', *, *, #138, .F. ) ;
#225 = AXIS2_PLACEMENT_3D ( 'NONE', #266, #239, #66 ) ;
#226 = DIRECTION ( 'NONE',  ( 1.000000000000000000, 0.000000000000000000, 0.000000000000000000 ) ) ;
#227 = PRODUCT_DEFINITION_FORMATION_WITH_SPECIFIED_SOURCE ( 'ANY', '', #38, .NOT_KNOWN. ) ;
#228 = DIRECTION ( 'NONE',  ( 0.000000000000000000, 0.000000000000000000, 1.000000000000000000 ) ) ;
#229 = EDGE_CURVE ( 'NONE', #63, #74, #133, .T. ) ;
#230 = ORIENTED_EDGE ( 'NONE', *, *, #229, .T. ) ;
#231 = EDGE_CURVE ( 'NONE', #112, #30, #48, .T. ) ;
#232 = APPLICATION_CONTEXT ( 'automotive_design' ) ;
#233 = PRESENTATION_LAYER_ASSIGNMENT (  '', '', ( #18 ) ) ;
#234 = PRESENTATION_STYLE_ASSIGNMENT (( #235 ) ) ;
#235 = SURFACE_STYLE_USAGE ( .BOTH. , #263 ) ;
#236 = CARTESIAN_POINT ( 'NONE',  ( 0.05905500000000000332, 7.232151672364695422E-18, 1.496062999999999921 ) ) ;
#237 = ORIENTED_EDGE ( 'NONE', *, *, #23, .F. ) ;
#238 = DIRECTION ( 'NONE',  ( -0.000000000000000000, -0.000000000000000000, -1.000000000000000000 ) ) ;
#239 = DIRECTION ( 'NONE',  ( -1.224646799147353207E-16, -0.000000000000000000, -1.000000000000000000 ) ) ;
#240 = APPLICATION_PROTOCOL_DEFINITION ( 'draft international standard', 'automotive_design', 1998, #84 ) ;
#241 = VERTEX_POINT ( 'NONE', #5 ) ;
#242 = CARTESIAN_POINT ( 'NONE',  ( 0.000000000000000000, 0.000000000000000000, 1.496062999999999921 ) ) ;
#243 =( CONVERSION_BASED_UNIT ( 'INCH', #283 ) LENGTH_UNIT ( ) NAMED_UNIT ( #204 ) );
#244 = CARTESIAN_POINT ( 'NONE',  ( 7.232163918832686227E-17, 0.000000000000000000, 0.5905510000000000481 ) ) ;
#245 = DIRECTION ( 'NONE',  ( 0.000000000000000000, 0.000000000000000000, -1.000000000000000000 ) ) ;
#246 = EDGE_LOOP ( 'NONE', ( #208, #52, #110, #292 ) ) ;
#247 = EDGE_CURVE ( 'NONE', #74, #94, #125, .T. ) ;
#248 = LINE ( 'NONE', #40, #91 ) ;
#249 = VECTOR ( 'NONE', #2, 39.37007874015748143 ) ;
#250 = CARTESIAN_POINT ( 'NONE',  ( -0.05905499999999993394, 0.000000000000000000, 0.5908859175478576864 ) ) ;
#251 = ORIENTED_EDGE ( 'NONE', *, *, #23, .T. ) ;
#252 =( NAMED_UNIT ( * ) SI_UNIT ( $, .STERADIAN. ) SOLID_ANGLE_UNIT ( ) );
#253 = DIRECTION ( 'NONE',  ( 0.7071067811865482389, 8.659560562354941486E-17, -0.7071067811865469066 ) ) ;
#254 = FILL_AREA_STYLE_COLOUR ( '', #280 ) ;
#255 = ADVANCED_FACE ( 'NONE', ( #171 ), #262, .T. ) ;
#256 = CONICAL_SURFACE ( 'NONE', #121, 0.04405499999999973326, 0.7853981633974491672 ) ;
#257 = DIRECTION ( 'NONE',  ( 1.224646799147353207E-16, 0.000000000000000000, 1.000000000000000000 ) ) ;
#258 = VECTOR ( 'NONE', #173, 39.37007874015748143 ) ;
#259 = LINE ( 'NONE', #236, #108 ) ;
#260 = FACE_OUTER_BOUND ( 'NONE', #180, .T. ) ;
#261 = ADVANCED_FACE ( 'NONE', ( #149 ), #128, .T. ) ;
#262 = CYLINDRICAL_SURFACE ( 'NONE', #225, 0.05899594499999998715 ) ;
#263 = SURFACE_SIDE_STYLE ('',( #170 ) ) ;
#264 = CONICAL_SURFACE ( 'NONE', #21, 0.05899594499999998715, 0.1745329251994339748 ) ;
#265 = FACE_OUTER_BOUND ( 'NONE', #71, .T. ) ;
#266 = CARTESIAN_POINT ( 'NONE',  ( 0.000000000000000000, 0.000000000000000000, 0.000000000000000000 ) ) ;
#267 = ORIENTED_EDGE ( 'NONE', *, *, #220, .F. ) ;
#268 = DIRECTION ( 'NONE',  ( 1.000000000000000000, 0.000000000000000000, 0.000000000000000000 ) ) ;
#269 = MECHANICAL_DESIGN_GEOMETRIC_PRESENTATION_REPRESENTATION (  '', ( #202 ), #174 ) ;
#270 = EDGE_LOOP ( 'NONE', ( #221, #290, #124, #154 ) ) ;
#271 = EDGE_CURVE ( 'NONE', #39, #112, #158, .T. ) ;
#272 = ORIENTED_EDGE ( 'NONE', *, *, #95, .F. ) ;
#273 = CARTESIAN_POINT ( 'NONE',  ( 7.236265475862306734E-17, 0.000000000000000000, 0.5908859175478576864 ) ) ;
#274 = CARTESIAN_POINT ( 'NONE',  ( -0.05905500000000000332, 0.000000000000000000, 1.481062999999999574 ) ) ;
#275 = ORIENTED_EDGE ( 'NONE', *, *, #167, .T. ) ;
#276 = CIRCLE ( 'NONE', #212, 0.05899594499999998715 ) ;
#277 = ADVANCED_BREP_SHAPE_REPRESENTATION ( 'Micro_EMSM-030-4', ( #77, #26 ), #75 ) ;
#278 = LINE ( 'NONE', #175, #249 ) ;
#279 = AXIS2_PLACEMENT_3D ( 'NONE', #89, #43, #152 ) ;
#280 = COLOUR_RGB ( '',0.7921568627450980005, 0.8196078431372548767, 0.9333333333333333481 ) ;
#281 = LINE ( 'NONE', #29, #258 ) ;
#282 = CYLINDRICAL_SURFACE ( 'NONE', #60, 0.05905500000000000332 ) ;
#283 = LENGTH_MEASURE_WITH_UNIT ( LENGTH_MEASURE( 0.02539999999999999897 ), #107 );
#284 = DIRECTION ( 'NONE',  ( -0.000000000000000000, -0.000000000000000000, -1.000000000000000000 ) ) ;
#285 = AXIS2_PLACEMENT_3D ( 'NONE', #164, #257, #226 ) ;
#286 = ADVANCED_FACE ( 'NONE', ( #19 ), #162, .T. ) ;
#287 = CARTESIAN_POINT ( 'NONE',  ( 0.05899594499999998715, 7.224919520692328148E-18, -7.224919520692328148E-18 ) ) ;
#288 = EDGE_LOOP ( 'NONE', ( #215, #182, #113, #224 ) ) ;
#289 = FACE_OUTER_BOUND ( 'NONE', #88, .T. ) ;
#290 = ORIENTED_EDGE ( 'NONE', *, *, #167, .F. ) ;
#291 = DIRECTION ( 'NONE',  ( -1.000000000000000000, 0.000000000000000000, 0.000000000000000000 ) ) ;
#292 = ORIENTED_EDGE ( 'NONE', *, *, #50, .F. ) ;
#293 = VECTOR ( 'NONE', #73, 39.37007874015748143 ) ;
#294 = AXIS2_PLACEMENT_3D ( 'NONE', #32, #219, #137 ) ;
#295 = UNCERTAINTY_MEASURE_WITH_UNIT (LENGTH_MEASURE( 1.000000000000000082E-05 ), #296, 'distance_accuracy_value', 'NONE');
#296 =( CONVERSION_BASED_UNIT ( 'INCH', #200 ) LENGTH_UNIT ( ) NAMED_UNIT ( #134 ) );
#297 = LINE ( 'NONE', #96, #293 ) ;
#298 = CARTESIAN_POINT ( 'NONE',  ( 0.000000000000000000, 0.000000000000000000, 1.481062999999999574 ) ) ;
#299 = DIRECTION ( 'NONE',  ( -1.224646799147353207E-16, -0.000000000000000000, -1.000000000000000000 ) ) ;
ENDSEC;
END-ISO-10303-21;
