ISO-10303-21;
HEADER;
FILE_DESCRIPTION (( 'STEP AP214' ),
    '1' );
FILE_NAME ('Micro_SFBM-004-1X.STEP',
    '2021-09-03T16:35:09',
    ( '' ),
    ( '' ),
    'SwSTEP 2.0',
    'SolidWorks 2020',
    '' );
FILE_SCHEMA (( 'AUTOMOTIVE_DESIGN' ));
ENDSEC;

DATA;
#1 = DIRECTION ( 'NONE',  ( -1.000000000000000000, 0.0000000000000000000, 0.0000000000000000000 ) ) ;
#2 = ORIENTED_EDGE ( 'NONE', *, *, #14, .F. ) ;
#3 = AXIS2_PLACEMENT_3D ( 'NONE', #339, #71, #191 ) ;
#4 = ORIENTED_EDGE ( 'NONE', *, *, #29, .T. ) ;
#5 = AXIS2_PLACEMENT_3D ( 'NONE', #294, #242, #62 ) ;
#6 = DIRECTION ( 'NONE',  ( -1.000000000000000000, 0.0000000000000000000, 0.0000000000000000000 ) ) ;
#7 = ORIENTED_EDGE ( 'NONE', *, *, #325, .T. ) ;
#8 = AXIS2_PLACEMENT_3D ( 'NONE', #281, #19, #255 ) ;
#9 = CIRCLE ( 'NONE', #227, 0.1181100000000000066 ) ;
#10 = CYLINDRICAL_SURFACE ( 'NONE', #181, 0.1181100000000000066 ) ;
#11 = EDGE_LOOP ( 'NONE', ( #167, #223, #209, #156 ) ) ;
#12 = ADVANCED_FACE ( 'NONE', ( #157 ), #371, .T. ) ;
#13 = CARTESIAN_POINT ( 'NONE',  ( -0.007873212600000007236, 0.0000000000000000000, 0.0000000000000000000 ) ) ;
#14 = EDGE_CURVE ( 'NONE', #355, #207, #306, .T. ) ;
#15 = LENGTH_MEASURE_WITH_UNIT ( LENGTH_MEASURE( 0.02539999999999999897 ), #196 );
#16 = CARTESIAN_POINT ( 'NONE',  ( 0.0000000000000000000, 0.0000000000000000000, 0.01968500000000000111 ) ) ;
#17 = CIRCLE ( 'NONE', #235, 0.1181100000000000066 ) ;
#18 =( GEOMETRIC_REPRESENTATION_CONTEXT ( 3 ) GLOBAL_UNCERTAINTY_ASSIGNED_CONTEXT ( ( #174 ) ) GLOBAL_UNIT_ASSIGNED_CONTEXT ( ( #97, #217, #179 ) ) REPRESENTATION_CONTEXT ( 'NONE', 'WORKASPACE' ) );
#19 = DIRECTION ( 'NONE',  ( -0.0000000000000000000, -0.0000000000000000000, -1.000000000000000000 ) ) ;
#20 = CARTESIAN_POINT ( 'NONE',  ( 0.0000000000000000000, 0.0000000000000000000, 0.02526107574319907262 ) ) ;
#21 = EDGE_LOOP ( 'NONE', ( #72, #184, #89, #366 ) ) ;
#22 = PLANE ( 'NONE',  #58 ) ;
#23 = EDGE_LOOP ( 'NONE', ( #346, #4, #303, #169 ) ) ;
#24 = CIRCLE ( 'NONE', #3, 0.1181100000000000066 ) ;
#25 = AXIS2_PLACEMENT_3D ( 'NONE', #185, #301, #250 ) ;
#26 = DIRECTION ( 'NONE',  ( -0.0000000000000000000, -0.0000000000000000000, -1.000000000000000000 ) ) ;
#27 = PRODUCT_CONTEXT ( 'NONE', #246, 'mechanical' ) ;
#28 = DIRECTION ( 'NONE',  ( 0.1736481776669306365, 2.126576849575774996E-17, -0.9848077530122080203 ) ) ;
#29 = EDGE_CURVE ( 'NONE', #139, #269, #295, .T. ) ;
#30 = DIRECTION ( 'NONE',  ( -1.000000000000000000, 0.0000000000000000000, 0.0000000000000000000 ) ) ;
#31 = AXIS2_PLACEMENT_3D ( 'NONE', #163, #359, #363 ) ;
#32 = SHAPE_DEFINITION_REPRESENTATION ( #370, #208 ) ;
#33 = LINE ( 'NONE', #155, #353 ) ;
#34 = ORIENTED_EDGE ( 'NONE', *, *, #49, .F. ) ;
#35 = SURFACE_SIDE_STYLE ('',( #129 ) ) ;
#36 = PRESENTATION_STYLE_ASSIGNMENT (( #215 ) ) ;
#37 = VECTOR ( 'NONE', #40, 39.37007874015748854 ) ;
#38 = DIRECTION ( 'NONE',  ( -0.0000000000000000000, -0.0000000000000000000, -1.000000000000000000 ) ) ;
#39 = EDGE_CURVE ( 'NONE', #355, #46, #332, .T. ) ;
#40 = DIRECTION ( 'NONE',  ( -0.7071067811865358044, 0.0000000000000000000, -0.7071067811865590080 ) ) ;
#41 = ORIENTED_EDGE ( 'NONE', *, *, #325, .F. ) ;
#42 = CIRCLE ( 'NONE', #298, 0.007873212600000007236 ) ;
#43 = ORIENTED_EDGE ( 'NONE', *, *, #297, .F. ) ;
#44 = CARTESIAN_POINT ( 'NONE',  ( 0.006890000000000003760, 9.039860527860944354E-19, 0.02526107574319907262 ) ) ;
#45 = DIRECTION ( 'NONE',  ( -1.000000000000000000, 0.0000000000000000000, 0.0000000000000000000 ) ) ;
#46 = VERTEX_POINT ( 'NONE', #222 ) ;
#47 =( GEOMETRIC_REPRESENTATION_CONTEXT ( 3 ) GLOBAL_UNCERTAINTY_ASSIGNED_CONTEXT ( ( #268 ) ) GLOBAL_UNIT_ASSIGNED_CONTEXT ( ( #308, #282, #374 ) ) REPRESENTATION_CONTEXT ( 'NONE', 'WORKASPACE' ) );
#48 = DIRECTION ( 'NONE',  ( -1.000000000000000000, 0.0000000000000000000, 0.0000000000000000000 ) ) ;
#49 = EDGE_CURVE ( 'NONE', #46, #302, #9, .T. ) ;
#50 = VERTEX_POINT ( 'NONE', #251 ) ;
#51 = DIRECTION ( 'NONE',  ( -1.000000000000000000, 0.0000000000000000000, 0.0000000000000000000 ) ) ;
#52 = DIRECTION ( 'NONE',  ( -0.0000000000000000000, -0.0000000000000000000, -1.000000000000000000 ) ) ;
#53 = STYLED_ITEM ( 'NONE', ( #338 ), #208 ) ;
#54 = AXIS2_PLACEMENT_3D ( 'NONE', #114, #343, #80 ) ;
#55 = VERTEX_POINT ( 'NONE', #365 ) ;
#56 = ORIENTED_EDGE ( 'NONE', *, *, #221, .T. ) ;
#57 = CARTESIAN_POINT ( 'NONE',  ( 0.0000000000000000000, 0.0000000000000000000, 2.244094000000000033 ) ) ;
#58 = AXIS2_PLACEMENT_3D ( 'NONE', #230, #199, #140 ) ;
#59 = CIRCLE ( 'NONE', #133, 0.1181100000000000066 ) ;
#60 = EDGE_CURVE ( 'NONE', #302, #46, #24, .T. ) ;
#61 = FILL_AREA_STYLE_COLOUR ( '', #280 ) ;
#62 = DIRECTION ( 'NONE',  ( -1.000000000000000000, 0.0000000000000000000, 0.0000000000000000000 ) ) ;
#63 = DIRECTION ( 'NONE',  ( 0.7071067811865358044, 8.659560562354788645E-17, -0.7071067811865590080 ) ) ;
#64 = DIRECTION ( 'NONE',  ( 0.0000000000000000000, 0.0000000000000000000, -1.000000000000000000 ) ) ;
#65 = ORIENTED_EDGE ( 'NONE', *, *, #330, .T. ) ;
#66 = CIRCLE ( 'NONE', #287, 0.006890000000000003760 ) ;
#67 = CIRCLE ( 'NONE', #25, 0.006890000000000007230 ) ;
#68 = DIRECTION ( 'NONE',  ( -0.0000000000000000000, -0.0000000000000000000, -1.000000000000000000 ) ) ;
#69 = CARTESIAN_POINT ( 'NONE',  ( 0.0000000000000000000, 0.0000000000000000000, 2.229093999999999465 ) ) ;
#70 =( LENGTH_UNIT ( ) NAMED_UNIT ( * ) SI_UNIT ( $, .METRE. ) );
#71 = DIRECTION ( 'NONE',  ( 0.0000000000000000000, 0.0000000000000000000, -1.000000000000000000 ) ) ;
#72 = ORIENTED_EDGE ( 'NONE', *, *, #60, .T. ) ;
#73 =( NAMED_UNIT ( * ) SI_UNIT ( $, .STERADIAN. ) SOLID_ANGLE_UNIT ( ) );
#74 = CARTESIAN_POINT ( 'NONE',  ( 0.0000000000000000000, 0.0000000000000000000, 2.244094000000000033 ) ) ;
#75 = CARTESIAN_POINT ( 'NONE',  ( 0.006890000000000004628, 8.437816446125269412E-19, 0.0000000000000000000 ) ) ;
#76 = PRESENTATION_LAYER_ASSIGNMENT (  '', '', ( #372 ) ) ;
#77 = CARTESIAN_POINT ( 'NONE',  ( 0.0000000000000000000, 0.0000000000000000000, 0.04724400000000009148 ) ) ;
#78 = PRODUCT_RELATED_PRODUCT_CATEGORY ( 'part', '', ( #162 ) ) ;
#79 = EDGE_CURVE ( 'NONE', #130, #341, #270, .T. ) ;
#80 = DIRECTION ( 'NONE',  ( 1.000000000000000000, 0.0000000000000000000, 0.0000000000000000000 ) ) ;
#81 = DIRECTION ( 'NONE',  ( 1.000000000000000000, 0.0000000000000000000, 0.0000000000000000000 ) ) ;
#82 = CARTESIAN_POINT ( 'NONE',  ( 0.0000000000000000000, 0.0000000000000000000, 2.244094000000000033 ) ) ;
#83 = ORIENTED_EDGE ( 'NONE', *, *, #233, .F. ) ;
#84 = AXIS2_PLACEMENT_3D ( 'NONE', #377, #348, #30 ) ;
#85 = CARTESIAN_POINT ( 'NONE',  ( -0.007873212600000007236, 0.0000000000000000000, 0.0000000000000000000 ) ) ;
#86 = DIRECTION ( 'NONE',  ( -1.000000000000000000, 0.0000000000000000000, 0.0000000000000000000 ) ) ;
#87 = CLOSED_SHELL ( 'NONE', ( #354, #211, #340, #127, #218, #305, #176, #324, #135, #12, #146, #272, #92 ) ) ;
#88 = FACE_OUTER_BOUND ( 'NONE', #159, .T. ) ;
#89 = ORIENTED_EDGE ( 'NONE', *, *, #261, .F. ) ;
#90 = VECTOR ( 'NONE', #26, 39.37007874015748143 ) ;
#91 = ORIENTED_EDGE ( 'NONE', *, *, #327, .T. ) ;
#92 = ADVANCED_FACE ( 'NONE', ( #147 ), #106, .F. ) ;
#93 = DIRECTION ( 'NONE',  ( -0.0000000000000000000, -0.0000000000000000000, -1.000000000000000000 ) ) ;
#94 = PRESENTATION_LAYER_ASSIGNMENT (  '', '', ( #53 ) ) ;
#95 = CARTESIAN_POINT ( 'NONE',  ( 0.0000000000000000000, 0.0000000000000000000, 0.04724400000000009148 ) ) ;
#96 = ORIENTED_EDGE ( 'NONE', *, *, #120, .T. ) ;
#97 =( CONVERSION_BASED_UNIT ( 'INCH', #238 ) LENGTH_UNIT ( ) NAMED_UNIT ( #337 ) );
#98 = EDGE_LOOP ( 'NONE', ( #115, #198, #56, #83 ) ) ;
#99 = AXIS2_PLACEMENT_3D ( 'NONE', #200, #110, #234 ) ;
#100 = AXIS2_PLACEMENT_3D ( 'NONE', #321, #350, #81 ) ;
#101 = CARTESIAN_POINT ( 'NONE',  ( 0.1031100000000002570, 1.354581824536888722E-17, 2.244094000000000033 ) ) ;
#102 = ORIENTED_EDGE ( 'NONE', *, *, #39, .F. ) ;
#103 =( NAMED_UNIT ( * ) PLANE_ANGLE_UNIT ( ) SI_UNIT ( $, .RADIAN. ) );
#104 = VERTEX_POINT ( 'NONE', #197 ) ;
#105 = CARTESIAN_POINT ( 'NONE',  ( 0.0000000000000000000, 0.0000000000000000000, 0.01968500000000000111 ) ) ;
#106 = PLANE ( 'NONE',  #240 ) ;
#107 = MECHANICAL_DESIGN_GEOMETRIC_PRESENTATION_REPRESENTATION (  '', ( #53 ), #328 ) ;
#108 = LINE ( 'NONE', #75, #274 ) ;
#109 = ORIENTED_EDGE ( 'NONE', *, *, #60, .F. ) ;
#110 = DIRECTION ( 'NONE',  ( -0.0000000000000000000, 0.0000000000000000000, -1.000000000000000000 ) ) ;
#111 = EDGE_CURVE ( 'NONE', #341, #130, #66, .T. ) ;
#112 = DIRECTION ( 'NONE',  ( -0.0000000000000000000, -0.0000000000000000000, -1.000000000000000000 ) ) ;
#113 = PRODUCT_DEFINITION ( 'UNKNOWN', '', #141, #266 ) ;
#114 = CARTESIAN_POINT ( 'NONE',  ( 0.0000000000000000000, 0.0000000000000000000, 2.244094000000000033 ) ) ;
#115 = ORIENTED_EDGE ( 'NONE', *, *, #151, .F. ) ;
#116 = MECHANICAL_DESIGN_GEOMETRIC_PRESENTATION_REPRESENTATION (  '', ( #372 ), #18 ) ;
#117 = FACE_OUTER_BOUND ( 'NONE', #239, .T. ) ;
#118 = ORIENTED_EDGE ( 'NONE', *, *, #29, .F. ) ;
#119 = ORIENTED_EDGE ( 'NONE', *, *, #14, .T. ) ;
#120 = EDGE_CURVE ( 'NONE', #302, #149, #315, .T. ) ;
#121 = FACE_OUTER_BOUND ( 'NONE', #172, .T. ) ;
#122 = ORIENTED_EDGE ( 'NONE', *, *, #327, .F. ) ;
#123 = DIRECTION ( 'NONE',  ( -0.0000000000000000000, -0.0000000000000000000, -1.000000000000000000 ) ) ;
#124 = VECTOR ( 'NONE', #63, 39.37007874015748854 ) ;
#125 = DIRECTION ( 'NONE',  ( 1.000000000000000000, 0.0000000000000000000, 0.0000000000000000000 ) ) ;
#126 = AXIS2_PLACEMENT_3D ( 'NONE', #375, #112, #51 ) ;
#127 = ADVANCED_FACE ( 'NONE', ( #117 ), #313, .T. ) ;
#128 = DIRECTION ( 'NONE',  ( -0.0000000000000000000, -0.0000000000000000000, -1.000000000000000000 ) ) ;
#129 = SURFACE_STYLE_FILL_AREA ( #182 ) ;
#130 = VERTEX_POINT ( 'NONE', #44 ) ;
#131 = CARTESIAN_POINT ( 'NONE',  ( 0.0000000000000000000, 0.0000000000000000000, 0.0000000000000000000 ) ) ;
#132 = DIRECTION ( 'NONE',  ( 0.0000000000000000000, 0.0000000000000000000, -1.000000000000000000 ) ) ;
#133 = AXIS2_PLACEMENT_3D ( 'NONE', #95, #93, #356 ) ;
#134 = DIRECTION ( 'NONE',  ( -1.000000000000000000, 0.0000000000000000000, 0.0000000000000000000 ) ) ;
#135 = ADVANCED_FACE ( 'NONE', ( #137, #264 ), #345, .T. ) ;
#136 = DIRECTION ( 'NONE',  ( -1.000000000000000000, 0.0000000000000000000, 0.0000000000000000000 ) ) ;
#137 = FACE_BOUND ( 'NONE', #323, .T. ) ;
#138 = CARTESIAN_POINT ( 'NONE',  ( -0.1031100000000002570, 0.0000000000000000000, 2.244094000000000033 ) ) ;
#139 = VERTEX_POINT ( 'NONE', #254 ) ;
#140 = DIRECTION ( 'NONE',  ( 1.000000000000000000, 0.0000000000000000000, -0.0000000000000000000 ) ) ;
#141 = PRODUCT_DEFINITION_FORMATION_WITH_SPECIFIED_SOURCE ( 'ANY', '', #162, .NOT_KNOWN. ) ;
#142 = APPLICATION_PROTOCOL_DEFINITION ( 'draft international standard', 'automotive_design', 1998, #246 ) ;
#143 = CARTESIAN_POINT ( 'NONE',  ( -0.1031100000000002570, 0.0000000000000000000, 2.244094000000000033 ) ) ;
#144 = DIMENSIONAL_EXPONENTS ( 1.000000000000000000, 0.0000000000000000000, 0.0000000000000000000, 0.0000000000000000000, 0.0000000000000000000, 0.0000000000000000000, 0.0000000000000000000 ) ;
#145 = FACE_OUTER_BOUND ( 'NONE', #23, .T. ) ;
#146 = ADVANCED_FACE ( 'NONE', ( #145 ), #320, .T. ) ;
#147 = FACE_OUTER_BOUND ( 'NONE', #187, .T. ) ;
#148 =( LENGTH_UNIT ( ) NAMED_UNIT ( * ) SI_UNIT ( $, .METRE. ) );
#149 = VERTEX_POINT ( 'NONE', #285 ) ;
#150 = ORIENTED_EDGE ( 'NONE', *, *, #216, .T. ) ;
#151 = EDGE_CURVE ( 'NONE', #177, #50, #367, .T. ) ;
#152 = AXIS2_PLACEMENT_3D ( 'NONE', #82, #379, #86 ) ;
#153 = DIRECTION ( 'NONE',  ( -1.000000000000000000, 0.0000000000000000000, 0.0000000000000000000 ) ) ;
#154 = VERTEX_POINT ( 'NONE', #85 ) ;
#155 = CARTESIAN_POINT ( 'NONE',  ( 0.1181100000000000066, 1.446430334472939084E-17, 2.244094000000000033 ) ) ;
#156 = ORIENTED_EDGE ( 'NONE', *, *, #221, .F. ) ;
#157 = FACE_OUTER_BOUND ( 'NONE', #210, .T. ) ;
#158 = DIRECTION ( 'NONE',  ( -0.0000000000000000000, -0.0000000000000000000, -1.000000000000000000 ) ) ;
#159 = EDGE_LOOP ( 'NONE', ( #43, #284, #96, #361 ) ) ;
#160 = EDGE_CURVE ( 'NONE', #104, #149, #17, .T. ) ;
#161 =( CONVERSION_BASED_UNIT ( 'INCH', #344 ) LENGTH_UNIT ( ) NAMED_UNIT ( #275 ) );
#162 = PRODUCT ( 'Micro_SFBM-004-1X', 'Micro_SFBM-004-1X', '', ( #27 ) ) ;
#163 = CARTESIAN_POINT ( 'NONE',  ( 0.0000000000000000000, 0.0000000000000000000, 0.04724400000000000127 ) ) ;
#164 = AXIS2_PLACEMENT_3D ( 'NONE', #253, #220, #134 ) ;
#165 = DIRECTION ( 'NONE',  ( -0.0000000000000000000, -0.0000000000000000000, -1.000000000000000000 ) ) ;
#166 = ORIENTED_EDGE ( 'NONE', *, *, #243, .F. ) ;
#167 = ORIENTED_EDGE ( 'NONE', *, *, #243, .T. ) ;
#168 = CARTESIAN_POINT ( 'NONE',  ( 0.0000000000000000000, 0.0000000000000000000, 0.0000000000000000000 ) ) ;
#169 = ORIENTED_EDGE ( 'NONE', *, *, #79, .F. ) ;
#170 = CARTESIAN_POINT ( 'NONE',  ( -0.006890000000000004628, 0.0000000000000000000, 0.0000000000000000000 ) ) ;
#171 = LINE ( 'NONE', #291, #236 ) ;
#172 = EDGE_LOOP ( 'NONE', ( #102, #357, #91, #34 ) ) ;
#173 = CYLINDRICAL_SURFACE ( 'NONE', #84, 0.1181100000000000066 ) ;
#174 = UNCERTAINTY_MEASURE_WITH_UNIT (LENGTH_MEASURE( 1.000000000000000082E-05 ), #97, 'distance_accuracy_value', 'NONE');
#175 = DIRECTION ( 'NONE',  ( -0.0000000000000000000, -0.0000000000000000000, -1.000000000000000000 ) ) ;
#176 = ADVANCED_FACE ( 'NONE', ( #373 ), #22, .T. ) ;
#177 = VERTEX_POINT ( 'NONE', #203 ) ;
#178 = ORIENTED_EDGE ( 'NONE', *, *, #314, .F. ) ;
#179 =( NAMED_UNIT ( * ) SI_UNIT ( $, .STERADIAN. ) SOLID_ANGLE_UNIT ( ) );
#180 = AXIS2_PLACEMENT_3D ( 'NONE', #168, #52, #293 ) ;
#181 = AXIS2_PLACEMENT_3D ( 'NONE', #276, #360, #153 ) ;
#182 = FILL_AREA_STYLE ('',( #61 ) ) ;
#183 = DIRECTION ( 'NONE',  ( -0.0000000000000000000, -0.0000000000000000000, -1.000000000000000000 ) ) ;
#184 = ORIENTED_EDGE ( 'NONE', *, *, #297, .T. ) ;
#185 = CARTESIAN_POINT ( 'NONE',  ( 0.0000000000000000000, 0.0000000000000000000, 0.04724400000000000127 ) ) ;
#186 = AXIS2_PLACEMENT_3D ( 'NONE', #16, #38, #214 ) ;
#187 = EDGE_LOOP ( 'NONE', ( #258, #326 ) ) ;
#188 = APPLICATION_CONTEXT ( 'automotive_design' ) ;
#189 = DIRECTION ( 'NONE',  ( 1.000000000000000000, 0.0000000000000000000, 0.0000000000000000000 ) ) ;
#190 = EDGE_CURVE ( 'NONE', #207, #355, #279, .T. ) ;
#191 = DIRECTION ( 'NONE',  ( 1.000000000000000000, 0.0000000000000000000, 0.0000000000000000000 ) ) ;
#192 = DIRECTION ( 'NONE',  ( -0.0000000000000000000, -0.0000000000000000000, -1.000000000000000000 ) ) ;
#193 = DIRECTION ( 'NONE',  ( 0.0000000000000000000, 0.0000000000000000000, 1.000000000000000000 ) ) ;
#194 = AXIS2_PLACEMENT_3D ( 'NONE', #74, #193, #125 ) ;
#195 = VECTOR ( 'NONE', #300, 39.37007874015748143 ) ;
#196 =( LENGTH_UNIT ( ) NAMED_UNIT ( * ) SI_UNIT ( $, .METRE. ) );
#197 = CARTESIAN_POINT ( 'NONE',  ( 0.1181100000000000066, 1.446430334472939084E-17, 0.04724400000000009148 ) ) ;
#198 = ORIENTED_EDGE ( 'NONE', *, *, #290, .T. ) ;
#199 = DIRECTION ( 'NONE',  ( 0.0000000000000000000, 0.0000000000000000000, 1.000000000000000000 ) ) ;
#200 = CARTESIAN_POINT ( 'NONE',  ( 0.006890000000000007230, 0.0000000000000000000, 0.04724400000000000127 ) ) ;
#201 = CIRCLE ( 'NONE', #349, 0.007873212600000007236 ) ;
#202 = ORIENTED_EDGE ( 'NONE', *, *, #111, .T. ) ;
#203 = CARTESIAN_POINT ( 'NONE',  ( 0.007873212600000007236, 9.641904609596619297E-19, 0.01968500000000000111 ) ) ;
#204 = EDGE_CURVE ( 'NONE', #269, #341, #351, .T. ) ;
#205 = FACE_OUTER_BOUND ( 'NONE', #247, .T. ) ;
#206 = CARTESIAN_POINT ( 'NONE',  ( -0.006890000000000007230, 0.0000000000000000000, 0.04724400000000000127 ) ) ;
#207 = VERTEX_POINT ( 'NONE', #143 ) ;
#208 = ADVANCED_BREP_SHAPE_REPRESENTATION ( 'Micro_SFBM-004-1X', ( #319, #100 ), #47 ) ;
#209 = ORIENTED_EDGE ( 'NONE', *, *, #378, .F. ) ;
#210 = EDGE_LOOP ( 'NONE', ( #292, #307, #312, #352 ) ) ;
#211 = ADVANCED_FACE ( 'NONE', ( #205 ), #259, .T. ) ;
#212 = FACE_OUTER_BOUND ( 'NONE', #98, .T. ) ;
#213 = DIRECTION ( 'NONE',  ( -0.0000000000000000000, -0.0000000000000000000, -1.000000000000000000 ) ) ;
#214 = DIRECTION ( 'NONE',  ( -1.000000000000000000, 0.0000000000000000000, 0.0000000000000000000 ) ) ;
#215 = SURFACE_STYLE_USAGE ( .BOTH. , #35 ) ;
#216 = EDGE_CURVE ( 'NONE', #130, #177, #171, .T. ) ;
#217 =( NAMED_UNIT ( * ) PLANE_ANGLE_UNIT ( ) SI_UNIT ( $, .RADIAN. ) );
#218 = ADVANCED_FACE ( 'NONE', ( #262 ), #173, .T. ) ;
#219 = VECTOR ( 'NONE', #318, 39.37007874015748143 ) ;
#220 = DIRECTION ( 'NONE',  ( -0.0000000000000000000, -0.0000000000000000000, -1.000000000000000000 ) ) ;
#221 = EDGE_CURVE ( 'NONE', #55, #154, #273, .T. ) ;
#222 = CARTESIAN_POINT ( 'NONE',  ( 0.1181100000000000066, 1.446430334472939084E-17, 2.229093999999999465 ) ) ;
#223 = ORIENTED_EDGE ( 'NONE', *, *, #151, .T. ) ;
#224 = FACE_OUTER_BOUND ( 'NONE', #369, .T. ) ;
#225 = ORIENTED_EDGE ( 'NONE', *, *, #204, .F. ) ;
#226 = DIRECTION ( 'NONE',  ( -0.0000000000000000000, -0.0000000000000000000, -1.000000000000000000 ) ) ;
#227 = AXIS2_PLACEMENT_3D ( 'NONE', #69, #132, #189 ) ;
#228 = AXIS2_PLACEMENT_3D ( 'NONE', #131, #192, #136 ) ;
#229 = DIRECTION ( 'NONE',  ( -1.000000000000000000, 0.0000000000000000000, 0.0000000000000000000 ) ) ;
#230 = CARTESIAN_POINT ( 'NONE',  ( 0.0000000000000000000, 0.0000000000000000000, 2.244094000000000033 ) ) ;
#231 = CARTESIAN_POINT ( 'NONE',  ( 0.0000000000000000000, 0.0000000000000000000, 0.0000000000000000000 ) ) ;
#232 = ORIENTED_EDGE ( 'NONE', *, *, #160, .T. ) ;
#233 = EDGE_CURVE ( 'NONE', #50, #154, #42, .T. ) ;
#234 = DIRECTION ( 'NONE',  ( -1.000000000000000000, 0.0000000000000000000, 0.0000000000000000000 ) ) ;
#235 = AXIS2_PLACEMENT_3D ( 'NONE', #77, #342, #48 ) ;
#236 = VECTOR ( 'NONE', #28, 39.37007874015748143 ) ;
#237 = CARTESIAN_POINT ( 'NONE',  ( 0.007873212600000007236, 9.641904609596619297E-19, 0.0000000000000000000 ) ) ;
#238 = LENGTH_MEASURE_WITH_UNIT ( LENGTH_MEASURE( 0.02539999999999999897 ), #148 );
#239 = EDGE_LOOP ( 'NONE', ( #2, #283, #109, #122 ) ) ;
#240 = AXIS2_PLACEMENT_3D ( 'NONE', #231, #288, #311 ) ;
#241 = AXIS2_PLACEMENT_3D ( 'NONE', #57, #64, #248 ) ;
#242 = DIRECTION ( 'NONE',  ( -0.0000000000000000000, -0.0000000000000000000, -1.000000000000000000 ) ) ;
#243 = EDGE_CURVE ( 'NONE', #55, #177, #271, .T. ) ;
#244 = CARTESIAN_POINT ( 'NONE',  ( 0.0000000000000000000, 0.0000000000000000000, 0.01968500000000000111 ) ) ;
#245 = COLOUR_RGB ( '',0.7921568627450980005, 0.8196078431372548767, 0.9333333333333333481 ) ;
#246 = APPLICATION_CONTEXT ( 'automotive_design' ) ;
#247 = EDGE_LOOP ( 'NONE', ( #7, #65, #317, #225 ) ) ;
#248 = DIRECTION ( 'NONE',  ( -1.000000000000000000, 0.0000000000000000000, 0.0000000000000000000 ) ) ;
#249 = EDGE_LOOP ( 'NONE', ( #376, #119 ) ) ;
#250 = DIRECTION ( 'NONE',  ( -1.000000000000000000, 0.0000000000000000000, 0.0000000000000000000 ) ) ;
#251 = CARTESIAN_POINT ( 'NONE',  ( 0.007873212600000007236, 9.641904609596619297E-19, 0.0000000000000000000 ) ) ;
#252 = ORIENTED_EDGE ( 'NONE', *, *, #261, .T. ) ;
#253 = CARTESIAN_POINT ( 'NONE',  ( 0.0000000000000000000, 0.0000000000000000000, 0.0000000000000000000 ) ) ;
#254 = CARTESIAN_POINT ( 'NONE',  ( 0.006890000000000006362, 8.437816446125271338E-19, 0.04724400000000000127 ) ) ;
#255 = DIRECTION ( 'NONE',  ( -1.000000000000000000, 0.0000000000000000000, 0.0000000000000000000 ) ) ;
#256 = AXIS2_PLACEMENT_3D ( 'NONE', #105, #158, #229 ) ;
#257 = SURFACE_STYLE_USAGE ( .BOTH. , #364 ) ;
#258 = ORIENTED_EDGE ( 'NONE', *, *, #378, .T. ) ;
#259 = CYLINDRICAL_SURFACE ( 'NONE', #126, 0.006890000000000004628 ) ;
#260 = EDGE_LOOP ( 'NONE', ( #252, #232 ) ) ;
#261 = EDGE_CURVE ( 'NONE', #149, #104, #59, .T. ) ;
#262 = FACE_OUTER_BOUND ( 'NONE', #21, .T. ) ;
#263 = APPLICATION_PROTOCOL_DEFINITION ( 'draft international standard', 'automotive_design', 1998, #188 ) ;
#264 = FACE_OUTER_BOUND ( 'NONE', #260, .T. ) ;
#265 = AXIS2_PLACEMENT_3D ( 'NONE', #333, #128, #1 ) ;
#266 = PRODUCT_DEFINITION_CONTEXT ( 'detailed design', #188, 'design' ) ;
#267 = DIRECTION ( 'NONE',  ( -1.000000000000000000, 0.0000000000000000000, 0.0000000000000000000 ) ) ;
#268 = UNCERTAINTY_MEASURE_WITH_UNIT (LENGTH_MEASURE( 1.000000000000000082E-05 ), #308, 'distance_accuracy_value', 'NONE');
#269 = VERTEX_POINT ( 'NONE', #206 ) ;
#270 = CIRCLE ( 'NONE', #8, 0.006890000000000003760 ) ;
#271 = CIRCLE ( 'NONE', #5, 0.007873212600000007236 ) ;
#272 = ADVANCED_FACE ( 'NONE', ( #212 ), #331, .T. ) ;
#273 = LINE ( 'NONE', #13, #296 ) ;
#274 = VECTOR ( 'NONE', #165, 39.37007874015748143 ) ;
#275 = DIMENSIONAL_EXPONENTS ( 1.000000000000000000, 0.0000000000000000000, 0.0000000000000000000, 0.0000000000000000000, 0.0000000000000000000, 0.0000000000000000000, 0.0000000000000000000 ) ;
#276 = CARTESIAN_POINT ( 'NONE',  ( 0.0000000000000000000, 0.0000000000000000000, 2.244094000000000033 ) ) ;
#277 = CARTESIAN_POINT ( 'NONE',  ( -0.006890000000000003760, 0.0000000000000000000, 0.02526107574319907262 ) ) ;
#278 = FILL_AREA_STYLE_COLOUR ( '', #245 ) ;
#279 = CIRCLE ( 'NONE', #54, 0.1031100000000002570 ) ;
#280 = COLOUR_RGB ( '',0.7921568627450980005, 0.8196078431372548767, 0.9333333333333333481 ) ;
#281 = CARTESIAN_POINT ( 'NONE',  ( 0.0000000000000000000, 0.0000000000000000000, 0.02526107574319907262 ) ) ;
#282 =( NAMED_UNIT ( * ) PLANE_ANGLE_UNIT ( ) SI_UNIT ( $, .RADIAN. ) );
#283 = ORIENTED_EDGE ( 'NONE', *, *, #39, .T. ) ;
#284 = ORIENTED_EDGE ( 'NONE', *, *, #49, .T. ) ;
#285 = CARTESIAN_POINT ( 'NONE',  ( -0.1181100000000000066, 0.0000000000000000000, 0.04724400000000009148 ) ) ;
#286 = FACE_OUTER_BOUND ( 'NONE', #11, .T. ) ;
#287 = AXIS2_PLACEMENT_3D ( 'NONE', #20, #175, #45 ) ;
#288 = DIRECTION ( 'NONE',  ( 0.0000000000000000000, 0.0000000000000000000, 1.000000000000000000 ) ) ;
#289 = CIRCLE ( 'NONE', #228, 0.007873212600000007236 ) ;
#290 = EDGE_CURVE ( 'NONE', #177, #55, #201, .T. ) ;
#291 = CARTESIAN_POINT ( 'NONE',  ( 0.007873212600000007236, 9.641904609596619297E-19, 0.01968500000000000111 ) ) ;
#292 = ORIENTED_EDGE ( 'NONE', *, *, #216, .F. ) ;
#293 = DIRECTION ( 'NONE',  ( -1.000000000000000000, 0.0000000000000000000, 0.0000000000000000000 ) ) ;
#294 = CARTESIAN_POINT ( 'NONE',  ( 0.0000000000000000000, 0.0000000000000000000, 0.01968500000000000111 ) ) ;
#295 = CIRCLE ( 'NONE', #31, 0.006890000000000007230 ) ;
#296 = VECTOR ( 'NONE', #68, 39.37007874015748143 ) ;
#297 = EDGE_CURVE ( 'NONE', #46, #104, #33, .T. ) ;
#298 = AXIS2_PLACEMENT_3D ( 'NONE', #299, #213, #267 ) ;
#299 = CARTESIAN_POINT ( 'NONE',  ( 0.0000000000000000000, 0.0000000000000000000, 0.0000000000000000000 ) ) ;
#300 = DIRECTION ( 'NONE',  ( -0.1736481776669306365, 0.0000000000000000000, -0.9848077530122080203 ) ) ;
#301 = DIRECTION ( 'NONE',  ( -0.0000000000000000000, -0.0000000000000000000, -1.000000000000000000 ) ) ;
#302 = VERTEX_POINT ( 'NONE', #358 ) ;
#303 = ORIENTED_EDGE ( 'NONE', *, *, #204, .T. ) ;
#304 = FILL_AREA_STYLE ('',( #278 ) ) ;
#305 = ADVANCED_FACE ( 'NONE', ( #88 ), #10, .T. ) ;
#306 = CIRCLE ( 'NONE', #194, 0.1031100000000002570 ) ;
#307 = ORIENTED_EDGE ( 'NONE', *, *, #79, .T. ) ;
#308 =( CONVERSION_BASED_UNIT ( 'INCH', #15 ) LENGTH_UNIT ( ) NAMED_UNIT ( #144 ) );
#309 = CARTESIAN_POINT ( 'NONE',  ( -0.1181100000000000066, 0.0000000000000000000, 2.244094000000000033 ) ) ;
#310 = CYLINDRICAL_SURFACE ( 'NONE', #164, 0.007873212600000007236 ) ;
#311 = DIRECTION ( 'NONE',  ( 1.000000000000000000, 0.0000000000000000000, -0.0000000000000000000 ) ) ;
#312 = ORIENTED_EDGE ( 'NONE', *, *, #314, .T. ) ;
#313 = CONICAL_SURFACE ( 'NONE', #152, 0.1031100000000002570, 0.7853981633974318477 ) ;
#314 = EDGE_CURVE ( 'NONE', #341, #55, #329, .T. ) ;
#315 = LINE ( 'NONE', #309, #219 ) ;
#316 = CONICAL_SURFACE ( 'NONE', #256, 0.007873212600000007236, 0.1745329251994332531 ) ;
#317 = ORIENTED_EDGE ( 'NONE', *, *, #111, .F. ) ;
#318 = DIRECTION ( 'NONE',  ( -0.0000000000000000000, -0.0000000000000000000, -1.000000000000000000 ) ) ;
#319 = MANIFOLD_SOLID_BREP ( 'Cut-Revolve1', #87 ) ;
#320 = CYLINDRICAL_SURFACE ( 'NONE', #180, 0.006890000000000004628 ) ;
#321 = CARTESIAN_POINT ( 'NONE',  ( 0.0000000000000000000, 0.0000000000000000000, 0.0000000000000000000 ) ) ;
#322 = CARTESIAN_POINT ( 'NONE',  ( -0.007873212600000007236, 0.0000000000000000000, 0.01968500000000000111 ) ) ;
#323 = EDGE_LOOP ( 'NONE', ( #41, #118 ) ) ;
#324 = ADVANCED_FACE ( 'NONE', ( #121 ), #334, .T. ) ;
#325 = EDGE_CURVE ( 'NONE', #269, #139, #67, .T. ) ;
#326 = ORIENTED_EDGE ( 'NONE', *, *, #233, .T. ) ;
#327 = EDGE_CURVE ( 'NONE', #207, #302, #362, .T. ) ;
#328 =( GEOMETRIC_REPRESENTATION_CONTEXT ( 3 ) GLOBAL_UNCERTAINTY_ASSIGNED_CONTEXT ( ( #335 ) ) GLOBAL_UNIT_ASSIGNED_CONTEXT ( ( #161, #103, #73 ) ) REPRESENTATION_CONTEXT ( 'NONE', 'WORKASPACE' ) );
#329 = LINE ( 'NONE', #322, #195 ) ;
#330 = EDGE_CURVE ( 'NONE', #139, #130, #108, .T. ) ;
#331 = CYLINDRICAL_SURFACE ( 'NONE', #265, 0.007873212600000007236 ) ;
#332 = LINE ( 'NONE', #336, #124 ) ;
#333 = CARTESIAN_POINT ( 'NONE',  ( 0.0000000000000000000, 0.0000000000000000000, 0.0000000000000000000 ) ) ;
#334 = CONICAL_SURFACE ( 'NONE', #241, 0.1031100000000002570, 0.7853981633974318477 ) ;
#335 = UNCERTAINTY_MEASURE_WITH_UNIT (LENGTH_MEASURE( 1.000000000000000082E-05 ), #161, 'distance_accuracy_value', 'NONE');
#336 = CARTESIAN_POINT ( 'NONE',  ( 0.1031100000000002570, 1.262733314600838667E-17, 2.244094000000000033 ) ) ;
#337 = DIMENSIONAL_EXPONENTS ( 1.000000000000000000, 0.0000000000000000000, 0.0000000000000000000, 0.0000000000000000000, 0.0000000000000000000, 0.0000000000000000000, 0.0000000000000000000 ) ;
#338 = PRESENTATION_STYLE_ASSIGNMENT (( #257 ) ) ;
#339 = CARTESIAN_POINT ( 'NONE',  ( 0.0000000000000000000, 0.0000000000000000000, 2.229093999999999465 ) ) ;
#340 = ADVANCED_FACE ( 'NONE', ( #224 ), #316, .T. ) ;
#341 = VERTEX_POINT ( 'NONE', #277 ) ;
#342 = DIRECTION ( 'NONE',  ( -0.0000000000000000000, -0.0000000000000000000, -1.000000000000000000 ) ) ;
#343 = DIRECTION ( 'NONE',  ( 0.0000000000000000000, 0.0000000000000000000, 1.000000000000000000 ) ) ;
#344 = LENGTH_MEASURE_WITH_UNIT ( LENGTH_MEASURE( 0.02539999999999999897 ), #70 );
#345 = PLANE ( 'NONE',  #99 ) ;
#346 = ORIENTED_EDGE ( 'NONE', *, *, #330, .F. ) ;
#347 = VECTOR ( 'NONE', #226, 39.37007874015748143 ) ;
#348 = DIRECTION ( 'NONE',  ( -0.0000000000000000000, -0.0000000000000000000, -1.000000000000000000 ) ) ;
#349 = AXIS2_PLACEMENT_3D ( 'NONE', #244, #123, #6 ) ;
#350 = DIRECTION ( 'NONE',  ( 0.0000000000000000000, 0.0000000000000000000, 1.000000000000000000 ) ) ;
#351 = LINE ( 'NONE', #170, #90 ) ;
#352 = ORIENTED_EDGE ( 'NONE', *, *, #290, .F. ) ;
#353 = VECTOR ( 'NONE', #183, 39.37007874015748143 ) ;
#354 = ADVANCED_FACE ( 'NONE', ( #286 ), #310, .T. ) ;
#355 = VERTEX_POINT ( 'NONE', #101 ) ;
#356 = DIRECTION ( 'NONE',  ( -1.000000000000000000, 0.0000000000000000000, 0.0000000000000000000 ) ) ;
#357 = ORIENTED_EDGE ( 'NONE', *, *, #190, .F. ) ;
#358 = CARTESIAN_POINT ( 'NONE',  ( -0.1181100000000000066, 0.0000000000000000000, 2.229093999999999465 ) ) ;
#359 = DIRECTION ( 'NONE',  ( -0.0000000000000000000, -0.0000000000000000000, -1.000000000000000000 ) ) ;
#360 = DIRECTION ( 'NONE',  ( -0.0000000000000000000, -0.0000000000000000000, -1.000000000000000000 ) ) ;
#361 = ORIENTED_EDGE ( 'NONE', *, *, #160, .F. ) ;
#362 = LINE ( 'NONE', #138, #37 ) ;
#363 = DIRECTION ( 'NONE',  ( -1.000000000000000000, 0.0000000000000000000, 0.0000000000000000000 ) ) ;
#364 = SURFACE_SIDE_STYLE ('',( #368 ) ) ;
#365 = CARTESIAN_POINT ( 'NONE',  ( -0.007873212600000007236, 0.0000000000000000000, 0.01968500000000000111 ) ) ;
#366 = ORIENTED_EDGE ( 'NONE', *, *, #120, .F. ) ;
#367 = LINE ( 'NONE', #237, #347 ) ;
#368 = SURFACE_STYLE_FILL_AREA ( #304 ) ;
#369 = EDGE_LOOP ( 'NONE', ( #202, #150, #166, #178 ) ) ;
#370 = PRODUCT_DEFINITION_SHAPE ( 'NONE', 'NONE',  #113 ) ;
#371 = CONICAL_SURFACE ( 'NONE', #186, 0.007873212600000007236, 0.1745329251994332531 ) ;
#372 = STYLED_ITEM ( 'NONE', ( #36 ), #319 ) ;
#373 = FACE_OUTER_BOUND ( 'NONE', #249, .T. ) ;
#374 =( NAMED_UNIT ( * ) SI_UNIT ( $, .STERADIAN. ) SOLID_ANGLE_UNIT ( ) );
#375 = CARTESIAN_POINT ( 'NONE',  ( 0.0000000000000000000, 0.0000000000000000000, 0.0000000000000000000 ) ) ;
#376 = ORIENTED_EDGE ( 'NONE', *, *, #190, .T. ) ;
#377 = CARTESIAN_POINT ( 'NONE',  ( 0.0000000000000000000, 0.0000000000000000000, 2.244094000000000033 ) ) ;
#378 = EDGE_CURVE ( 'NONE', #154, #50, #289, .T. ) ;
#379 = DIRECTION ( 'NONE',  ( 0.0000000000000000000, 0.0000000000000000000, -1.000000000000000000 ) ) ;
ENDSEC;
END-ISO-10303-21;
