ISO-10303-21;
HEADER;
FILE_DESCRIPTION (( 'STEP AP214' ),
    '1' );
FILE_NAME ('Micro_SHL-250-4X.STEP',
    '2021-09-02T07:56:01',
    ( '' ),
    ( '' ),
    'SwSTEP 2.0',
    'SolidWorks 2020',
    '' );
FILE_SCHEMA (( 'AUTOMOTIVE_DESIGN' ));
ENDSEC;

DATA;
#1 = AXIS2_PLACEMENT_3D ( 'NONE', #96, #240, #35 ) ;
#2 = LENGTH_MEASURE_WITH_UNIT ( LENGTH_MEASURE( 0.02539999999999999897 ), #161 );
#3 = DIRECTION ( 'NONE',  ( -1.224646799147353454E-16, -0.0000000000000000000, -1.000000000000000000 ) ) ;
#4 = EDGE_CURVE ( 'NONE', #296, #58, #193, .T. ) ;
#5 = COLOUR_RGB ( '',0.7921568627450980005, 0.8196078431372548767, 0.9333333333333333481 ) ;
#6 = ORIENTED_EDGE ( 'NONE', *, *, #129, .F. ) ;
#7 = LINE ( 'NONE', #97, #156 ) ;
#8 = SHAPE_DEFINITION_REPRESENTATION ( #120, #45 ) ;
#9 = CARTESIAN_POINT ( 'NONE',  ( 0.1100000000000004446, 1.438959988998142995E-17, 3.000000000000000444 ) ) ;
#10 = ORIENTED_EDGE ( 'NONE', *, *, #259, .F. ) ;
#11 = AXIS2_PLACEMENT_3D ( 'NONE', #218, #184, #191 ) ;
#12 = CARTESIAN_POINT ( 'NONE',  ( 0.1250000000000001943, 1.530808498934193666E-17, 1.125708910227452675 ) ) ;
#13 = FACE_OUTER_BOUND ( 'NONE', #252, .T. ) ;
#14 = SURFACE_STYLE_FILL_AREA ( #170 ) ;
#15 = CIRCLE ( 'NONE', #144, 0.1248749999999999860 ) ;
#16 = DIRECTION ( 'NONE',  ( -0.0000000000000000000, -0.0000000000000000000, -1.000000000000000000 ) ) ;
#17 = UNCERTAINTY_MEASURE_WITH_UNIT (LENGTH_MEASURE( 1.000000000000000082E-05 ), #72, 'distance_accuracy_value', 'NONE');
#18 = ORIENTED_EDGE ( 'NONE', *, *, #295, .F. ) ;
#19 = ADVANCED_FACE ( 'NONE', ( #127 ), #30, .T. ) ;
#20 = CARTESIAN_POINT ( 'NONE',  ( 0.1248749999999999860, 1.529277690435257167E-17, -1.529277690435257475E-17 ) ) ;
#21 = STYLED_ITEM ( 'NONE', ( #152 ), #163 ) ;
#22 =( NAMED_UNIT ( * ) PLANE_ANGLE_UNIT ( ) SI_UNIT ( $, .RADIAN. ) );
#23 =( NAMED_UNIT ( * ) PLANE_ANGLE_UNIT ( ) SI_UNIT ( $, .RADIAN. ) );
#24 = FILL_AREA_STYLE_COLOUR ( '', #5 ) ;
#25 = COLOUR_RGB ( '',0.7921568627450980005, 0.8196078431372548767, 0.9333333333333333481 ) ;
#26 = FACE_OUTER_BOUND ( 'NONE', #134, .T. ) ;
#27 = VERTEX_POINT ( 'NONE', #12 ) ;
#28 = CLOSED_SHELL ( 'NONE', ( #247, #154, #50, #223, #280, #53, #76, #19, #100, #206 ) ) ;
#29 = CARTESIAN_POINT ( 'NONE',  ( 1.872825028598995495E-33, 0.0000000000000000000, 1.529277690435257475E-17 ) ) ;
#30 = CONICAL_SURFACE ( 'NONE', #158, 0.1248749999999999860, 0.1745329251994339748 ) ;
#31 = MECHANICAL_DESIGN_GEOMETRIC_PRESENTATION_REPRESENTATION (  '', ( #21 ), #185 ) ;
#32 = CARTESIAN_POINT ( 'NONE',  ( 0.0000000000000000000, 0.0000000000000000000, 3.000000000000000444 ) ) ;
#33 = PRODUCT_CONTEXT ( 'NONE', #65, 'mechanical' ) ;
#34 = VERTEX_POINT ( 'NONE', #9 ) ;
#35 = DIRECTION ( 'NONE',  ( -1.000000000000000000, 0.0000000000000000000, 0.0000000000000000000 ) ) ;
#36 = DIRECTION ( 'NONE',  ( 0.7071067811865580088, 8.659560562355061048E-17, -0.7071067811865370256 ) ) ;
#37 = AXIS2_PLACEMENT_3D ( 'NONE', #297, #71, #69 ) ;
#38 = EDGE_CURVE ( 'NONE', #34, #93, #283, .T. ) ;
#39 = DIRECTION ( 'NONE',  ( -0.0000000000000000000, -0.0000000000000000000, -1.000000000000000000 ) ) ;
#40 = PRODUCT ( 'Micro_SHL-250-4X', 'Micro_SHL-250-4X', '', ( #33 ) ) ;
#41 = LINE ( 'NONE', #61, #219 ) ;
#42 = FACE_OUTER_BOUND ( 'NONE', #164, .T. ) ;
#43 = LINE ( 'NONE', #153, #189 ) ;
#44 = ORIENTED_EDGE ( 'NONE', *, *, #131, .T. ) ;
#45 = ADVANCED_BREP_SHAPE_REPRESENTATION ( 'Micro_SHL-250-4X', ( #163, #230 ), #138 ) ;
#46 = ORIENTED_EDGE ( 'NONE', *, *, #118, .F. ) ;
#47 = PRESENTATION_LAYER_ASSIGNMENT (  '', '', ( #171 ) ) ;
#48 = ORIENTED_EDGE ( 'NONE', *, *, #160, .T. ) ;
#49 = DIRECTION ( 'NONE',  ( -0.0000000000000000000, -0.0000000000000000000, -1.000000000000000000 ) ) ;
#50 = ADVANCED_FACE ( 'NONE', ( #263 ), #112, .T. ) ;
#51 = APPLICATION_PROTOCOL_DEFINITION ( 'draft international standard', 'automotive_design', 1998, #65 ) ;
#52 = CIRCLE ( 'NONE', #116, 0.1100000000000004446 ) ;
#53 = ADVANCED_FACE ( 'NONE', ( #186 ), #125, .T. ) ;
#54 = DIRECTION ( 'NONE',  ( 0.0000000000000000000, 0.0000000000000000000, -1.000000000000000000 ) ) ;
#55 = APPLICATION_PROTOCOL_DEFINITION ( 'draft international standard', 'automotive_design', 1998, #242 ) ;
#56 = DIRECTION ( 'NONE',  ( -1.224646799147353454E-16, -0.0000000000000000000, -1.000000000000000000 ) ) ;
#57 = AXIS2_PLACEMENT_3D ( 'NONE', #265, #54, #60 ) ;
#58 = VERTEX_POINT ( 'NONE', #169 ) ;
#59 = EDGE_LOOP ( 'NONE', ( #80, #187, #168, #89 ) ) ;
#60 = DIRECTION ( 'NONE',  ( -1.000000000000000000, 0.0000000000000000000, 0.0000000000000000000 ) ) ;
#61 = CARTESIAN_POINT ( 'NONE',  ( 0.1250000000000000555, 1.530808498934191817E-17, 3.000000000000000444 ) ) ;
#62 = SURFACE_STYLE_USAGE ( .BOTH. , #109 ) ;
#63 = CARTESIAN_POINT ( 'NONE',  ( 1.378595813681705375E-16, 0.0000000000000000000, 1.125708910227452675 ) ) ;
#64 = ORIENTED_EDGE ( 'NONE', *, *, #253, .T. ) ;
#65 = APPLICATION_CONTEXT ( 'automotive_design' ) ;
#66 = DIRECTION ( 'NONE',  ( 1.000000000000000000, 0.0000000000000000000, -0.0000000000000000000 ) ) ;
#67 = VERTEX_POINT ( 'NONE', #74 ) ;
#68 = CARTESIAN_POINT ( 'NONE',  ( -0.1100000000000004446, 0.0000000000000000000, 3.000000000000000444 ) ) ;
#69 = DIRECTION ( 'NONE',  ( 1.000000000000000000, 0.0000000000000000000, 0.0000000000000000000 ) ) ;
#70 = AXIS2_PLACEMENT_3D ( 'NONE', #82, #266, #66 ) ;
#71 = DIRECTION ( 'NONE',  ( 0.0000000000000000000, 0.0000000000000000000, -1.000000000000000000 ) ) ;
#72 =( CONVERSION_BASED_UNIT ( 'INCH', #2 ) LENGTH_UNIT ( ) NAMED_UNIT ( #124 ) );
#73 = DIRECTION ( 'NONE',  ( 0.0000000000000000000, 0.0000000000000000000, -1.000000000000000000 ) ) ;
#74 = CARTESIAN_POINT ( 'NONE',  ( -0.1248749999999999860, 0.0000000000000000000, 3.058555380870514950E-17 ) ) ;
#75 = CARTESIAN_POINT ( 'NONE',  ( 0.0000000000000000000, 0.0000000000000000000, 0.0000000000000000000 ) ) ;
#76 = ADVANCED_FACE ( 'NONE', ( #257 ), #284, .T. ) ;
#77 = VERTEX_POINT ( 'NONE', #150 ) ;
#78 = CARTESIAN_POINT ( 'NONE',  ( 0.1100000000000004446, 1.347111479062094019E-17, 3.000000000000000444 ) ) ;
#79 = CARTESIAN_POINT ( 'NONE',  ( 0.0000000000000000000, 0.0000000000000000000, 0.0000000000000000000 ) ) ;
#80 = ORIENTED_EDGE ( 'NONE', *, *, #183, .F. ) ;
#81 = CARTESIAN_POINT ( 'NONE',  ( -0.1100000000000004446, 0.0000000000000000000, 3.000000000000000444 ) ) ;
#82 = CARTESIAN_POINT ( 'NONE',  ( 0.0000000000000000000, 0.0000000000000000000, 0.0000000000000000000 ) ) ;
#83 = AXIS2_PLACEMENT_3D ( 'NONE', #75, #56, #147 ) ;
#84 = DIRECTION ( 'NONE',  ( 1.000000000000000000, 0.0000000000000000000, 0.0000000000000000000 ) ) ;
#85 = CARTESIAN_POINT ( 'NONE',  ( 1.377727649040772882E-16, 0.0000000000000000000, 1.125000000000000222 ) ) ;
#86 = DIRECTION ( 'NONE',  ( -1.224646799147353454E-16, -0.0000000000000000000, -1.000000000000000000 ) ) ;
#87 = AXIS2_PLACEMENT_3D ( 'NONE', #244, #39, #221 ) ;
#88 = DIRECTION ( 'NONE',  ( 1.000000000000000000, 0.0000000000000000000, 0.0000000000000000000 ) ) ;
#89 = ORIENTED_EDGE ( 'NONE', *, *, #295, .T. ) ;
#90 = CARTESIAN_POINT ( 'NONE',  ( 1.378595813681705375E-16, 0.0000000000000000000, 1.125708910227452675 ) ) ;
#91 = LENGTH_MEASURE_WITH_UNIT ( LENGTH_MEASURE( 0.02539999999999999897 ), #145 );
#92 = UNCERTAINTY_MEASURE_WITH_UNIT (LENGTH_MEASURE( 1.000000000000000082E-05 ), #201, 'distance_accuracy_value', 'NONE');
#93 = VERTEX_POINT ( 'NONE', #235 ) ;
#94 = EDGE_CURVE ( 'NONE', #67, #220, #15, .T. ) ;
#95 = VECTOR ( 'NONE', #3, 39.37007874015748143 ) ;
#96 = CARTESIAN_POINT ( 'NONE',  ( 0.0000000000000000000, 0.0000000000000000000, 3.000000000000000444 ) ) ;
#97 = CARTESIAN_POINT ( 'NONE',  ( 0.1248750000000001248, 0.0000000000000000000, 1.125000000000000222 ) ) ;
#98 = ORIENTED_EDGE ( 'NONE', *, *, #299, .F. ) ;
#99 = DIMENSIONAL_EXPONENTS ( 1.000000000000000000, 0.0000000000000000000, 0.0000000000000000000, 0.0000000000000000000, 0.0000000000000000000, 0.0000000000000000000, 0.0000000000000000000 ) ;
#100 = ADVANCED_FACE ( 'NONE', ( #260 ), #281, .T. ) ;
#101 = AXIS2_PLACEMENT_3D ( 'NONE', #245, #228, #103 ) ;
#102 = ORIENTED_EDGE ( 'NONE', *, *, #173, .F. ) ;
#103 = DIRECTION ( 'NONE',  ( -1.000000000000000000, 0.0000000000000000000, 1.224646799147353454E-16 ) ) ;
#104 = CYLINDRICAL_SURFACE ( 'NONE', #162, 0.1248749999999999860 ) ;
#105 = LENGTH_MEASURE_WITH_UNIT ( LENGTH_MEASURE( 0.02539999999999999897 ), #137 );
#106 = CIRCLE ( 'NONE', #279, 0.1250000000000000555 ) ;
#107 = FILL_AREA_STYLE_COLOUR ( '', #25 ) ;
#108 = ORIENTED_EDGE ( 'NONE', *, *, #253, .F. ) ;
#109 = SURFACE_SIDE_STYLE ('',( #14 ) ) ;
#110 = ORIENTED_EDGE ( 'NONE', *, *, #211, .F. ) ;
#111 = CARTESIAN_POINT ( 'NONE',  ( -0.1250000000000000555, 0.0000000000000000000, 3.000000000000000444 ) ) ;
#112 = CONICAL_SURFACE ( 'NONE', #1, 0.1100000000000004446, 0.7853981633974631560 ) ;
#113 = ORIENTED_EDGE ( 'NONE', *, *, #173, .T. ) ;
#114 = LINE ( 'NONE', #111, #209 ) ;
#115 = SURFACE_STYLE_USAGE ( .BOTH. , #254 ) ;
#116 = AXIS2_PLACEMENT_3D ( 'NONE', #270, #128, #84 ) ;
#117 = CARTESIAN_POINT ( 'NONE',  ( 0.0000000000000000000, 0.0000000000000000000, 3.000000000000000444 ) ) ;
#118 = EDGE_CURVE ( 'NONE', #200, #34, #204, .T. ) ;
#119 = ORIENTED_EDGE ( 'NONE', *, *, #259, .T. ) ;
#120 = PRODUCT_DEFINITION_SHAPE ( 'NONE', 'NONE',  #289 ) ;
#121 = DIRECTION ( 'NONE',  ( -1.224646799147353454E-16, -0.0000000000000000000, -1.000000000000000000 ) ) ;
#122 = DIRECTION ( 'NONE',  ( 0.0000000000000000000, 0.0000000000000000000, 1.000000000000000000 ) ) ;
#123 = CARTESIAN_POINT ( 'NONE',  ( 1.377727649040772882E-16, 0.0000000000000000000, 1.125000000000000222 ) ) ;
#124 = DIMENSIONAL_EXPONENTS ( 1.000000000000000000, 0.0000000000000000000, 0.0000000000000000000, 0.0000000000000000000, 0.0000000000000000000, 0.0000000000000000000, 0.0000000000000000000 ) ;
#125 = PLANE ( 'NONE',  #11 ) ;
#126 = VECTOR ( 'NONE', #198, 39.37007874015748143 ) ;
#127 = FACE_OUTER_BOUND ( 'NONE', #59, .T. ) ;
#128 = DIRECTION ( 'NONE',  ( 0.0000000000000000000, 0.0000000000000000000, 1.000000000000000000 ) ) ;
#129 = EDGE_CURVE ( 'NONE', #58, #27, #7, .T. ) ;
#130 = DIRECTION ( 'NONE',  ( -0.1736481776669312471, 2.126576849575783933E-17, 0.9848077530122077983 ) ) ;
#131 = EDGE_CURVE ( 'NONE', #200, #159, #197, .T. ) ;
#132 = DIRECTION ( 'NONE',  ( -1.224646799147353454E-16, -0.0000000000000000000, -1.000000000000000000 ) ) ;
#133 = VECTOR ( 'NONE', #275, 39.37007874015748143 ) ;
#134 = EDGE_LOOP ( 'NONE', ( #110, #155, #119, #18 ) ) ;
#135 = DIRECTION ( 'NONE',  ( -1.000000000000000000, 0.0000000000000000000, 0.0000000000000000000 ) ) ;
#136 = ORIENTED_EDGE ( 'NONE', *, *, #195, .T. ) ;
#137 =( LENGTH_UNIT ( ) NAMED_UNIT ( * ) SI_UNIT ( $, .METRE. ) );
#138 =( GEOMETRIC_REPRESENTATION_CONTEXT ( 3 ) GLOBAL_UNCERTAINTY_ASSIGNED_CONTEXT ( ( #17 ) ) GLOBAL_UNIT_ASSIGNED_CONTEXT ( ( #72, #23, #179 ) ) REPRESENTATION_CONTEXT ( 'NONE', 'WORKASPACE' ) );
#139 = ORIENTED_EDGE ( 'NONE', *, *, #212, .T. ) ;
#140 = FILL_AREA_STYLE ('',( #24 ) ) ;
#141 = ORIENTED_EDGE ( 'NONE', *, *, #4, .T. ) ;
#142 = SURFACE_STYLE_FILL_AREA ( #140 ) ;
#143 = DIRECTION ( 'NONE',  ( -1.224646799147353454E-16, -0.0000000000000000000, -1.000000000000000000 ) ) ;
#144 = AXIS2_PLACEMENT_3D ( 'NONE', #29, #121, #213 ) ;
#145 =( LENGTH_UNIT ( ) NAMED_UNIT ( * ) SI_UNIT ( $, .METRE. ) );
#146 = DIRECTION ( 'NONE',  ( 1.224646799147353454E-16, 0.0000000000000000000, 1.000000000000000000 ) ) ;
#147 = DIRECTION ( 'NONE',  ( -1.000000000000000000, 0.0000000000000000000, 1.224646799147353454E-16 ) ) ;
#148 = ORIENTED_EDGE ( 'NONE', *, *, #211, .T. ) ;
#149 = ORIENTED_EDGE ( 'NONE', *, *, #131, .F. ) ;
#150 = CARTESIAN_POINT ( 'NONE',  ( -0.1249999999999999167, 0.0000000000000000000, 1.125708910227452675 ) ) ;
#151 = FACE_OUTER_BOUND ( 'NONE', #249, .T. ) ;
#152 = PRESENTATION_STYLE_ASSIGNMENT (( #62 ) ) ;
#153 = CARTESIAN_POINT ( 'NONE',  ( -0.1248749999999998472, 1.529277690435257167E-17, 1.125000000000000222 ) ) ;
#154 = ADVANCED_FACE ( 'NONE', ( #286 ), #293, .T. ) ;
#155 = ORIENTED_EDGE ( 'NONE', *, *, #271, .T. ) ;
#156 = VECTOR ( 'NONE', #227, 39.37007874015748143 ) ;
#157 = ORIENTED_EDGE ( 'NONE', *, *, #258, .T. ) ;
#158 = AXIS2_PLACEMENT_3D ( 'NONE', #123, #146, #285 ) ;
#159 = VERTEX_POINT ( 'NONE', #287 ) ;
#160 = EDGE_CURVE ( 'NONE', #77, #27, #262, .T. ) ;
#161 =( LENGTH_UNIT ( ) NAMED_UNIT ( * ) SI_UNIT ( $, .METRE. ) );
#162 = AXIS2_PLACEMENT_3D ( 'NONE', #194, #251, #248 ) ;
#163 = MANIFOLD_SOLID_BREP ( 'Cut-Revolve1', #28 ) ;
#164 = EDGE_LOOP ( 'NONE', ( #282, #136 ) ) ;
#165 = ORIENTED_EDGE ( 'NONE', *, *, #183, .T. ) ;
#166 = ORIENTED_EDGE ( 'NONE', *, *, #160, .F. ) ;
#167 =( GEOMETRIC_REPRESENTATION_CONTEXT ( 3 ) GLOBAL_UNCERTAINTY_ASSIGNED_CONTEXT ( ( #199 ) ) GLOBAL_UNIT_ASSIGNED_CONTEXT ( ( #182, #22, #264 ) ) REPRESENTATION_CONTEXT ( 'NONE', 'WORKASPACE' ) );
#168 = ORIENTED_EDGE ( 'NONE', *, *, #129, .T. ) ;
#169 = CARTESIAN_POINT ( 'NONE',  ( 0.1248750000000001248, 0.0000000000000000000, 1.125000000000000222 ) ) ;
#170 = FILL_AREA_STYLE ('',( #107 ) ) ;
#171 = STYLED_ITEM ( 'NONE', ( #208 ), #45 ) ;
#172 =( NAMED_UNIT ( * ) PLANE_ANGLE_UNIT ( ) SI_UNIT ( $, .RADIAN. ) );
#173 = EDGE_CURVE ( 'NONE', #34, #200, #52, .T. ) ;
#174 = PLANE ( 'NONE',  #70 ) ;
#175 = CARTESIAN_POINT ( 'NONE',  ( 0.1248749999999999860, 1.529277690435257167E-17, 0.0000000000000000000 ) ) ;
#176 = ORIENTED_EDGE ( 'NONE', *, *, #38, .F. ) ;
#177 = CARTESIAN_POINT ( 'NONE',  ( -0.1248749999999998472, 1.530043094684724646E-17, 1.125000000000000222 ) ) ;
#178 = ORIENTED_EDGE ( 'NONE', *, *, #195, .F. ) ;
#179 =( NAMED_UNIT ( * ) SI_UNIT ( $, .STERADIAN. ) SOLID_ANGLE_UNIT ( ) );
#180 = PRODUCT_RELATED_PRODUCT_CATEGORY ( 'part', '', ( #40 ) ) ;
#181 = AXIS2_PLACEMENT_3D ( 'NONE', #63, #86, #267 ) ;
#182 =( CONVERSION_BASED_UNIT ( 'INCH', #91 ) LENGTH_UNIT ( ) NAMED_UNIT ( #190 ) );
#183 = EDGE_CURVE ( 'NONE', #296, #77, #43, .T. ) ;
#184 = DIRECTION ( 'NONE',  ( 0.0000000000000000000, 0.0000000000000000000, 1.000000000000000000 ) ) ;
#185 =( GEOMETRIC_REPRESENTATION_CONTEXT ( 3 ) GLOBAL_UNCERTAINTY_ASSIGNED_CONTEXT ( ( #92 ) ) GLOBAL_UNIT_ASSIGNED_CONTEXT ( ( #201, #172, #290 ) ) REPRESENTATION_CONTEXT ( 'NONE', 'WORKASPACE' ) );
#186 = FACE_OUTER_BOUND ( 'NONE', #292, .T. ) ;
#187 = ORIENTED_EDGE ( 'NONE', *, *, #212, .F. ) ;
#188 = EDGE_LOOP ( 'NONE', ( #102, #217, #205, #149 ) ) ;
#189 = VECTOR ( 'NONE', #130, 39.37007874015748143 ) ;
#190 = DIMENSIONAL_EXPONENTS ( 1.000000000000000000, 0.0000000000000000000, 0.0000000000000000000, 0.0000000000000000000, 0.0000000000000000000, 0.0000000000000000000, 0.0000000000000000000 ) ;
#191 = DIRECTION ( 'NONE',  ( 1.000000000000000000, 0.0000000000000000000, -0.0000000000000000000 ) ) ;
#192 = DIRECTION ( 'NONE',  ( 1.000000000000000000, 0.0000000000000000000, 0.0000000000000000000 ) ) ;
#193 = CIRCLE ( 'NONE', #276, 0.1248749999999999860 ) ;
#194 = CARTESIAN_POINT ( 'NONE',  ( 0.0000000000000000000, 0.0000000000000000000, 0.0000000000000000000 ) ) ;
#195 = EDGE_CURVE ( 'NONE', #220, #67, #196, .T. ) ;
#196 = CIRCLE ( 'NONE', #101, 0.1248749999999999860 ) ;
#197 = LINE ( 'NONE', #68, #126 ) ;
#198 = DIRECTION ( 'NONE',  ( -0.7071067811865580088, 0.0000000000000000000, -0.7071067811865370256 ) ) ;
#199 = UNCERTAINTY_MEASURE_WITH_UNIT (LENGTH_MEASURE( 1.000000000000000082E-05 ), #182, 'distance_accuracy_value', 'NONE');
#200 = VERTEX_POINT ( 'NONE', #81 ) ;
#201 =( CONVERSION_BASED_UNIT ( 'INCH', #105 ) LENGTH_UNIT ( ) NAMED_UNIT ( #99 ) );
#202 = ORIENTED_EDGE ( 'NONE', *, *, #4, .F. ) ;
#203 = CARTESIAN_POINT ( 'NONE',  ( 0.0000000000000000000, 0.0000000000000000000, 2.985000000000001208 ) ) ;
#204 = CIRCLE ( 'NONE', #277, 0.1100000000000004446 ) ;
#205 = ORIENTED_EDGE ( 'NONE', *, *, #258, .F. ) ;
#206 = ADVANCED_FACE ( 'NONE', ( #42 ), #174, .F. ) ;
#207 = DIRECTION ( 'NONE',  ( -1.000000000000000000, 0.0000000000000000000, 0.0000000000000000000 ) ) ;
#208 = PRESENTATION_STYLE_ASSIGNMENT (( #115 ) ) ;
#209 = VECTOR ( 'NONE', #49, 39.37007874015748143 ) ;
#210 = CARTESIAN_POINT ( 'NONE',  ( -0.1248749999999999860, 0.0000000000000000000, 1.529277690435257475E-17 ) ) ;
#211 = EDGE_CURVE ( 'NONE', #93, #27, #41, .T. ) ;
#212 = EDGE_CURVE ( 'NONE', #58, #296, #234, .T. ) ;
#213 = DIRECTION ( 'NONE',  ( -1.000000000000000000, 0.0000000000000000000, 1.224646799147353454E-16 ) ) ;
#214 = MECHANICAL_DESIGN_GEOMETRIC_PRESENTATION_REPRESENTATION (  '', ( #171 ), #167 ) ;
#215 = DIRECTION ( 'NONE',  ( 1.000000000000000000, 0.0000000000000000000, 0.0000000000000000000 ) ) ;
#216 = DIRECTION ( 'NONE',  ( 1.000000000000000000, 0.0000000000000000000, 0.0000000000000000000 ) ) ;
#217 = ORIENTED_EDGE ( 'NONE', *, *, #38, .T. ) ;
#218 = CARTESIAN_POINT ( 'NONE',  ( 0.0000000000000000000, 0.0000000000000000000, 3.000000000000000444 ) ) ;
#219 = VECTOR ( 'NONE', #16, 39.37007874015748143 ) ;
#220 = VERTEX_POINT ( 'NONE', #175 ) ;
#221 = DIRECTION ( 'NONE',  ( -1.000000000000000000, 0.0000000000000000000, 0.0000000000000000000 ) ) ;
#222 = DIRECTION ( 'NONE',  ( 1.224646799147353454E-16, 0.0000000000000000000, 1.000000000000000000 ) ) ;
#223 = ADVANCED_FACE ( 'NONE', ( #151 ), #225, .T. ) ;
#224 = PRESENTATION_LAYER_ASSIGNMENT (  '', '', ( #21 ) ) ;
#225 = CYLINDRICAL_SURFACE ( 'NONE', #87, 0.1250000000000000555 ) ;
#226 = ORIENTED_EDGE ( 'NONE', *, *, #118, .T. ) ;
#227 = DIRECTION ( 'NONE',  ( 0.1736481776669314692, 0.0000000000000000000, 0.9848077530122077983 ) ) ;
#228 = DIRECTION ( 'NONE',  ( -1.224646799147353454E-16, -0.0000000000000000000, -1.000000000000000000 ) ) ;
#229 = AXIS2_PLACEMENT_3D ( 'NONE', #291, #222, #192 ) ;
#230 = AXIS2_PLACEMENT_3D ( 'NONE', #79, #236, #216 ) ;
#231 = EDGE_LOOP ( 'NONE', ( #202, #165, #48, #6 ) ) ;
#232 = EDGE_LOOP ( 'NONE', ( #98, #139, #64, #178 ) ) ;
#233 = LINE ( 'NONE', #20, #95 ) ;
#234 = CIRCLE ( 'NONE', #243, 0.1248749999999999860 ) ;
#235 = CARTESIAN_POINT ( 'NONE',  ( 0.1250000000000000555, 1.530808498934191817E-17, 2.985000000000001208 ) ) ;
#236 = DIRECTION ( 'NONE',  ( 0.0000000000000000000, 0.0000000000000000000, 1.000000000000000000 ) ) ;
#237 = ORIENTED_EDGE ( 'NONE', *, *, #94, .F. ) ;
#238 = PRODUCT_DEFINITION_FORMATION_WITH_SPECIFIED_SOURCE ( 'ANY', '', #40, .NOT_KNOWN. ) ;
#239 = ORIENTED_EDGE ( 'NONE', *, *, #299, .T. ) ;
#240 = DIRECTION ( 'NONE',  ( 0.0000000000000000000, 0.0000000000000000000, -1.000000000000000000 ) ) ;
#241 = DIRECTION ( 'NONE',  ( -1.224646799147353454E-16, -0.0000000000000000000, -1.000000000000000000 ) ) ;
#242 = APPLICATION_CONTEXT ( 'automotive_design' ) ;
#243 = AXIS2_PLACEMENT_3D ( 'NONE', #85, #132, #135 ) ;
#244 = CARTESIAN_POINT ( 'NONE',  ( 0.0000000000000000000, 0.0000000000000000000, 3.000000000000000444 ) ) ;
#245 = CARTESIAN_POINT ( 'NONE',  ( 1.872825028598995495E-33, 0.0000000000000000000, 1.529277690435257475E-17 ) ) ;
#246 = PRODUCT_DEFINITION_CONTEXT ( 'detailed design', #242, 'design' ) ;
#247 = ADVANCED_FACE ( 'NONE', ( #13 ), #104, .T. ) ;
#248 = DIRECTION ( 'NONE',  ( -1.000000000000000000, 0.0000000000000000000, 1.224646799147353454E-16 ) ) ;
#249 = EDGE_LOOP ( 'NONE', ( #157, #148, #166, #10 ) ) ;
#250 = AXIS2_PLACEMENT_3D ( 'NONE', #203, #73, #255 ) ;
#251 = DIRECTION ( 'NONE',  ( -1.224646799147353454E-16, -0.0000000000000000000, -1.000000000000000000 ) ) ;
#252 = EDGE_LOOP ( 'NONE', ( #141, #239, #237, #108 ) ) ;
#253 = EDGE_CURVE ( 'NONE', #296, #67, #274, .T. ) ;
#254 = SURFACE_SIDE_STYLE ('',( #142 ) ) ;
#255 = DIRECTION ( 'NONE',  ( 1.000000000000000000, 0.0000000000000000000, 0.0000000000000000000 ) ) ;
#256 = CIRCLE ( 'NONE', #37, 0.1250000000000000555 ) ;
#257 = FACE_OUTER_BOUND ( 'NONE', #268, .T. ) ;
#258 = EDGE_CURVE ( 'NONE', #159, #93, #269, .T. ) ;
#259 = EDGE_CURVE ( 'NONE', #159, #77, #114, .T. ) ;
#260 = FACE_OUTER_BOUND ( 'NONE', #232, .T. ) ;
#261 = CARTESIAN_POINT ( 'NONE',  ( 1.377727649040772882E-16, 0.0000000000000000000, 1.125000000000000222 ) ) ;
#262 = CIRCLE ( 'NONE', #181, 0.1250000000000000555 ) ;
#263 = FACE_OUTER_BOUND ( 'NONE', #188, .T. ) ;
#264 =( NAMED_UNIT ( * ) SI_UNIT ( $, .STERADIAN. ) SOLID_ANGLE_UNIT ( ) );
#265 = CARTESIAN_POINT ( 'NONE',  ( 0.0000000000000000000, 0.0000000000000000000, 3.000000000000000444 ) ) ;
#266 = DIRECTION ( 'NONE',  ( 0.0000000000000000000, 0.0000000000000000000, 1.000000000000000000 ) ) ;
#267 = DIRECTION ( 'NONE',  ( 1.000000000000000000, 0.0000000000000000000, 0.0000000000000000000 ) ) ;
#268 = EDGE_LOOP ( 'NONE', ( #176, #46, #44, #298 ) ) ;
#269 = CIRCLE ( 'NONE', #250, 0.1250000000000000555 ) ;
#270 = CARTESIAN_POINT ( 'NONE',  ( 0.0000000000000000000, 0.0000000000000000000, 3.000000000000000444 ) ) ;
#271 = EDGE_CURVE ( 'NONE', #93, #159, #256, .T. ) ;
#272 = DIRECTION ( 'NONE',  ( -0.0000000000000000000, -0.0000000000000000000, -1.000000000000000000 ) ) ;
#273 = AXIS2_PLACEMENT_3D ( 'NONE', #117, #272, #207 ) ;
#274 = LINE ( 'NONE', #210, #133 ) ;
#275 = DIRECTION ( 'NONE',  ( -1.224646799147353454E-16, -0.0000000000000000000, -1.000000000000000000 ) ) ;
#276 = AXIS2_PLACEMENT_3D ( 'NONE', #261, #241, #278 ) ;
#277 = AXIS2_PLACEMENT_3D ( 'NONE', #32, #122, #215 ) ;
#278 = DIRECTION ( 'NONE',  ( -1.000000000000000000, 0.0000000000000000000, 0.0000000000000000000 ) ) ;
#279 = AXIS2_PLACEMENT_3D ( 'NONE', #90, #143, #88 ) ;
#280 = ADVANCED_FACE ( 'NONE', ( #26 ), #294, .T. ) ;
#281 = CYLINDRICAL_SURFACE ( 'NONE', #83, 0.1248749999999999860 ) ;
#282 = ORIENTED_EDGE ( 'NONE', *, *, #94, .T. ) ;
#283 = LINE ( 'NONE', #78, #288 ) ;
#284 = CONICAL_SURFACE ( 'NONE', #57, 0.1100000000000004446, 0.7853981633974631560 ) ;
#285 = DIRECTION ( 'NONE',  ( 1.000000000000000000, 0.0000000000000000000, 0.0000000000000000000 ) ) ;
#286 = FACE_OUTER_BOUND ( 'NONE', #231, .T. ) ;
#287 = CARTESIAN_POINT ( 'NONE',  ( -0.1250000000000000555, 0.0000000000000000000, 2.985000000000001208 ) ) ;
#288 = VECTOR ( 'NONE', #36, 39.37007874015748143 ) ;
#289 = PRODUCT_DEFINITION ( 'UNKNOWN', '', #238, #246 ) ;
#290 =( NAMED_UNIT ( * ) SI_UNIT ( $, .STERADIAN. ) SOLID_ANGLE_UNIT ( ) );
#291 = CARTESIAN_POINT ( 'NONE',  ( 1.377727649040772882E-16, 0.0000000000000000000, 1.125000000000000222 ) ) ;
#292 = EDGE_LOOP ( 'NONE', ( #226, #113 ) ) ;
#293 = CONICAL_SURFACE ( 'NONE', #229, 0.1248749999999999860, 0.1745329251994339748 ) ;
#294 = CYLINDRICAL_SURFACE ( 'NONE', #273, 0.1250000000000000555 ) ;
#295 = EDGE_CURVE ( 'NONE', #27, #77, #106, .T. ) ;
#296 = VERTEX_POINT ( 'NONE', #177 ) ;
#297 = CARTESIAN_POINT ( 'NONE',  ( 0.0000000000000000000, 0.0000000000000000000, 2.985000000000001208 ) ) ;
#298 = ORIENTED_EDGE ( 'NONE', *, *, #271, .F. ) ;
#299 = EDGE_CURVE ( 'NONE', #58, #220, #233, .T. ) ;
ENDSEC;
END-ISO-10303-21;
