ISO-10303-21;
HEADER;
FILE_DESCRIPTION (( 'STEP AP214' ),
    '1' );
FILE_NAME ('01255.STEP',
    '2023-06-22T14:24:02',
    ( '' ),
    ( '' ),
    'SwSTEP 2.0',
    'SolidWorks 2023',
    '' );
FILE_SCHEMA (( 'AUTOMOTIVE_DESIGN' ));
ENDSEC;

DATA;
#1 = CYLINDRICAL_SURFACE ( 'NONE', #109, 0.1562500000000000278 ) ;
#2 = STYLED_ITEM ( 'NONE', ( #76 ), #136 ) ;
#3 = MECHANICAL_DESIGN_GEOMETRIC_PRESENTATION_REPRESENTATION (  '', ( #265 ), #61 ) ;
#4 = SURFACE_STYLE_FILL_AREA ( #122 ) ;
#5 =( NAMED_UNIT ( * ) PLANE_ANGLE_UNIT ( ) SI_UNIT ( $, .RADIAN. ) );
#6 =( CONVERSION_BASED_UNIT ( 'INCH', #156 ) LENGTH_UNIT ( ) NAMED_UNIT ( #170 ) );
#7 = SURFACE_STYLE_FILL_AREA ( #243 ) ;
#8 = SURFACE_STYLE_FILL_AREA ( #152 ) ;
#9 =( CONVERSION_BASED_UNIT ( 'INCH', #125 ) LENGTH_UNIT ( ) NAMED_UNIT ( #293 ) );
#10 = EDGE_CURVE ( 'NONE', #249, #87, #97, .T. ) ;
#11 = LENGTH_MEASURE_WITH_UNIT ( LENGTH_MEASURE( 0.02539999999999999897 ), #216 );
#12 = FILL_AREA_STYLE ('',( #92 ) ) ;
#13 = ADVANCED_FACE ( 'NONE', ( #39 ), #255, .T. ) ;
#14 = FILL_AREA_STYLE ('',( #88 ) ) ;
#15 = CIRCLE ( 'NONE', #58, 0.1562500000000000000 ) ;
#16 = PRESENTATION_LAYER_ASSIGNMENT (  '', '', ( #244 ) ) ;
#17 = ORIENTED_EDGE ( 'NONE', *, *, #209, .T. ) ;
#18 = CARTESIAN_POINT ( 'NONE',  ( 0.000000000000000000, 0.000000000000000000, 0.000000000000000000 ) ) ;
#19 = FILL_AREA_STYLE_COLOUR ( '', #182 ) ;
#20 = EDGE_CURVE ( 'NONE', #87, #249, #211, .T. ) ;
#21 = VECTOR ( 'NONE', #193, 39.37007874015748143 ) ;
#22 = ORIENTED_EDGE ( 'NONE', *, *, #150, .F. ) ;
#23 = UNCERTAINTY_MEASURE_WITH_UNIT (LENGTH_MEASURE( 1.000000000000000082E-05 ), #289, 'distance_accuracy_value', 'NONE');
#24 = CYLINDRICAL_SURFACE ( 'NONE', #288, 0.1562500000000000278 ) ;
#25 = CIRCLE ( 'NONE', #207, 0.1562500000000000833 ) ;
#26 = CARTESIAN_POINT ( 'NONE',  ( 1.913510623667739463E-17, 0.6250000000000000000, 0.1562500000000000000 ) ) ;
#27 = DIMENSIONAL_EXPONENTS ( 1.000000000000000000, 0.000000000000000000, 0.000000000000000000, 0.000000000000000000, 0.000000000000000000, 0.000000000000000000, 0.000000000000000000 ) ;
#28 = FACE_OUTER_BOUND ( 'NONE', #84, .T. ) ;
#29 = DIRECTION ( 'NONE',  ( -1.000000000000000000, 0.000000000000000000, 0.000000000000000000 ) ) ;
#30 = CLOSED_SHELL ( 'NONE', ( #143, #118, #129, #101 ) ) ;
#31 = AXIS2_PLACEMENT_3D ( 'NONE', #184, #286, #187 ) ;
#32 = DIRECTION ( 'NONE',  ( 0.000000000000000000, 0.000000000000000000, -1.000000000000000000 ) ) ;
#33 =( LENGTH_UNIT ( ) NAMED_UNIT ( * ) SI_UNIT ( $, .METRE. ) );
#34 = EDGE_CURVE ( 'NONE', #63, #235, #25, .T. ) ;
#35 = CARTESIAN_POINT ( 'NONE',  ( 0.000000000000000000, 0.000000000000000000, 0.000000000000000000 ) ) ;
#36 = AXIS2_PLACEMENT_3D ( 'NONE', #206, #128, #164 ) ;
#37 = SURFACE_SIDE_STYLE ('',( #300 ) ) ;
#38 = LENGTH_MEASURE_WITH_UNIT ( LENGTH_MEASURE( 0.02539999999999999897 ), #158 );
#39 = FACE_OUTER_BOUND ( 'NONE', #167, .T. ) ;
#40 = FACE_OUTER_BOUND ( 'NONE', #93, .T. ) ;
#41 = FACE_OUTER_BOUND ( 'NONE', #161, .T. ) ;
#42 = ORIENTED_EDGE ( 'NONE', *, *, #86, .F. ) ;
#43 = LENGTH_MEASURE_WITH_UNIT ( LENGTH_MEASURE( 0.02539999999999999897 ), #64 );
#44 = ORIENTED_EDGE ( 'NONE', *, *, #290, .T. ) ;
#45 = SURFACE_SIDE_STYLE ('',( #223 ) ) ;
#46 = DIRECTION ( 'NONE',  ( 0.000000000000000000, 0.000000000000000000, -1.000000000000000000 ) ) ;
#47 = SURFACE_STYLE_USAGE ( .BOTH. , #185 ) ;
#48 = STYLED_ITEM ( 'NONE', ( #268 ), #67 ) ;
#49 =( GEOMETRIC_REPRESENTATION_CONTEXT ( 3 ) GLOBAL_UNCERTAINTY_ASSIGNED_CONTEXT ( ( #83 ) ) GLOBAL_UNIT_ASSIGNED_CONTEXT ( ( #199, #148, #240 ) ) REPRESENTATION_CONTEXT ( 'NONE', 'WORKASPACE' ) );
#50 = ORIENTED_EDGE ( 'NONE', *, *, #150, .T. ) ;
#51 = DIRECTION ( 'NONE',  ( 1.000000000000000000, 0.000000000000000000, 0.000000000000000000 ) ) ;
#52 =( LENGTH_UNIT ( ) NAMED_UNIT ( * ) SI_UNIT ( $, .METRE. ) );
#53 = DIRECTION ( 'NONE',  ( -3.265724797726275178E-17, 1.000000000000000000, 0.000000000000000000 ) ) ;
#54 = VECTOR ( 'NONE', #90, 39.37007874015748143 ) ;
#55 = DIRECTION ( 'NONE',  ( 0.000000000000000000, 0.000000000000000000, 1.000000000000000000 ) ) ;
#56 = DIRECTION ( 'NONE',  ( -0.000000000000000000, -1.000000000000000000, -0.000000000000000000 ) ) ;
#57 = EDGE_CURVE ( 'NONE', #87, #63, #272, .T. ) ;
#58 = AXIS2_PLACEMENT_3D ( 'NONE', #35, #59, #218 ) ;
#59 = DIRECTION ( 'NONE',  ( -0.000000000000000000, -1.000000000000000000, -0.000000000000000000 ) ) ;
#60 = FILL_AREA_STYLE_COLOUR ( '', #194 ) ;
#61 =( GEOMETRIC_REPRESENTATION_CONTEXT ( 3 ) GLOBAL_UNCERTAINTY_ASSIGNED_CONTEXT ( ( #111 ) ) GLOBAL_UNIT_ASSIGNED_CONTEXT ( ( #247, #222, #62 ) ) REPRESENTATION_CONTEXT ( 'NONE', 'WORKASPACE' ) );
#62 =( NAMED_UNIT ( * ) SI_UNIT ( $, .STERADIAN. ) SOLID_ANGLE_UNIT ( ) );
#63 = VERTEX_POINT ( 'NONE', #66 ) ;
#64 =( LENGTH_UNIT ( ) NAMED_UNIT ( * ) SI_UNIT ( $, .METRE. ) );
#65 = CARTESIAN_POINT ( 'NONE',  ( 1.913510623667739463E-17, 0.000000000000000000, 0.1562500000000000000 ) ) ;
#66 = CARTESIAN_POINT ( 'NONE',  ( -0.1562500000000001388, 2.500000000000000000, 0.000000000000000000 ) ) ;
#67 = ADVANCED_FACE ( 'NONE', ( #256 ), #149, .T. ) ;
#68 = ORIENTED_EDGE ( 'NONE', *, *, #165, .T. ) ;
#69 = SHAPE_DEFINITION_REPRESENTATION ( #261, #192 ) ;
#70 = ORIENTED_EDGE ( 'NONE', *, *, #86, .T. ) ;
#71 = CARTESIAN_POINT ( 'NONE',  ( 0.000000000000000000, 0.000000000000000000, 0.000000000000000000 ) ) ;
#72 = AXIS2_PLACEMENT_3D ( 'NONE', #174, #246, #271 ) ;
#73 =( NAMED_UNIT ( * ) PLANE_ANGLE_UNIT ( ) SI_UNIT ( $, .RADIAN. ) );
#74 = AXIS2_PLACEMENT_3D ( 'NONE', #266, #56, #262 ) ;
#75 = AXIS2_PLACEMENT_3D ( 'NONE', #18, #186, #232 ) ;
#76 = PRESENTATION_STYLE_ASSIGNMENT (( #273 ) ) ;
#77 = DIRECTION ( 'NONE',  ( 0.000000000000000000, -0.000000000000000000, 1.000000000000000000 ) ) ;
#78 = DIMENSIONAL_EXPONENTS ( 1.000000000000000000, 0.000000000000000000, 0.000000000000000000, 0.000000000000000000, 0.000000000000000000, 0.000000000000000000, 0.000000000000000000 ) ;
#79 =( NAMED_UNIT ( * ) SI_UNIT ( $, .STERADIAN. ) SOLID_ANGLE_UNIT ( ) );
#80 = FACE_OUTER_BOUND ( 'NONE', #205, .T. ) ;
#81 =( GEOMETRIC_REPRESENTATION_CONTEXT ( 3 ) GLOBAL_UNCERTAINTY_ASSIGNED_CONTEXT ( ( #203 ) ) GLOBAL_UNIT_ASSIGNED_CONTEXT ( ( #154, #124, #79 ) ) REPRESENTATION_CONTEXT ( 'NONE', 'WORKASPACE' ) );
#82 = ORIENTED_EDGE ( 'NONE', *, *, #10, .T. ) ;
#83 = UNCERTAINTY_MEASURE_WITH_UNIT (LENGTH_MEASURE( 1.000000000000000082E-05 ), #199, 'distance_accuracy_value', 'NONE');
#84 = EDGE_LOOP ( 'NONE', ( #188, #82, #226, #22 ) ) ;
#85 = SURFACE_STYLE_USAGE ( .BOTH. , #37 ) ;
#86 = EDGE_CURVE ( 'NONE', #252, #227, #284, .T. ) ;
#87 = VERTEX_POINT ( 'NONE', #253 ) ;
#88 = FILL_AREA_STYLE_COLOUR ( '', #157 ) ;
#89 = PRESENTATION_LAYER_ASSIGNMENT (  '', '', ( #2 ) ) ;
#90 = DIRECTION ( 'NONE',  ( -0.000000000000000000, -1.000000000000000000, -0.000000000000000000 ) ) ;
#91 = ORIENTED_EDGE ( 'NONE', *, *, #20, .F. ) ;
#92 = FILL_AREA_STYLE_COLOUR ( '', #291 ) ;
#93 = EDGE_LOOP ( 'NONE', ( #307, #68 ) ) ;
#94 = CARTESIAN_POINT ( 'NONE',  ( 0.1562500000000000000, 0.6250000000000000000, 1.913510623667739771E-17 ) ) ;
#95 = PRESENTATION_LAYER_ASSIGNMENT (  '', '', ( #278 ) ) ;
#96 = CARTESIAN_POINT ( 'NONE',  ( 0.000000000000000000, 0.000000000000000000, 0.000000000000000000 ) ) ;
#97 = CIRCLE ( 'NONE', #123, 0.1562500000000000000 ) ;
#98 = SURFACE_SIDE_STYLE ('',( #8 ) ) ;
#99 = DIRECTION ( 'NONE',  ( -1.000000000000000000, 0.000000000000000000, 0.000000000000000000 ) ) ;
#100 = FACE_OUTER_BOUND ( 'NONE', #258, .T. ) ;
#101 = ADVANCED_FACE ( 'NONE', ( #137 ), #107, .F. ) ;
#102 = CARTESIAN_POINT ( 'NONE',  ( 0.000000000000000000, 0.6250000000000000000, 0.000000000000000000 ) ) ;
#103 = ORIENTED_EDGE ( 'NONE', *, *, #10, .F. ) ;
#104 = MECHANICAL_DESIGN_GEOMETRIC_PRESENTATION_REPRESENTATION (  '', ( #244 ), #238 ) ;
#105 = DIRECTION ( 'NONE',  ( -3.265724797726275178E-17, 1.000000000000000000, -0.000000000000000000 ) ) ;
#106 = LINE ( 'NONE', #259, #21 ) ;
#107 = PLANE ( 'NONE',  #31 ) ;
#108 = FILL_AREA_STYLE ('',( #19 ) ) ;
#109 = AXIS2_PLACEMENT_3D ( 'NONE', #292, #142, #173 ) ;
#110 = STYLED_ITEM ( 'NONE', ( #219 ), #215 ) ;
#111 = UNCERTAINTY_MEASURE_WITH_UNIT (LENGTH_MEASURE( 1.000000000000000082E-05 ), #247, 'distance_accuracy_value', 'NONE');
#112 = VERTEX_POINT ( 'NONE', #119 ) ;
#113 = APPLICATION_PROTOCOL_DEFINITION ( 'draft international standard', 'automotive_design', 1998, #274 ) ;
#114 = APPLICATION_PROTOCOL_DEFINITION ( 'draft international standard', 'automotive_design', 1998, #220 ) ;
#115 = CARTESIAN_POINT ( 'NONE',  ( 0.000000000000000000, 0.000000000000000000, 0.000000000000000000 ) ) ;
#116 = DIMENSIONAL_EXPONENTS ( 1.000000000000000000, 0.000000000000000000, 0.000000000000000000, 0.000000000000000000, 0.000000000000000000, 0.000000000000000000, 0.000000000000000000 ) ;
#117 = VECTOR ( 'NONE', #144, 39.37007874015748143 ) ;
#118 = ADVANCED_FACE ( 'NONE', ( #41 ), #214, .F. ) ;
#119 = CARTESIAN_POINT ( 'NONE',  ( 0.000000000000000000, 0.000000000000000000, -0.1562500000000000000 ) ) ;
#120 = PRODUCT_DEFINITION_CONTEXT ( 'detailed design', #274, 'design' ) ;
#121 =( LENGTH_UNIT ( ) NAMED_UNIT ( * ) SI_UNIT ( $, .METRE. ) );
#122 = FILL_AREA_STYLE ('',( #241 ) ) ;
#123 = AXIS2_PLACEMENT_3D ( 'NONE', #135, #105, #181 ) ;
#124 =( NAMED_UNIT ( * ) PLANE_ANGLE_UNIT ( ) SI_UNIT ( $, .RADIAN. ) );
#125 = LENGTH_MEASURE_WITH_UNIT ( LENGTH_MEASURE( 0.02539999999999999897 ), #33 );
#126 = FILL_AREA_STYLE_COLOUR ( '', #302 ) ;
#127 = EDGE_CURVE ( 'NONE', #252, #299, #309, .T. ) ;
#128 = DIRECTION ( 'NONE',  ( -0.000000000000000000, -1.000000000000000000, -0.000000000000000000 ) ) ;
#129 = ADVANCED_FACE ( 'NONE', ( #28 ), #1, .T. ) ;
#130 = AXIS2_PLACEMENT_3D ( 'NONE', #221, #151, #32 ) ;
#131 = ORIENTED_EDGE ( 'NONE', *, *, #305, .F. ) ;
#132 = SURFACE_STYLE_USAGE ( .BOTH. , #45 ) ;
#133 = ORIENTED_EDGE ( 'NONE', *, *, #209, .F. ) ;
#134 =( CONVERSION_BASED_UNIT ( 'INCH', #43 ) LENGTH_UNIT ( ) NAMED_UNIT ( #210 ) );
#135 = CARTESIAN_POINT ( 'NONE',  ( 0.000000000000000000, 0.6250000000000000000, 0.000000000000000000 ) ) ;
#136 = MANIFOLD_SOLID_BREP ( 'Revolve - Cutting Edge', #283 ) ;
#137 = FACE_OUTER_BOUND ( 'NONE', #201, .T. ) ;
#138 = PRESENTATION_STYLE_ASSIGNMENT (( #47 ) ) ;
#139 = COLOUR_RGB ( '',1.000000000000000000, 0.000000000000000000, 0.000000000000000000 ) ;
#140 =( GEOMETRIC_REPRESENTATION_CONTEXT ( 3 ) GLOBAL_UNCERTAINTY_ASSIGNED_CONTEXT ( ( #23 ) ) GLOBAL_UNIT_ASSIGNED_CONTEXT ( ( #289, #73, #264 ) ) REPRESENTATION_CONTEXT ( 'NONE', 'WORKASPACE' ) );
#141 = ORIENTED_EDGE ( 'NONE', *, *, #165, .F. ) ;
#142 = DIRECTION ( 'NONE',  ( -3.265724797726275178E-17, 1.000000000000000000, -0.000000000000000000 ) ) ;
#143 = ADVANCED_FACE ( 'NONE', ( #100 ), #24, .T. ) ;
#144 = DIRECTION ( 'NONE',  ( -3.265724797726275178E-17, 1.000000000000000000, -0.000000000000000000 ) ) ;
#145 = MECHANICAL_DESIGN_GEOMETRIC_PRESENTATION_REPRESENTATION (  '', ( #48 ), #237 ) ;
#146 = AXIS2_PLACEMENT_3D ( 'NONE', #115, #55, #51 ) ;
#147 = PRODUCT_CONTEXT ( 'NONE', #220, 'mechanical' ) ;
#148 =( NAMED_UNIT ( * ) PLANE_ANGLE_UNIT ( ) SI_UNIT ( $, .RADIAN. ) );
#149 = CYLINDRICAL_SURFACE ( 'NONE', #191, 0.1562500000000000000 ) ;
#150 = EDGE_CURVE ( 'NONE', #235, #63, #200, .T. ) ;
#151 = DIRECTION ( 'NONE',  ( -0.000000000000000000, -1.000000000000000000, -0.000000000000000000 ) ) ;
#152 = FILL_AREA_STYLE ('',( #60 ) ) ;
#153 = CARTESIAN_POINT ( 'NONE',  ( -6.123233995736766036E-17, 2.500000000000000000, 0.000000000000000000 ) ) ;
#154 =( CONVERSION_BASED_UNIT ( 'INCH', #198 ) LENGTH_UNIT ( ) NAMED_UNIT ( #78 ) );
#155 = AXIS2_PLACEMENT_3D ( 'NONE', #267, #53, #190 ) ;
#156 = LENGTH_MEASURE_WITH_UNIT ( LENGTH_MEASURE( 0.02539999999999999897 ), #121 );
#157 = COLOUR_RGB ( '',0.7921568627450980005, 0.8196078431372548767, 0.9333333333333333481 ) ;
#158 =( LENGTH_UNIT ( ) NAMED_UNIT ( * ) SI_UNIT ( $, .METRE. ) );
#159 = ORIENTED_EDGE ( 'NONE', *, *, #34, .T. ) ;
#160 = AXIS2_PLACEMENT_3D ( 'NONE', #176, #269, #178 ) ;
#161 = EDGE_LOOP ( 'NONE', ( #91, #103 ) ) ;
#162 = PRODUCT_DEFINITION_FORMATION_WITH_SPECIFIED_SOURCE ( 'ANY', '', #301, .NOT_KNOWN. ) ;
#163 = ORIENTED_EDGE ( 'NONE', *, *, #127, .T. ) ;
#164 = DIRECTION ( 'NONE',  ( 0.000000000000000000, 0.000000000000000000, -1.000000000000000000 ) ) ;
#165 = EDGE_CURVE ( 'NONE', #227, #112, #15, .T. ) ;
#166 =( NAMED_UNIT ( * ) SI_UNIT ( $, .STERADIAN. ) SOLID_ANGLE_UNIT ( ) );
#167 = EDGE_LOOP ( 'NONE', ( #133, #282 ) ) ;
#168 = CARTESIAN_POINT ( 'NONE',  ( 0.000000000000000000, 0.6250000000000000000, -0.1562500000000000000 ) ) ;
#169 = PRODUCT_DEFINITION ( 'UNKNOWN', '', #162, #120 ) ;
#170 = DIMENSIONAL_EXPONENTS ( 1.000000000000000000, 0.000000000000000000, 0.000000000000000000, 0.000000000000000000, 0.000000000000000000, 0.000000000000000000, 0.000000000000000000 ) ;
#171 =( GEOMETRIC_REPRESENTATION_CONTEXT ( 3 ) GLOBAL_UNCERTAINTY_ASSIGNED_CONTEXT ( ( #233 ) ) GLOBAL_UNIT_ASSIGNED_CONTEXT ( ( #6, #5, #217 ) ) REPRESENTATION_CONTEXT ( 'NONE', 'WORKASPACE' ) );
#172 = PRESENTATION_LAYER_ASSIGNMENT (  '', '', ( #265 ) ) ;
#173 = DIRECTION ( 'NONE',  ( -1.000000000000000000, 0.000000000000000000, 0.000000000000000000 ) ) ;
#174 = CARTESIAN_POINT ( 'NONE',  ( -6.123233995736766036E-17, 2.500000000000000000, 0.000000000000000000 ) ) ;
#175 = SURFACE_STYLE_USAGE ( .BOTH. , #197 ) ;
#176 = CARTESIAN_POINT ( 'NONE',  ( 0.000000000000000000, 0.6250000000000000000, 0.000000000000000000 ) ) ;
#177 = DIRECTION ( 'NONE',  ( -3.265724797726275178E-17, 1.000000000000000000, -0.000000000000000000 ) ) ;
#178 = DIRECTION ( 'NONE',  ( -1.000000000000000000, 0.000000000000000000, 0.000000000000000000 ) ) ;
#179 = CARTESIAN_POINT ( 'NONE',  ( -6.123233995736766036E-17, 2.500000000000000000, 0.000000000000000000 ) ) ;
#180 = ORIENTED_EDGE ( 'NONE', *, *, #57, .F. ) ;
#181 = DIRECTION ( 'NONE',  ( -1.000000000000000000, 0.000000000000000000, 0.000000000000000000 ) ) ;
#182 = COLOUR_RGB ( '',1.000000000000000000, 0.000000000000000000, 0.000000000000000000 ) ;
#183 =( NAMED_UNIT ( * ) PLANE_ANGLE_UNIT ( ) SI_UNIT ( $, .RADIAN. ) );
#184 = CARTESIAN_POINT ( 'NONE',  ( 0.1562500000000000000, 2.500000000000000000, 0.000000000000000000 ) ) ;
#185 = SURFACE_SIDE_STYLE ('',( #303 ) ) ;
#186 = DIRECTION ( 'NONE',  ( 0.000000000000000000, -1.000000000000000000, -0.000000000000000000 ) ) ;
#187 = DIRECTION ( 'NONE',  ( 1.000000000000000000, 3.265724797726275178E-17, 0.000000000000000000 ) ) ;
#188 = ORIENTED_EDGE ( 'NONE', *, *, #290, .F. ) ;
#189 = LINE ( 'NONE', #260, #117 ) ;
#190 = DIRECTION ( 'NONE',  ( -1.000000000000000000, -3.265724797726275178E-17, 0.000000000000000000 ) ) ;
#191 = AXIS2_PLACEMENT_3D ( 'NONE', #96, #212, #46 ) ;
#192 = ADVANCED_BREP_SHAPE_REPRESENTATION ( '01255', ( #136, #230, #146 ), #140 ) ;
#193 = DIRECTION ( 'NONE',  ( -0.000000000000000000, -1.000000000000000000, -0.000000000000000000 ) ) ;
#194 = COLOUR_RGB ( '',0.7921568627450980005, 0.8196078431372548767, 0.9333333333333333481 ) ;
#195 = MECHANICAL_DESIGN_GEOMETRIC_PRESENTATION_REPRESENTATION (  '', ( #110 ), #49 ) ;
#196 =( LENGTH_UNIT ( ) NAMED_UNIT ( * ) SI_UNIT ( $, .METRE. ) );
#197 = SURFACE_SIDE_STYLE ('',( #4 ) ) ;
#198 = LENGTH_MEASURE_WITH_UNIT ( LENGTH_MEASURE( 0.02539999999999999897 ), #196 );
#199 =( CONVERSION_BASED_UNIT ( 'INCH', #11 ) LENGTH_UNIT ( ) NAMED_UNIT ( #308 ) );
#200 = CIRCLE ( 'NONE', #72, 0.1562500000000000833 ) ;
#201 = EDGE_LOOP ( 'NONE', ( #159, #50 ) ) ;
#202 = PRESENTATION_STYLE_ASSIGNMENT (( #132 ) ) ;
#203 = UNCERTAINTY_MEASURE_WITH_UNIT (LENGTH_MEASURE( 1.000000000000000082E-05 ), #154, 'distance_accuracy_value', 'NONE');
#204 = EDGE_LOOP ( 'NONE', ( #42, #163, #287, #141 ) ) ;
#205 = EDGE_LOOP ( 'NONE', ( #17, #70, #131, #254 ) ) ;
#206 = CARTESIAN_POINT ( 'NONE',  ( 0.000000000000000000, 0.000000000000000000, 0.000000000000000000 ) ) ;
#207 = AXIS2_PLACEMENT_3D ( 'NONE', #153, #245, #99 ) ;
#208 =( NAMED_UNIT ( * ) SI_UNIT ( $, .STERADIAN. ) SOLID_ANGLE_UNIT ( ) );
#209 = EDGE_CURVE ( 'NONE', #299, #252, #224, .T. ) ;
#210 = DIMENSIONAL_EXPONENTS ( 1.000000000000000000, 0.000000000000000000, 0.000000000000000000, 0.000000000000000000, 0.000000000000000000, 0.000000000000000000, 0.000000000000000000 ) ;
#211 = CIRCLE ( 'NONE', #160, 0.1562500000000000000 ) ;
#212 = DIRECTION ( 'NONE',  ( -0.000000000000000000, -1.000000000000000000, -0.000000000000000000 ) ) ;
#213 = CARTESIAN_POINT ( 'NONE',  ( 0.1562500000000000000, 2.500000000000000000, 1.913510623667739771E-17 ) ) ;
#214 = PLANE ( 'NONE',  #155 ) ;
#215 = ADVANCED_FACE ( 'NONE', ( #80 ), #277, .T. ) ;
#216 =( LENGTH_UNIT ( ) NAMED_UNIT ( * ) SI_UNIT ( $, .METRE. ) );
#217 =( NAMED_UNIT ( * ) SI_UNIT ( $, .STERADIAN. ) SOLID_ANGLE_UNIT ( ) );
#218 = DIRECTION ( 'NONE',  ( 0.000000000000000000, 0.000000000000000000, -1.000000000000000000 ) ) ;
#219 = PRESENTATION_STYLE_ASSIGNMENT (( #275 ) ) ;
#220 = APPLICATION_CONTEXT ( 'automotive_design' ) ;
#221 = CARTESIAN_POINT ( 'NONE',  ( 0.000000000000000000, 0.6250000000000000000, 0.000000000000000000 ) ) ;
#222 =( NAMED_UNIT ( * ) PLANE_ANGLE_UNIT ( ) SI_UNIT ( $, .RADIAN. ) );
#223 = SURFACE_STYLE_FILL_AREA ( #12 ) ;
#224 = CIRCLE ( 'NONE', #130, 0.1562500000000000000 ) ;
#225 = AXIS2_PLACEMENT_3D ( 'NONE', #71, #234, #239 ) ;
#226 = ORIENTED_EDGE ( 'NONE', *, *, #57, .T. ) ;
#227 = VERTEX_POINT ( 'NONE', #304 ) ;
#228 = ADVANCED_FACE ( 'NONE', ( #40 ), #250, .T. ) ;
#229 =( NAMED_UNIT ( * ) PLANE_ANGLE_UNIT ( ) SI_UNIT ( $, .RADIAN. ) );
#230 = MANIFOLD_SOLID_BREP ( 'Revolve - Tool Body (Straight Shanked)', #30 ) ;
#231 = ORIENTED_EDGE ( 'NONE', *, *, #20, .T. ) ;
#232 = DIRECTION ( 'NONE',  ( 0.000000000000000000, 0.000000000000000000, -1.000000000000000000 ) ) ;
#233 = UNCERTAINTY_MEASURE_WITH_UNIT (LENGTH_MEASURE( 1.000000000000000082E-05 ), #6, 'distance_accuracy_value', 'NONE');
#234 = DIRECTION ( 'NONE',  ( -0.000000000000000000, -1.000000000000000000, -0.000000000000000000 ) ) ;
#235 = VERTEX_POINT ( 'NONE', #213 ) ;
#236 = LENGTH_MEASURE_WITH_UNIT ( LENGTH_MEASURE( 0.02539999999999999897 ), #52 );
#237 =( GEOMETRIC_REPRESENTATION_CONTEXT ( 3 ) GLOBAL_UNCERTAINTY_ASSIGNED_CONTEXT ( ( #248 ) ) GLOBAL_UNIT_ASSIGNED_CONTEXT ( ( #9, #229, #166 ) ) REPRESENTATION_CONTEXT ( 'NONE', 'WORKASPACE' ) );
#238 =( GEOMETRIC_REPRESENTATION_CONTEXT ( 3 ) GLOBAL_UNCERTAINTY_ASSIGNED_CONTEXT ( ( #306 ) ) GLOBAL_UNIT_ASSIGNED_CONTEXT ( ( #134, #183, #208 ) ) REPRESENTATION_CONTEXT ( 'NONE', 'WORKASPACE' ) );
#239 = DIRECTION ( 'NONE',  ( 0.000000000000000000, 0.000000000000000000, -1.000000000000000000 ) ) ;
#240 =( NAMED_UNIT ( * ) SI_UNIT ( $, .STERADIAN. ) SOLID_ANGLE_UNIT ( ) );
#241 = FILL_AREA_STYLE_COLOUR ( '', #139 ) ;
#242 = MECHANICAL_DESIGN_GEOMETRIC_PRESENTATION_REPRESENTATION (  '', ( #2 ), #81 ) ;
#243 = FILL_AREA_STYLE ('',( #126 ) ) ;
#244 = STYLED_ITEM ( 'NONE', ( #279 ), #230 ) ;
#245 = DIRECTION ( 'NONE',  ( -3.265724797726275178E-17, 1.000000000000000000, -0.000000000000000000 ) ) ;
#246 = DIRECTION ( 'NONE',  ( -3.265724797726275178E-17, 1.000000000000000000, -0.000000000000000000 ) ) ;
#247 =( CONVERSION_BASED_UNIT ( 'INCH', #38 ) LENGTH_UNIT ( ) NAMED_UNIT ( #116 ) );
#248 = UNCERTAINTY_MEASURE_WITH_UNIT (LENGTH_MEASURE( 1.000000000000000082E-05 ), #9, 'distance_accuracy_value', 'NONE');
#249 = VERTEX_POINT ( 'NONE', #94 ) ;
#250 = PLANE ( 'NONE',  #75 ) ;
#251 = CIRCLE ( 'NONE', #225, 0.1562500000000000000 ) ;
#252 = VERTEX_POINT ( 'NONE', #26 ) ;
#253 = CARTESIAN_POINT ( 'NONE',  ( -0.1562500000000000000, 0.6250000000000000000, 0.000000000000000000 ) ) ;
#254 = ORIENTED_EDGE ( 'NONE', *, *, #281, .F. ) ;
#255 = PLANE ( 'NONE',  #270 ) ;
#256 = FACE_OUTER_BOUND ( 'NONE', #204, .T. ) ;
#257 = PRESENTATION_LAYER_ASSIGNMENT (  '', '', ( #48 ) ) ;
#258 = EDGE_LOOP ( 'NONE', ( #231, #44, #280, #180 ) ) ;
#259 = CARTESIAN_POINT ( 'NONE',  ( 0.000000000000000000, 0.000000000000000000, -0.1562500000000000000 ) ) ;
#260 = CARTESIAN_POINT ( 'NONE',  ( 0.1562499999999999722, 2.500000000000000000, 1.913510623667739771E-17 ) ) ;
#261 = PRODUCT_DEFINITION_SHAPE ( 'NONE', 'NONE',  #169 ) ;
#262 = DIRECTION ( 'NONE',  ( 0.000000000000000000, 0.000000000000000000, -1.000000000000000000 ) ) ;
#263 = MECHANICAL_DESIGN_GEOMETRIC_PRESENTATION_REPRESENTATION (  '', ( #278 ), #171 ) ;
#264 =( NAMED_UNIT ( * ) SI_UNIT ( $, .STERADIAN. ) SOLID_ANGLE_UNIT ( ) );
#265 = STYLED_ITEM ( 'NONE', ( #202 ), #228 ) ;
#266 = CARTESIAN_POINT ( 'NONE',  ( 0.000000000000000000, 0.6250000000000000000, 0.000000000000000000 ) ) ;
#267 = CARTESIAN_POINT ( 'NONE',  ( 8.331998792565876312E-35, 0.6250000000000000000, 0.000000000000000000 ) ) ;
#268 = PRESENTATION_STYLE_ASSIGNMENT (( #175 ) ) ;
#269 = DIRECTION ( 'NONE',  ( -3.265724797726275178E-17, 1.000000000000000000, -0.000000000000000000 ) ) ;
#270 = AXIS2_PLACEMENT_3D ( 'NONE', #102, #297, #77 ) ;
#271 = DIRECTION ( 'NONE',  ( -1.000000000000000000, 0.000000000000000000, 0.000000000000000000 ) ) ;
#272 = LINE ( 'NONE', #294, #298 ) ;
#273 = SURFACE_STYLE_USAGE ( .BOTH. , #98 ) ;
#274 = APPLICATION_CONTEXT ( 'automotive_design' ) ;
#275 = SURFACE_STYLE_USAGE ( .BOTH. , #295 ) ;
#276 = PRODUCT_RELATED_PRODUCT_CATEGORY ( 'part', '', ( #301 ) ) ;
#277 = CYLINDRICAL_SURFACE ( 'NONE', #36, 0.1562500000000000000 ) ;
#278 = STYLED_ITEM ( 'NONE', ( #138 ), #13 ) ;
#279 = PRESENTATION_STYLE_ASSIGNMENT (( #85 ) ) ;
#280 = ORIENTED_EDGE ( 'NONE', *, *, #34, .F. ) ;
#281 = EDGE_CURVE ( 'NONE', #299, #112, #106, .T. ) ;
#282 = ORIENTED_EDGE ( 'NONE', *, *, #127, .F. ) ;
#283 = CLOSED_SHELL ( 'NONE', ( #215, #13, #67, #228 ) ) ;
#284 = LINE ( 'NONE', #65, #54 ) ;
#285 = DIRECTION ( 'NONE',  ( -3.265724797726275178E-17, 1.000000000000000000, -0.000000000000000000 ) ) ;
#286 = DIRECTION ( 'NONE',  ( 3.265724797726275178E-17, -1.000000000000000000, 0.000000000000000000 ) ) ;
#287 = ORIENTED_EDGE ( 'NONE', *, *, #281, .T. ) ;
#288 = AXIS2_PLACEMENT_3D ( 'NONE', #179, #177, #29 ) ;
#289 =( CONVERSION_BASED_UNIT ( 'INCH', #236 ) LENGTH_UNIT ( ) NAMED_UNIT ( #27 ) );
#290 = EDGE_CURVE ( 'NONE', #249, #235, #189, .T. ) ;
#291 = COLOUR_RGB ( '',1.000000000000000000, 0.000000000000000000, 0.000000000000000000 ) ;
#292 = CARTESIAN_POINT ( 'NONE',  ( -6.123233995736766036E-17, 2.500000000000000000, 0.000000000000000000 ) ) ;
#293 = DIMENSIONAL_EXPONENTS ( 1.000000000000000000, 0.000000000000000000, 0.000000000000000000, 0.000000000000000000, 0.000000000000000000, 0.000000000000000000, 0.000000000000000000 ) ;
#294 = CARTESIAN_POINT ( 'NONE',  ( -0.1562500000000001110, 2.500000000000000000, 0.000000000000000000 ) ) ;
#295 = SURFACE_SIDE_STYLE ('',( #7 ) ) ;
#296 = PRESENTATION_LAYER_ASSIGNMENT (  '', '', ( #110 ) ) ;
#297 = DIRECTION ( 'NONE',  ( 0.000000000000000000, 1.000000000000000000, 0.000000000000000000 ) ) ;
#298 = VECTOR ( 'NONE', #285, 39.37007874015748143 ) ;
#299 = VERTEX_POINT ( 'NONE', #168 ) ;
#300 = SURFACE_STYLE_FILL_AREA ( #14 ) ;
#301 = PRODUCT ( '01255', '01255', '', ( #147 ) ) ;
#302 = COLOUR_RGB ( '',1.000000000000000000, 0.000000000000000000, 0.000000000000000000 ) ;
#303 = SURFACE_STYLE_FILL_AREA ( #108 ) ;
#304 = CARTESIAN_POINT ( 'NONE',  ( 1.913510623667739463E-17, 0.000000000000000000, 0.1562500000000000000 ) ) ;
#305 = EDGE_CURVE ( 'NONE', #112, #227, #251, .T. ) ;
#306 = UNCERTAINTY_MEASURE_WITH_UNIT (LENGTH_MEASURE( 1.000000000000000082E-05 ), #134, 'distance_accuracy_value', 'NONE');
#307 = ORIENTED_EDGE ( 'NONE', *, *, #305, .T. ) ;
#308 = DIMENSIONAL_EXPONENTS ( 1.000000000000000000, 0.000000000000000000, 0.000000000000000000, 0.000000000000000000, 0.000000000000000000, 0.000000000000000000, 0.000000000000000000 ) ;
#309 = CIRCLE ( 'NONE', #74, 0.1562500000000000000 ) ;
ENDSEC;
END-ISO-10303-21;
