ISO-10303-21;
HEADER;
FILE_DESCRIPTION (( 'STEP AP214' ),
    '1' );
FILE_NAME ('00150.STEP',
    '2023-06-22T14:03:16',
    ( '' ),
    ( '' ),
    'SwSTEP 2.0',
    'SolidWorks 2023',
    '' );
FILE_SCHEMA (( 'AUTOMOTIVE_DESIGN' ));
ENDSEC;

DATA;
#1 =( GEOMETRIC_REPRESENTATION_CONTEXT ( 3 ) GLOBAL_UNCERTAINTY_ASSIGNED_CONTEXT ( ( #208 ) ) GLOBAL_UNIT_ASSIGNED_CONTEXT ( ( #199, #114, #287 ) ) REPRESENTATION_CONTEXT ( 'NONE', 'WORKASPACE' ) );
#2 = LENGTH_MEASURE_WITH_UNIT ( LENGTH_MEASURE( 0.02539999999999999897 ), #60 );
#3 = APPLICATION_CONTEXT ( 'automotive_design' ) ;
#4 = VECTOR ( 'NONE', #292, 39.37007874015748143 ) ;
#5 = VERTEX_POINT ( 'NONE', #29 ) ;
#6 = DIMENSIONAL_EXPONENTS ( 1.000000000000000000, 0.000000000000000000, 0.000000000000000000, 0.000000000000000000, 0.000000000000000000, 0.000000000000000000, 0.000000000000000000 ) ;
#7 = STYLED_ITEM ( 'NONE', ( #12 ), #161 ) ;
#8 = ORIENTED_EDGE ( 'NONE', *, *, #243, .T. ) ;
#9 = DIRECTION ( 'NONE',  ( 0.000000000000000000, 0.000000000000000000, -1.000000000000000000 ) ) ;
#10 = DIRECTION ( 'NONE',  ( 3.768143997376471359E-17, 1.000000000000000000, -0.000000000000000000 ) ) ;
#11 = CIRCLE ( 'NONE', #125, 0.1250000000000000000 ) ;
#12 = PRESENTATION_STYLE_ASSIGNMENT (( #248 ) ) ;
#13 = DIRECTION ( 'NONE',  ( 0.000000000000000000, 0.000000000000000000, -1.000000000000000000 ) ) ;
#14 = SURFACE_SIDE_STYLE ('',( #100 ) ) ;
#15 = ORIENTED_EDGE ( 'NONE', *, *, #23, .F. ) ;
#16 = SURFACE_STYLE_FILL_AREA ( #300 ) ;
#17 = CYLINDRICAL_SURFACE ( 'NONE', #278, 0.1249999999999999584 ) ;
#18 = FACE_OUTER_BOUND ( 'NONE', #22, .T. ) ;
#19 = STYLED_ITEM ( 'NONE', ( #213 ), #251 ) ;
#20 = DIRECTION ( 'NONE',  ( 3.768143997376471359E-17, 1.000000000000000000, -0.000000000000000000 ) ) ;
#21 = DIRECTION ( 'NONE',  ( -0.000000000000000000, -1.000000000000000000, -0.000000000000000000 ) ) ;
#22 = EDGE_LOOP ( 'NONE', ( #261, #285, #15, #218 ) ) ;
#23 = EDGE_CURVE ( 'NONE', #162, #32, #200, .T. ) ;
#24 = COLOUR_RGB ( '',0.7921568627450980005, 0.8196078431372548767, 0.9333333333333333481 ) ;
#25 = ADVANCED_FACE ( 'NONE', ( #99 ), #304, .F. ) ;
#26 =( GEOMETRIC_REPRESENTATION_CONTEXT ( 3 ) GLOBAL_UNCERTAINTY_ASSIGNED_CONTEXT ( ( #75 ) ) GLOBAL_UNIT_ASSIGNED_CONTEXT ( ( #118, #198, #46 ) ) REPRESENTATION_CONTEXT ( 'NONE', 'WORKASPACE' ) );
#27 = APPLICATION_CONTEXT ( 'automotive_design' ) ;
#28 = EDGE_LOOP ( 'NONE', ( #130, #50, #39, #49 ) ) ;
#29 = CARTESIAN_POINT ( 'NONE',  ( -0.1250000000000000000, 0.3749999999999999445, 0.000000000000000000 ) ) ;
#30 = CIRCLE ( 'NONE', #52, 0.1250000000000000000 ) ;
#31 = CIRCLE ( 'NONE', #82, 0.1249999999999999306 ) ;
#32 = VERTEX_POINT ( 'NONE', #249 ) ;
#33 = PRODUCT ( '00150', '00150', '', ( #275 ) ) ;
#34 = ORIENTED_EDGE ( 'NONE', *, *, #98, .F. ) ;
#35 = CARTESIAN_POINT ( 'NONE',  ( 0.000000000000000000, 0.3750000000000000555, 0.000000000000000000 ) ) ;
#36 = APPLICATION_PROTOCOL_DEFINITION ( 'draft international standard', 'automotive_design', 1998, #3 ) ;
#37 = CYLINDRICAL_SURFACE ( 'NONE', #219, 0.1249999999999999584 ) ;
#38 = PLANE ( 'NONE',  #281 ) ;
#39 = ORIENTED_EDGE ( 'NONE', *, *, #83, .T. ) ;
#40 = SURFACE_STYLE_USAGE ( .BOTH. , #303 ) ;
#41 =( NAMED_UNIT ( * ) SI_UNIT ( $, .STERADIAN. ) SOLID_ANGLE_UNIT ( ) );
#42 = MECHANICAL_DESIGN_GEOMETRIC_PRESENTATION_REPRESENTATION (  '', ( #7 ), #136 ) ;
#43 = EDGE_LOOP ( 'NONE', ( #74, #34 ) ) ;
#44 = SURFACE_STYLE_USAGE ( .BOTH. , #143 ) ;
#45 = DIRECTION ( 'NONE',  ( -1.000000000000000000, 0.000000000000000000, 0.000000000000000000 ) ) ;
#46 =( NAMED_UNIT ( * ) SI_UNIT ( $, .STERADIAN. ) SOLID_ANGLE_UNIT ( ) );
#47 = SURFACE_SIDE_STYLE ('',( #181 ) ) ;
#48 = PRESENTATION_LAYER_ASSIGNMENT (  '', '', ( #87 ) ) ;
#49 = ORIENTED_EDGE ( 'NONE', *, *, #51, .F. ) ;
#50 = ORIENTED_EDGE ( 'NONE', *, *, #98, .T. ) ;
#51 = EDGE_CURVE ( 'NONE', #32, #162, #72, .T. ) ;
#52 = AXIS2_PLACEMENT_3D ( 'NONE', #175, #20, #273 ) ;
#53 = AXIS2_PLACEMENT_3D ( 'NONE', #117, #71, #102 ) ;
#54 = ORIENTED_EDGE ( 'NONE', *, *, #57, .T. ) ;
#55 = DIMENSIONAL_EXPONENTS ( 1.000000000000000000, 0.000000000000000000, 0.000000000000000000, 0.000000000000000000, 0.000000000000000000, 0.000000000000000000, 0.000000000000000000 ) ;
#56 = DIRECTION ( 'NONE',  ( -0.000000000000000000, -1.000000000000000000, -0.000000000000000000 ) ) ;
#57 = EDGE_CURVE ( 'NONE', #5, #258, #30, .T. ) ;
#58 = FILL_AREA_STYLE ('',( #188 ) ) ;
#59 = EDGE_LOOP ( 'NONE', ( #298, #145 ) ) ;
#60 =( LENGTH_UNIT ( ) NAMED_UNIT ( * ) SI_UNIT ( $, .METRE. ) );
#61 = PRESENTATION_LAYER_ASSIGNMENT (  '', '', ( #19 ) ) ;
#62 = ORIENTED_EDGE ( 'NONE', *, *, #137, .T. ) ;
#63 = FACE_OUTER_BOUND ( 'NONE', #59, .T. ) ;
#64 = LINE ( 'NONE', #180, #164 ) ;
#65 = CARTESIAN_POINT ( 'NONE',  ( 0.000000000000000000, 0.3750000000000000555, -0.1250000000000000000 ) ) ;
#66 = CARTESIAN_POINT ( 'NONE',  ( 0.000000000000000000, 0.000000000000000000, 0.000000000000000000 ) ) ;
#67 =( LENGTH_UNIT ( ) NAMED_UNIT ( * ) SI_UNIT ( $, .METRE. ) );
#68 = LENGTH_MEASURE_WITH_UNIT ( LENGTH_MEASURE( 0.02539999999999999897 ), #286 );
#69 = DIRECTION ( 'NONE',  ( -1.000000000000000000, 0.000000000000000000, 0.000000000000000000 ) ) ;
#70 =( NAMED_UNIT ( * ) SI_UNIT ( $, .STERADIAN. ) SOLID_ANGLE_UNIT ( ) );
#71 = DIRECTION ( 'NONE',  ( -0.000000000000000000, -1.000000000000000000, -0.000000000000000000 ) ) ;
#72 = CIRCLE ( 'NONE', #234, 0.1250000000000000000 ) ;
#73 =( GEOMETRIC_REPRESENTATION_CONTEXT ( 3 ) GLOBAL_UNCERTAINTY_ASSIGNED_CONTEXT ( ( #232 ) ) GLOBAL_UNIT_ASSIGNED_CONTEXT ( ( #309, #223, #245 ) ) REPRESENTATION_CONTEXT ( 'NONE', 'WORKASPACE' ) );
#74 = ORIENTED_EDGE ( 'NONE', *, *, #212, .F. ) ;
#75 = UNCERTAINTY_MEASURE_WITH_UNIT (LENGTH_MEASURE( 1.000000000000000082E-05 ), #118, 'distance_accuracy_value', 'NONE');
#76 = PRESENTATION_STYLE_ASSIGNMENT (( #44 ) ) ;
#77 = FACE_OUTER_BOUND ( 'NONE', #43, .T. ) ;
#78 = FILL_AREA_STYLE ('',( #205 ) ) ;
#79 = CARTESIAN_POINT ( 'NONE',  ( 1.530808498934191509E-17, 0.000000000000000000, 0.1250000000000000000 ) ) ;
#80 = PRODUCT_DEFINITION_CONTEXT ( 'detailed design', #27, 'design' ) ;
#81 = CLOSED_SHELL ( 'NONE', ( #89, #170, #116, #25 ) ) ;
#82 = AXIS2_PLACEMENT_3D ( 'NONE', #216, #289, #301 ) ;
#83 = EDGE_CURVE ( 'NONE', #265, #162, #64, .T. ) ;
#84 = CARTESIAN_POINT ( 'NONE',  ( 0.000000000000000000, 0.000000000000000000, 0.000000000000000000 ) ) ;
#85 = AXIS2_PLACEMENT_3D ( 'NONE', #35, #253, #257 ) ;
#86 = DIRECTION ( 'NONE',  ( 3.768143997376471359E-17, 1.000000000000000000, -0.000000000000000000 ) ) ;
#87 = STYLED_ITEM ( 'NONE', ( #197 ), #132 ) ;
#88 = STYLED_ITEM ( 'NONE', ( #76 ), #184 ) ;
#89 = ADVANCED_FACE ( 'NONE', ( #156 ), #37, .T. ) ;
#90 = ORIENTED_EDGE ( 'NONE', *, *, #23, .T. ) ;
#91 = VECTOR ( 'NONE', #21, 39.37007874015748143 ) ;
#92 = DIRECTION ( 'NONE',  ( -0.000000000000000000, -1.000000000000000000, -0.000000000000000000 ) ) ;
#93 = MECHANICAL_DESIGN_GEOMETRIC_PRESENTATION_REPRESENTATION (  '', ( #88 ), #215 ) ;
#94 =( LENGTH_UNIT ( ) NAMED_UNIT ( * ) SI_UNIT ( $, .METRE. ) );
#95 = LENGTH_MEASURE_WITH_UNIT ( LENGTH_MEASURE( 0.02539999999999999897 ), #67 );
#96 = SURFACE_SIDE_STYLE ('',( #221 ) ) ;
#97 = CARTESIAN_POINT ( 'NONE',  ( 0.1250000000000000278, 2.000000000000000000, 1.530808498934191509E-17 ) ) ;
#98 = EDGE_CURVE ( 'NONE', #240, #265, #11, .T. ) ;
#99 = FACE_OUTER_BOUND ( 'NONE', #106, .T. ) ;
#100 = SURFACE_STYLE_FILL_AREA ( #176 ) ;
#101 = CARTESIAN_POINT ( 'NONE',  ( 0.000000000000000000, 0.000000000000000000, -0.1250000000000000000 ) ) ;
#102 = DIRECTION ( 'NONE',  ( 0.000000000000000000, 0.000000000000000000, -1.000000000000000000 ) ) ;
#103 = STYLED_ITEM ( 'NONE', ( #111 ), #183 ) ;
#104 =( NAMED_UNIT ( * ) PLANE_ANGLE_UNIT ( ) SI_UNIT ( $, .RADIAN. ) );
#105 = CYLINDRICAL_SURFACE ( 'NONE', #53, 0.1250000000000000000 ) ;
#106 = EDGE_LOOP ( 'NONE', ( #139, #115 ) ) ;
#107 = MECHANICAL_DESIGN_GEOMETRIC_PRESENTATION_REPRESENTATION (  '', ( #19 ), #302 ) ;
#108 = AXIS2_PLACEMENT_3D ( 'NONE', #66, #148, #126 ) ;
#109 = VECTOR ( 'NONE', #86, 39.37007874015748143 ) ;
#110 = PRODUCT_DEFINITION_SHAPE ( 'NONE', 'NONE',  #124 ) ;
#111 = PRESENTATION_STYLE_ASSIGNMENT (( #40 ) ) ;
#112 = PRESENTATION_LAYER_ASSIGNMENT (  '', '', ( #158 ) ) ;
#113 = FILL_AREA_STYLE ('',( #120 ) ) ;
#114 =( NAMED_UNIT ( * ) PLANE_ANGLE_UNIT ( ) SI_UNIT ( $, .RADIAN. ) );
#115 = ORIENTED_EDGE ( 'NONE', *, *, #256, .T. ) ;
#116 = ADVANCED_FACE ( 'NONE', ( #270 ), #17, .T. ) ;
#117 = CARTESIAN_POINT ( 'NONE',  ( 0.000000000000000000, 0.000000000000000000, 0.000000000000000000 ) ) ;
#118 =( CONVERSION_BASED_UNIT ( 'INCH', #239 ) LENGTH_UNIT ( ) NAMED_UNIT ( #276 ) );
#119 = ORIENTED_EDGE ( 'NONE', *, *, #256, .F. ) ;
#120 = FILL_AREA_STYLE_COLOUR ( '', #206 ) ;
#121 =( NAMED_UNIT ( * ) SI_UNIT ( $, .STERADIAN. ) SOLID_ANGLE_UNIT ( ) );
#122 = SURFACE_STYLE_FILL_AREA ( #177 ) ;
#123 = LINE ( 'NONE', #202, #4 ) ;
#124 = PRODUCT_DEFINITION ( 'UNKNOWN', '', #203, #80 ) ;
#125 = AXIS2_PLACEMENT_3D ( 'NONE', #129, #92, #13 ) ;
#126 = DIRECTION ( 'NONE',  ( 1.000000000000000000, 0.000000000000000000, 0.000000000000000000 ) ) ;
#127 = MECHANICAL_DESIGN_GEOMETRIC_PRESENTATION_REPRESENTATION (  '', ( #158 ), #1 ) ;
#128 = FACE_OUTER_BOUND ( 'NONE', #165, .T. ) ;
#129 = CARTESIAN_POINT ( 'NONE',  ( 0.000000000000000000, 0.3750000000000000555, 0.000000000000000000 ) ) ;
#130 = ORIENTED_EDGE ( 'NONE', *, *, #189, .F. ) ;
#131 = PRESENTATION_LAYER_ASSIGNMENT (  '', '', ( #88 ) ) ;
#132 = ADVANCED_FACE ( 'NONE', ( #18 ), #105, .T. ) ;
#133 = EDGE_LOOP ( 'NONE', ( #259, #167, #62, #119 ) ) ;
#134 = DIMENSIONAL_EXPONENTS ( 1.000000000000000000, 0.000000000000000000, 0.000000000000000000, 0.000000000000000000, 0.000000000000000000, 0.000000000000000000, 0.000000000000000000 ) ;
#135 = UNCERTAINTY_MEASURE_WITH_UNIT (LENGTH_MEASURE( 1.000000000000000082E-05 ), #250, 'distance_accuracy_value', 'NONE');
#136 =( GEOMETRIC_REPRESENTATION_CONTEXT ( 3 ) GLOBAL_UNCERTAINTY_ASSIGNED_CONTEXT ( ( #135 ) ) GLOBAL_UNIT_ASSIGNED_CONTEXT ( ( #250, #241, #308 ) ) REPRESENTATION_CONTEXT ( 'NONE', 'WORKASPACE' ) );
#137 = EDGE_CURVE ( 'NONE', #5, #237, #123, .T. ) ;
#138 = CARTESIAN_POINT ( 'NONE',  ( 1.530808498934191509E-17, 0.3750000000000000555, 0.1250000000000000000 ) ) ;
#139 = ORIENTED_EDGE ( 'NONE', *, *, #294, .T. ) ;
#140 =( CONVERSION_BASED_UNIT ( 'INCH', #214 ) LENGTH_UNIT ( ) NAMED_UNIT ( #185 ) );
#141 = MECHANICAL_DESIGN_GEOMETRIC_PRESENTATION_REPRESENTATION (  '', ( #87 ), #73 ) ;
#142 = CYLINDRICAL_SURFACE ( 'NONE', #220, 0.1250000000000000000 ) ;
#143 = SURFACE_SIDE_STYLE ('',( #122 ) ) ;
#144 = DIRECTION ( 'NONE',  ( -0.000000000000000000, -1.000000000000000000, -0.000000000000000000 ) ) ;
#145 = ORIENTED_EDGE ( 'NONE', *, *, #307, .F. ) ;
#146 = DIRECTION ( 'NONE',  ( -1.000000000000000000, 0.000000000000000000, 0.000000000000000000 ) ) ;
#147 = CARTESIAN_POINT ( 'NONE',  ( 6.123233995736766036E-17, 2.000000000000000000, 0.000000000000000000 ) ) ;
#148 = DIRECTION ( 'NONE',  ( 0.000000000000000000, 0.000000000000000000, 1.000000000000000000 ) ) ;
#149 = LENGTH_MEASURE_WITH_UNIT ( LENGTH_MEASURE( 0.02539999999999999897 ), #94 );
#150 = AXIS2_PLACEMENT_3D ( 'NONE', #152, #246, #224 ) ;
#151 = CARTESIAN_POINT ( 'NONE',  ( 0.1250000000000000000, 2.000000000000000000, 0.000000000000000000 ) ) ;
#152 = CARTESIAN_POINT ( 'NONE',  ( 0.000000000000000000, 0.3749999999999999445, 0.000000000000000000 ) ) ;
#153 = DIRECTION ( 'NONE',  ( -1.000000000000000000, 3.768143997376471359E-17, 0.000000000000000000 ) ) ;
#154 = CARTESIAN_POINT ( 'NONE',  ( 0.000000000000000000, 0.000000000000000000, 0.000000000000000000 ) ) ;
#155 = LENGTH_MEASURE_WITH_UNIT ( LENGTH_MEASURE( 0.02539999999999999897 ), #172 );
#156 = FACE_OUTER_BOUND ( 'NONE', #193, .T. ) ;
#157 = SURFACE_STYLE_USAGE ( .BOTH. , #96 ) ;
#158 = STYLED_ITEM ( 'NONE', ( #217 ), #229 ) ;
#159 = UNCERTAINTY_MEASURE_WITH_UNIT (LENGTH_MEASURE( 1.000000000000000082E-05 ), #204, 'distance_accuracy_value', 'NONE');
#160 =( GEOMETRIC_REPRESENTATION_CONTEXT ( 3 ) GLOBAL_UNCERTAINTY_ASSIGNED_CONTEXT ( ( #247 ) ) GLOBAL_UNIT_ASSIGNED_CONTEXT ( ( #179, #194, #70 ) ) REPRESENTATION_CONTEXT ( 'NONE', 'WORKASPACE' ) );
#161 = ADVANCED_FACE ( 'NONE', ( #77 ), #299, .T. ) ;
#162 = VERTEX_POINT ( 'NONE', #101 ) ;
#163 = DIRECTION ( 'NONE',  ( 0.000000000000000000, 0.000000000000000000, -1.000000000000000000 ) ) ;
#164 = VECTOR ( 'NONE', #267, 39.37007874015748143 ) ;
#165 = EDGE_LOOP ( 'NONE', ( #90, #174 ) ) ;
#166 = SURFACE_STYLE_USAGE ( .BOTH. , #238 ) ;
#167 = ORIENTED_EDGE ( 'NONE', *, *, #307, .T. ) ;
#168 =( NAMED_UNIT ( * ) PLANE_ANGLE_UNIT ( ) SI_UNIT ( $, .RADIAN. ) );
#169 = COLOUR_RGB ( '',1.000000000000000000, 0.000000000000000000, 0.000000000000000000 ) ;
#170 = ADVANCED_FACE ( 'NONE', ( #63 ), #171, .F. ) ;
#171 = PLANE ( 'NONE',  #279 ) ;
#172 =( LENGTH_UNIT ( ) NAMED_UNIT ( * ) SI_UNIT ( $, .METRE. ) );
#173 = DIRECTION ( 'NONE',  ( 3.768143997376471359E-17, 1.000000000000000000, -0.000000000000000000 ) ) ;
#174 = ORIENTED_EDGE ( 'NONE', *, *, #51, .T. ) ;
#175 = CARTESIAN_POINT ( 'NONE',  ( 0.000000000000000000, 0.3749999999999999445, 0.000000000000000000 ) ) ;
#176 = FILL_AREA_STYLE ('',( #195 ) ) ;
#177 = FILL_AREA_STYLE ('',( #201 ) ) ;
#178 = DIRECTION ( 'NONE',  ( 1.000000000000000000, -3.768143997376471359E-17, 0.000000000000000000 ) ) ;
#179 =( CONVERSION_BASED_UNIT ( 'INCH', #95 ) LENGTH_UNIT ( ) NAMED_UNIT ( #210 ) );
#180 = CARTESIAN_POINT ( 'NONE',  ( 0.000000000000000000, 0.000000000000000000, -0.1250000000000000000 ) ) ;
#181 = SURFACE_STYLE_FILL_AREA ( #78 ) ;
#182 = CLOSED_SHELL ( 'NONE', ( #132, #161, #251, #229 ) ) ;
#183 = MANIFOLD_SOLID_BREP ( 'Revolve - Tool Body (Straight Shanked)', #81 ) ;
#184 = MANIFOLD_SOLID_BREP ( 'Revolve - Cutting Edge', #182 ) ;
#185 = DIMENSIONAL_EXPONENTS ( 1.000000000000000000, 0.000000000000000000, 0.000000000000000000, 0.000000000000000000, 0.000000000000000000, 0.000000000000000000, 0.000000000000000000 ) ;
#186 = AXIS2_PLACEMENT_3D ( 'NONE', #266, #282, #222 ) ;
#187 = CARTESIAN_POINT ( 'NONE',  ( 0.000000000000000000, 0.000000000000000000, 0.000000000000000000 ) ) ;
#188 = FILL_AREA_STYLE_COLOUR ( '', #169 ) ;
#189 = EDGE_CURVE ( 'NONE', #240, #32, #269, .T. ) ;
#190 = LINE ( 'NONE', #296, #109 ) ;
#191 = AXIS2_PLACEMENT_3D ( 'NONE', #151, #227, #178 ) ;
#192 = CARTESIAN_POINT ( 'NONE',  ( -0.1249999999999998612, 2.000000000000000000, 0.000000000000000000 ) ) ;
#193 = EDGE_LOOP ( 'NONE', ( #54, #8, #235, #196 ) ) ;
#194 =( NAMED_UNIT ( * ) PLANE_ANGLE_UNIT ( ) SI_UNIT ( $, .RADIAN. ) );
#195 = FILL_AREA_STYLE_COLOUR ( '', #226 ) ;
#196 = ORIENTED_EDGE ( 'NONE', *, *, #137, .F. ) ;
#197 = PRESENTATION_STYLE_ASSIGNMENT (( #157 ) ) ;
#198 =( NAMED_UNIT ( * ) PLANE_ANGLE_UNIT ( ) SI_UNIT ( $, .RADIAN. ) );
#199 =( CONVERSION_BASED_UNIT ( 'INCH', #149 ) LENGTH_UNIT ( ) NAMED_UNIT ( #6 ) );
#200 = CIRCLE ( 'NONE', #291, 0.1250000000000000000 ) ;
#201 = FILL_AREA_STYLE_COLOUR ( '', #24 ) ;
#202 = CARTESIAN_POINT ( 'NONE',  ( -0.1249999999999999029, 2.000000000000000000, 0.000000000000000000 ) ) ;
#203 = PRODUCT_DEFINITION_FORMATION_WITH_SPECIFIED_SOURCE ( 'ANY', '', #33, .NOT_KNOWN. ) ;
#204 =( CONVERSION_BASED_UNIT ( 'INCH', #2 ) LENGTH_UNIT ( ) NAMED_UNIT ( #262 ) );
#205 = FILL_AREA_STYLE_COLOUR ( '', #260 ) ;
#206 = COLOUR_RGB ( '',1.000000000000000000, 0.000000000000000000, 0.000000000000000000 ) ;
#207 = AXIS2_PLACEMENT_3D ( 'NONE', #147, #305, #69 ) ;
#208 = UNCERTAINTY_MEASURE_WITH_UNIT (LENGTH_MEASURE( 1.000000000000000082E-05 ), #199, 'distance_accuracy_value', 'NONE');
#209 = PRESENTATION_LAYER_ASSIGNMENT (  '', '', ( #7 ) ) ;
#210 = DIMENSIONAL_EXPONENTS ( 1.000000000000000000, 0.000000000000000000, 0.000000000000000000, 0.000000000000000000, 0.000000000000000000, 0.000000000000000000, 0.000000000000000000 ) ;
#211 = DIRECTION ( 'NONE',  ( 0.000000000000000000, -1.000000000000000000, -0.000000000000000000 ) ) ;
#212 = EDGE_CURVE ( 'NONE', #265, #240, #271, .T. ) ;
#213 = PRESENTATION_STYLE_ASSIGNMENT (( #166 ) ) ;
#214 = LENGTH_MEASURE_WITH_UNIT ( LENGTH_MEASURE( 0.02539999999999999897 ), #297 );
#215 =( GEOMETRIC_REPRESENTATION_CONTEXT ( 3 ) GLOBAL_UNCERTAINTY_ASSIGNED_CONTEXT ( ( #159 ) ) GLOBAL_UNIT_ASSIGNED_CONTEXT ( ( #204, #104, #121 ) ) REPRESENTATION_CONTEXT ( 'NONE', 'WORKASPACE' ) );
#216 = CARTESIAN_POINT ( 'NONE',  ( 6.123233995736766036E-17, 2.000000000000000000, 0.000000000000000000 ) ) ;
#217 = PRESENTATION_STYLE_ASSIGNMENT (( #230 ) ) ;
#218 = ORIENTED_EDGE ( 'NONE', *, *, #83, .F. ) ;
#219 = AXIS2_PLACEMENT_3D ( 'NONE', #252, #173, #146 ) ;
#220 = AXIS2_PLACEMENT_3D ( 'NONE', #274, #144, #9 ) ;
#221 = SURFACE_STYLE_FILL_AREA ( #113 ) ;
#222 = DIRECTION ( 'NONE',  ( 0.000000000000000000, -0.000000000000000000, 1.000000000000000000 ) ) ;
#223 =( NAMED_UNIT ( * ) PLANE_ANGLE_UNIT ( ) SI_UNIT ( $, .RADIAN. ) );
#224 = DIRECTION ( 'NONE',  ( -1.000000000000000000, 0.000000000000000000, 0.000000000000000000 ) ) ;
#225 = SHAPE_DEFINITION_REPRESENTATION ( #110, #264 ) ;
#226 = COLOUR_RGB ( '',1.000000000000000000, 0.000000000000000000, 0.000000000000000000 ) ;
#227 = DIRECTION ( 'NONE',  ( -3.768143997376471359E-17, -1.000000000000000000, 0.000000000000000000 ) ) ;
#228 =( LENGTH_UNIT ( ) NAMED_UNIT ( * ) SI_UNIT ( $, .METRE. ) );
#229 = ADVANCED_FACE ( 'NONE', ( #128 ), #38, .T. ) ;
#230 = SURFACE_STYLE_USAGE ( .BOTH. , #14 ) ;
#231 = DIRECTION ( 'NONE',  ( -0.000000000000000000, -1.000000000000000000, -0.000000000000000000 ) ) ;
#232 = UNCERTAINTY_MEASURE_WITH_UNIT (LENGTH_MEASURE( 1.000000000000000082E-05 ), #309, 'distance_accuracy_value', 'NONE');
#233 = PRESENTATION_LAYER_ASSIGNMENT (  '', '', ( #103 ) ) ;
#234 = AXIS2_PLACEMENT_3D ( 'NONE', #154, #231, #283 ) ;
#235 = ORIENTED_EDGE ( 'NONE', *, *, #294, .F. ) ;
#236 = FACE_OUTER_BOUND ( 'NONE', #28, .T. ) ;
#237 = VERTEX_POINT ( 'NONE', #192 ) ;
#238 = SURFACE_SIDE_STYLE ('',( #277 ) ) ;
#239 = LENGTH_MEASURE_WITH_UNIT ( LENGTH_MEASURE( 0.02539999999999999897 ), #228 );
#240 = VERTEX_POINT ( 'NONE', #138 ) ;
#241 =( NAMED_UNIT ( * ) PLANE_ANGLE_UNIT ( ) SI_UNIT ( $, .RADIAN. ) );
#242 = CARTESIAN_POINT ( 'NONE',  ( 6.123233995736766036E-17, 2.000000000000000000, 0.000000000000000000 ) ) ;
#243 = EDGE_CURVE ( 'NONE', #258, #268, #190, .T. ) ;
#244 = CIRCLE ( 'NONE', #150, 0.1250000000000000000 ) ;
#245 =( NAMED_UNIT ( * ) SI_UNIT ( $, .STERADIAN. ) SOLID_ANGLE_UNIT ( ) );
#246 = DIRECTION ( 'NONE',  ( 3.768143997376471359E-17, 1.000000000000000000, -0.000000000000000000 ) ) ;
#247 = UNCERTAINTY_MEASURE_WITH_UNIT (LENGTH_MEASURE( 1.000000000000000082E-05 ), #179, 'distance_accuracy_value', 'NONE');
#248 = SURFACE_STYLE_USAGE ( .BOTH. , #47 ) ;
#249 = CARTESIAN_POINT ( 'NONE',  ( 1.530808498934191509E-17, 0.000000000000000000, 0.1250000000000000000 ) ) ;
#250 =( CONVERSION_BASED_UNIT ( 'INCH', #155 ) LENGTH_UNIT ( ) NAMED_UNIT ( #134 ) );
#251 = ADVANCED_FACE ( 'NONE', ( #236 ), #142, .T. ) ;
#252 = CARTESIAN_POINT ( 'NONE',  ( 6.123233995736766036E-17, 2.000000000000000000, 0.000000000000000000 ) ) ;
#253 = DIRECTION ( 'NONE',  ( -0.000000000000000000, -1.000000000000000000, -0.000000000000000000 ) ) ;
#254 = UNCERTAINTY_MEASURE_WITH_UNIT (LENGTH_MEASURE( 1.000000000000000082E-05 ), #140, 'distance_accuracy_value', 'NONE');
#255 = COLOUR_RGB ( '',0.7921568627450980005, 0.8196078431372548767, 0.9333333333333333481 ) ;
#256 = EDGE_CURVE ( 'NONE', #268, #237, #31, .T. ) ;
#257 = DIRECTION ( 'NONE',  ( 0.000000000000000000, 0.000000000000000000, -1.000000000000000000 ) ) ;
#258 = VERTEX_POINT ( 'NONE', #284 ) ;
#259 = ORIENTED_EDGE ( 'NONE', *, *, #243, .F. ) ;
#260 = COLOUR_RGB ( '',1.000000000000000000, 0.000000000000000000, 0.000000000000000000 ) ;
#261 = ORIENTED_EDGE ( 'NONE', *, *, #212, .T. ) ;
#262 = DIMENSIONAL_EXPONENTS ( 1.000000000000000000, 0.000000000000000000, 0.000000000000000000, 0.000000000000000000, 0.000000000000000000, 0.000000000000000000, 0.000000000000000000 ) ;
#263 = CIRCLE ( 'NONE', #207, 0.1249999999999999306 ) ;
#264 = ADVANCED_BREP_SHAPE_REPRESENTATION ( '00150', ( #184, #183, #108 ), #26 ) ;
#265 = VERTEX_POINT ( 'NONE', #65 ) ;
#266 = CARTESIAN_POINT ( 'NONE',  ( 0.000000000000000000, 0.3750000000000000555, 0.000000000000000000 ) ) ;
#267 = DIRECTION ( 'NONE',  ( -0.000000000000000000, -1.000000000000000000, -0.000000000000000000 ) ) ;
#268 = VERTEX_POINT ( 'NONE', #97 ) ;
#269 = LINE ( 'NONE', #79, #91 ) ;
#270 = FACE_OUTER_BOUND ( 'NONE', #133, .T. ) ;
#271 = CIRCLE ( 'NONE', #85, 0.1250000000000000000 ) ;
#272 = FILL_AREA_STYLE_COLOUR ( '', #255 ) ;
#273 = DIRECTION ( 'NONE',  ( -1.000000000000000000, 0.000000000000000000, 0.000000000000000000 ) ) ;
#274 = CARTESIAN_POINT ( 'NONE',  ( 0.000000000000000000, 0.000000000000000000, 0.000000000000000000 ) ) ;
#275 = PRODUCT_CONTEXT ( 'NONE', #3, 'mechanical' ) ;
#276 = DIMENSIONAL_EXPONENTS ( 1.000000000000000000, 0.000000000000000000, 0.000000000000000000, 0.000000000000000000, 0.000000000000000000, 0.000000000000000000, 0.000000000000000000 ) ;
#277 = SURFACE_STYLE_FILL_AREA ( #58 ) ;
#278 = AXIS2_PLACEMENT_3D ( 'NONE', #242, #10, #45 ) ;
#279 = AXIS2_PLACEMENT_3D ( 'NONE', #306, #288, #153 ) ;
#280 = DIRECTION ( 'NONE',  ( 0.000000000000000000, 0.000000000000000000, -1.000000000000000000 ) ) ;
#281 = AXIS2_PLACEMENT_3D ( 'NONE', #84, #211, #280 ) ;
#282 = DIRECTION ( 'NONE',  ( 0.000000000000000000, 1.000000000000000000, 0.000000000000000000 ) ) ;
#283 = DIRECTION ( 'NONE',  ( 0.000000000000000000, 0.000000000000000000, -1.000000000000000000 ) ) ;
#284 = CARTESIAN_POINT ( 'NONE',  ( 0.1250000000000000278, 0.3749999999999999445, 1.530808498934191509E-17 ) ) ;
#285 = ORIENTED_EDGE ( 'NONE', *, *, #189, .T. ) ;
#286 =( LENGTH_UNIT ( ) NAMED_UNIT ( * ) SI_UNIT ( $, .METRE. ) );
#287 =( NAMED_UNIT ( * ) SI_UNIT ( $, .STERADIAN. ) SOLID_ANGLE_UNIT ( ) );
#288 = DIRECTION ( 'NONE',  ( 3.768143997376471359E-17, 1.000000000000000000, -0.000000000000000000 ) ) ;
#289 = DIRECTION ( 'NONE',  ( 3.768143997376471359E-17, 1.000000000000000000, -0.000000000000000000 ) ) ;
#290 = APPLICATION_PROTOCOL_DEFINITION ( 'draft international standard', 'automotive_design', 1998, #27 ) ;
#291 = AXIS2_PLACEMENT_3D ( 'NONE', #187, #56, #163 ) ;
#292 = DIRECTION ( 'NONE',  ( 3.768143997376471359E-17, 1.000000000000000000, -0.000000000000000000 ) ) ;
#293 = MECHANICAL_DESIGN_GEOMETRIC_PRESENTATION_REPRESENTATION (  '', ( #103 ), #160 ) ;
#294 = EDGE_CURVE ( 'NONE', #237, #268, #263, .T. ) ;
#295 = PRODUCT_RELATED_PRODUCT_CATEGORY ( 'part', '', ( #33 ) ) ;
#296 = CARTESIAN_POINT ( 'NONE',  ( 0.1250000000000000278, 2.000000000000000000, 1.530808498934191201E-17 ) ) ;
#297 =( LENGTH_UNIT ( ) NAMED_UNIT ( * ) SI_UNIT ( $, .METRE. ) );
#298 = ORIENTED_EDGE ( 'NONE', *, *, #57, .F. ) ;
#299 = PLANE ( 'NONE',  #186 ) ;
#300 = FILL_AREA_STYLE ('',( #272 ) ) ;
#301 = DIRECTION ( 'NONE',  ( -1.000000000000000000, 0.000000000000000000, 0.000000000000000000 ) ) ;
#302 =( GEOMETRIC_REPRESENTATION_CONTEXT ( 3 ) GLOBAL_UNCERTAINTY_ASSIGNED_CONTEXT ( ( #254 ) ) GLOBAL_UNIT_ASSIGNED_CONTEXT ( ( #140, #168, #41 ) ) REPRESENTATION_CONTEXT ( 'NONE', 'WORKASPACE' ) );
#303 = SURFACE_SIDE_STYLE ('',( #16 ) ) ;
#304 = PLANE ( 'NONE',  #191 ) ;
#305 = DIRECTION ( 'NONE',  ( 3.768143997376471359E-17, 1.000000000000000000, -0.000000000000000000 ) ) ;
#306 = CARTESIAN_POINT ( 'NONE',  ( 8.874318240602707505E-35, 0.3750000000000000555, 0.000000000000000000 ) ) ;
#307 = EDGE_CURVE ( 'NONE', #258, #5, #244, .T. ) ;
#308 =( NAMED_UNIT ( * ) SI_UNIT ( $, .STERADIAN. ) SOLID_ANGLE_UNIT ( ) );
#309 =( CONVERSION_BASED_UNIT ( 'INCH', #68 ) LENGTH_UNIT ( ) NAMED_UNIT ( #55 ) );
ENDSEC;
END-ISO-10303-21;
