ISO-10303-21;
HEADER;
FILE_DESCRIPTION (( 'STEP AP214' ),
    '1' );
FILE_NAME ('59664.STEP',
    '2023-07-24T15:21:19',
    ( '' ),
    ( '' ),
    'SwSTEP 2.0',
    'SolidWorks 2023',
    '' );
FILE_SCHEMA (( 'AUTOMOTIVE_DESIGN' ));
ENDSEC;

DATA;
#1 = EDGE_LOOP ( 'NONE', ( #285, #326 ) ) ;
#2 = PRODUCT_DEFINITION_SHAPE ( 'NONE', 'NONE',  #137 ) ;
#3 = DIRECTION ( 'NONE',  ( -1.000000000000000000, 0.000000000000000000, 0.000000000000000000 ) ) ;
#4 = VERTEX_POINT ( 'NONE', #215 ) ;
#5 = ORIENTED_EDGE ( 'NONE', *, *, #155, .F. ) ;
#6 = STYLED_ITEM ( 'NONE', ( #365 ), #197 ) ;
#7 = DIRECTION ( 'NONE',  ( 0.000000000000000000, 0.000000000000000000, -1.000000000000000000 ) ) ;
#8 = CIRCLE ( 'NONE', #263, 7.000000000000000000 ) ;
#9 = CYLINDRICAL_SURFACE ( 'NONE', #348, 7.999999999999998224 ) ;
#10 = ORIENTED_EDGE ( 'NONE', *, *, #153, .F. ) ;
#11 = SURFACE_STYLE_FILL_AREA ( #266 ) ;
#12 = DIRECTION ( 'NONE',  ( 0.000000000000000000, 0.000000000000000000, -1.000000000000000000 ) ) ;
#13 = AXIS2_PLACEMENT_3D ( 'NONE', #147, #125, #7 ) ;
#14 = CARTESIAN_POINT ( 'NONE',  ( 0.000000000000000000, 32.00000000000000000, 0.000000000000000000 ) ) ;
#15 = DIRECTION ( 'NONE',  ( -1.000000000000000000, -1.213802797673107944E-16, 0.000000000000000000 ) ) ;
#16 = FACE_OUTER_BOUND ( 'NONE', #261, .T. ) ;
#17 = AXIS2_PLACEMENT_3D ( 'NONE', #325, #103, #298 ) ;
#18 = VECTOR ( 'NONE', #72, 1000.000000000000000 ) ;
#19 = UNCERTAINTY_MEASURE_WITH_UNIT (LENGTH_MEASURE( 1.000000000000000082E-05 ), #316, 'distance_accuracy_value', 'NONE');
#20 = CARTESIAN_POINT ( 'NONE',  ( 8.572527594031473190E-16, 1.000000000000000000, 7.000000000000000000 ) ) ;
#21 = DIRECTION ( 'NONE',  ( 0.000000000000000000, 0.000000000000000000, -1.000000000000000000 ) ) ;
#22 = SURFACE_STYLE_USAGE ( .BOTH. , #116 ) ;
#23 = LINE ( 'NONE', #286, #289 ) ;
#24 = AXIS2_PLACEMENT_3D ( 'NONE', #322, #201, #332 ) ;
#25 = MECHANICAL_DESIGN_GEOMETRIC_PRESENTATION_REPRESENTATION (  '', ( #193 ), #180 ) ;
#26 = EDGE_CURVE ( 'NONE', #352, #194, #274, .T. ) ;
#27 = ORIENTED_EDGE ( 'NONE', *, *, #296, .T. ) ;
#28 =( NAMED_UNIT ( * ) SI_UNIT ( $, .STERADIAN. ) SOLID_ANGLE_UNIT ( ) );
#29 = EDGE_LOOP ( 'NONE', ( #93, #187, #10, #303 ) ) ;
#30 = ADVANCED_FACE ( 'NONE', ( #43 ), #156, .T. ) ;
#31 = DIRECTION ( 'NONE',  ( -0.000000000000000000, -1.000000000000000000, -0.000000000000000000 ) ) ;
#32 = CLOSED_SHELL ( 'NONE', ( #89, #197, #238, #58, #30, #176 ) ) ;
#33 = AXIS2_PLACEMENT_3D ( 'NONE', #302, #46, #15 ) ;
#34 = DIRECTION ( 'NONE',  ( -1.000000000000000000, 0.000000000000000000, 0.000000000000000000 ) ) ;
#35 = DIRECTION ( 'NONE',  ( 0.000000000000000000, 0.000000000000000000, -1.000000000000000000 ) ) ;
#36 = FACE_OUTER_BOUND ( 'NONE', #208, .T. ) ;
#37 = PRESENTATION_LAYER_ASSIGNMENT (  '', '', ( #253 ) ) ;
#38 = ORIENTED_EDGE ( 'NONE', *, *, #314, .F. ) ;
#39 = TOROIDAL_SURFACE ( 'NONE', #13, 7.000000000000000000, 1.000000000000000000 ) ;
#40 = CIRCLE ( 'NONE', #75, 1.000000000000000000 ) ;
#41 = EDGE_LOOP ( 'NONE', ( #50, #131 ) ) ;
#42 = CARTESIAN_POINT ( 'NONE',  ( 0.000000000000000000, 32.00000000000000000, -8.000000000000000000 ) ) ;
#43 = FACE_OUTER_BOUND ( 'NONE', #258, .T. ) ;
#44 = FILL_AREA_STYLE_COLOUR ( '', #369 ) ;
#45 = FILL_AREA_STYLE_COLOUR ( '', #292 ) ;
#46 = DIRECTION ( 'NONE',  ( -1.213802797673107944E-16, 1.000000000000000000, 0.000000000000000000 ) ) ;
#47 = EDGE_CURVE ( 'NONE', #267, #251, #246, .T. ) ;
#48 = CARTESIAN_POINT ( 'NONE',  ( 9.797174393178825657E-16, 1.000000000000000000, 8.000000000000000000 ) ) ;
#49 = LINE ( 'NONE', #165, #221 ) ;
#50 = ORIENTED_EDGE ( 'NONE', *, *, #334, .F. ) ;
#51 = SURFACE_STYLE_FILL_AREA ( #306 ) ;
#52 = FACE_OUTER_BOUND ( 'NONE', #217, .T. ) ;
#53 = CLOSED_SHELL ( 'NONE', ( #323, #122, #92, #242 ) ) ;
#54 =( GEOMETRIC_REPRESENTATION_CONTEXT ( 3 ) GLOBAL_UNCERTAINTY_ASSIGNED_CONTEXT ( ( #308 ) ) GLOBAL_UNIT_ASSIGNED_CONTEXT ( ( #129, #353, #307 ) ) REPRESENTATION_CONTEXT ( 'NONE', 'WORKASPACE' ) );
#55 = VERTEX_POINT ( 'NONE', #189 ) ;
#56 = PRESENTATION_STYLE_ASSIGNMENT (( #229 ) ) ;
#57 = ORIENTED_EDGE ( 'NONE', *, *, #65, .F. ) ;
#58 = ADVANCED_FACE ( 'NONE', ( #36 ), #68, .T. ) ;
#59 = AXIS2_PLACEMENT_3D ( 'NONE', #97, #300, #234 ) ;
#60 = AXIS2_PLACEMENT_3D ( 'NONE', #301, #269, #195 ) ;
#61 = ORIENTED_EDGE ( 'NONE', *, *, #145, .T. ) ;
#62 = DIRECTION ( 'NONE',  ( 0.000000000000000000, 0.000000000000000000, -1.000000000000000000 ) ) ;
#63 = PRESENTATION_STYLE_ASSIGNMENT (( #213 ) ) ;
#64 = SURFACE_SIDE_STYLE ('',( #91 ) ) ;
#65 = EDGE_CURVE ( 'NONE', #319, #74, #67, .T. ) ;
#66 = DIRECTION ( 'NONE',  ( 1.000000000000000000, 0.000000000000000000, 0.000000000000000000 ) ) ;
#67 = CIRCLE ( 'NONE', #24, 8.000000000000000000 ) ;
#68 = TOROIDAL_SURFACE ( 'NONE', #351, 7.000000000000000000, 1.000000000000000000 ) ;
#69 = AXIS2_PLACEMENT_3D ( 'NONE', #354, #76, #305 ) ;
#70 = CARTESIAN_POINT ( 'NONE',  ( 0.000000000000000000, 0.000000000000000000, 0.000000000000000000 ) ) ;
#71 =( NAMED_UNIT ( * ) PLANE_ANGLE_UNIT ( ) SI_UNIT ( $, .RADIAN. ) );
#72 = DIRECTION ( 'NONE',  ( -1.213802797673107944E-16, 1.000000000000000000, -0.000000000000000000 ) ) ;
#73 = SURFACE_STYLE_USAGE ( .BOTH. , #240 ) ;
#74 = VERTEX_POINT ( 'NONE', #102 ) ;
#75 = AXIS2_PLACEMENT_3D ( 'NONE', #295, #259, #214 ) ;
#76 = DIRECTION ( 'NONE',  ( -1.213802797673107944E-16, 1.000000000000000000, -0.000000000000000000 ) ) ;
#77 = FACE_OUTER_BOUND ( 'NONE', #95, .T. ) ;
#78 = EDGE_CURVE ( 'NONE', #74, #319, #114, .T. ) ;
#79 = PRESENTATION_LAYER_ASSIGNMENT (  '', '', ( #159 ) ) ;
#80 = CARTESIAN_POINT ( 'NONE',  ( 0.000000000000000000, 1.000000000000000000, 0.000000000000000000 ) ) ;
#81 = AXIS2_PLACEMENT_3D ( 'NONE', #141, #252, #361 ) ;
#82 = ADVANCED_BREP_SHAPE_REPRESENTATION ( '59664', ( #282, #164, #330 ), #86 ) ;
#83 = ORIENTED_EDGE ( 'NONE', *, *, #211, .F. ) ;
#84 = AXIS2_PLACEMENT_3D ( 'NONE', #70, #344, #218 ) ;
#85 = AXIS2_PLACEMENT_3D ( 'NONE', #20, #198, #331 ) ;
#86 =( GEOMETRIC_REPRESENTATION_CONTEXT ( 3 ) GLOBAL_UNCERTAINTY_ASSIGNED_CONTEXT ( ( #225 ) ) GLOBAL_UNIT_ASSIGNED_CONTEXT ( ( #119, #235, #318 ) ) REPRESENTATION_CONTEXT ( 'NONE', 'WORKASPACE' ) );
#87 = ORIENTED_EDGE ( 'NONE', *, *, #222, .T. ) ;
#88 = DIRECTION ( 'NONE',  ( 0.000000000000000000, -0.000000000000000000, 1.000000000000000000 ) ) ;
#89 = ADVANCED_FACE ( 'NONE', ( #312 ), #310, .T. ) ;
#90 =( NAMED_UNIT ( * ) SI_UNIT ( $, .STERADIAN. ) SOLID_ANGLE_UNIT ( ) );
#91 = SURFACE_STYLE_FILL_AREA ( #297 ) ;
#92 = ADVANCED_FACE ( 'NONE', ( #52 ), #166, .T. ) ;
#93 = ORIENTED_EDGE ( 'NONE', *, *, #334, .T. ) ;
#94 = DIRECTION ( 'NONE',  ( -0.000000000000000000, -1.000000000000000000, -0.000000000000000000 ) ) ;
#95 = EDGE_LOOP ( 'NONE', ( #106, #27 ) ) ;
#96 = DIRECTION ( 'NONE',  ( 0.000000000000000000, 0.000000000000000000, 1.000000000000000000 ) ) ;
#97 = CARTESIAN_POINT ( 'NONE',  ( 0.000000000000000000, 1.000000000000000000, 0.000000000000000000 ) ) ;
#98 = CIRCLE ( 'NONE', #127, 8.000000000000001776 ) ;
#99 = ORIENTED_EDGE ( 'NONE', *, *, #284, .T. ) ;
#100 = CARTESIAN_POINT ( 'NONE',  ( 5.204170427930421283E-15, 32.00000000000000000, 0.000000000000000000 ) ) ;
#101 = ORIENTED_EDGE ( 'NONE', *, *, #47, .F. ) ;
#102 = CARTESIAN_POINT ( 'NONE',  ( 9.797174393178825657E-16, 32.00000000000000000, 8.000000000000000000 ) ) ;
#103 = DIRECTION ( 'NONE',  ( -0.000000000000000000, -1.000000000000000000, -0.000000000000000000 ) ) ;
#104 = AXIS2_PLACEMENT_3D ( 'NONE', #283, #146, #88 ) ;
#105 = FILL_AREA_STYLE ('',( #356 ) ) ;
#106 = ORIENTED_EDGE ( 'NONE', *, *, #26, .T. ) ;
#107 = DIRECTION ( 'NONE',  ( -1.213802797673107944E-16, 1.000000000000000000, -0.000000000000000000 ) ) ;
#108 = EDGE_CURVE ( 'NONE', #181, #4, #329, .T. ) ;
#109 = EDGE_LOOP ( 'NONE', ( #99, #87, #157, #38 ) ) ;
#110 = CARTESIAN_POINT ( 'NONE',  ( 9.184850993605147944E-16, 0.000000000000000000, 7.000000000000000000 ) ) ;
#111 = MECHANICAL_DESIGN_GEOMETRIC_PRESENTATION_REPRESENTATION (  '', ( #268 ), #144 ) ;
#112 = FILL_AREA_STYLE_COLOUR ( '', #276 ) ;
#113 =( LENGTH_UNIT ( ) NAMED_UNIT ( * ) SI_UNIT ( .MILLI., .METRE. ) );
#114 = CIRCLE ( 'NONE', #202, 8.000000000000000000 ) ;
#115 = EDGE_CURVE ( 'NONE', #4, #294, #245, .T. ) ;
#116 = SURFACE_SIDE_STYLE ('',( #206 ) ) ;
#117 =( NAMED_UNIT ( * ) SI_UNIT ( $, .STERADIAN. ) SOLID_ANGLE_UNIT ( ) );
#118 = ORIENTED_EDGE ( 'NONE', *, *, #167, .T. ) ;
#119 =( LENGTH_UNIT ( ) NAMED_UNIT ( * ) SI_UNIT ( .MILLI., .METRE. ) );
#120 = AXIS2_PLACEMENT_3D ( 'NONE', #100, #107, #219 ) ;
#121 = APPLICATION_PROTOCOL_DEFINITION ( 'draft international standard', 'automotive_design', 1998, #216 ) ;
#122 = ADVANCED_FACE ( 'NONE', ( #328 ), #192, .F. ) ;
#123 = DIRECTION ( 'NONE',  ( -1.213802797673107944E-16, 1.000000000000000000, -0.000000000000000000 ) ) ;
#124 = ORIENTED_EDGE ( 'NONE', *, *, #314, .T. ) ;
#125 = DIRECTION ( 'NONE',  ( -0.000000000000000000, -1.000000000000000000, -0.000000000000000000 ) ) ;
#126 = STYLED_ITEM ( 'NONE', ( #196 ), #89 ) ;
#127 = AXIS2_PLACEMENT_3D ( 'NONE', #367, #178, #3 ) ;
#128 = ORIENTED_EDGE ( 'NONE', *, *, #65, .T. ) ;
#129 =( LENGTH_UNIT ( ) NAMED_UNIT ( * ) SI_UNIT ( .MILLI., .METRE. ) );
#130 = PRODUCT_DEFINITION_CONTEXT ( 'detailed design', #150, 'design' ) ;
#131 = ORIENTED_EDGE ( 'NONE', *, *, #108, .F. ) ;
#132 = CARTESIAN_POINT ( 'NONE',  ( 0.000000000000000000, 0.000000000000000000, -8.000000000000000000 ) ) ;
#133 = ORIENTED_EDGE ( 'NONE', *, *, #115, .T. ) ;
#134 = CARTESIAN_POINT ( 'NONE',  ( 0.000000000000000000, 1.000000000000000000, -8.000000000000000000 ) ) ;
#135 = DIRECTION ( 'NONE',  ( -0.000000000000000000, -1.000000000000000000, -0.000000000000000000 ) ) ;
#136 = UNCERTAINTY_MEASURE_WITH_UNIT (LENGTH_MEASURE( 1.000000000000000082E-05 ), #273, 'distance_accuracy_value', 'NONE');
#137 = PRODUCT_DEFINITION ( 'UNKNOWN', '', #139, #130 ) ;
#138 = PRESENTATION_LAYER_ASSIGNMENT (  '', '', ( #311 ) ) ;
#139 = PRODUCT_DEFINITION_FORMATION_WITH_SPECIFIED_SOURCE ( 'ANY', '', #209, .NOT_KNOWN. ) ;
#140 = ORIENTED_EDGE ( 'NONE', *, *, #222, .F. ) ;
#141 = CARTESIAN_POINT ( 'NONE',  ( -1.714505518806293849E-15, 89.00000000000000000, 0.000000000000000000 ) ) ;
#142 = UNCERTAINTY_MEASURE_WITH_UNIT (LENGTH_MEASURE( 1.000000000000000082E-05 ), #260, 'distance_accuracy_value', 'NONE');
#143 = SURFACE_STYLE_USAGE ( .BOTH. , #232 ) ;
#144 =( GEOMETRIC_REPRESENTATION_CONTEXT ( 3 ) GLOBAL_UNCERTAINTY_ASSIGNED_CONTEXT ( ( #358 ) ) GLOBAL_UNIT_ASSIGNED_CONTEXT ( ( #366, #188, #149 ) ) REPRESENTATION_CONTEXT ( 'NONE', 'WORKASPACE' ) );
#145 = EDGE_CURVE ( 'NONE', #319, #251, #161, .T. ) ;
#146 = DIRECTION ( 'NONE',  ( 0.000000000000000000, 1.000000000000000000, 0.000000000000000000 ) ) ;
#147 = CARTESIAN_POINT ( 'NONE',  ( 0.000000000000000000, 1.000000000000000000, 0.000000000000000000 ) ) ;
#148 =( GEOMETRIC_REPRESENTATION_CONTEXT ( 3 ) GLOBAL_UNCERTAINTY_ASSIGNED_CONTEXT ( ( #272 ) ) GLOBAL_UNIT_ASSIGNED_CONTEXT ( ( #293, #154, #264 ) ) REPRESENTATION_CONTEXT ( 'NONE', 'WORKASPACE' ) );
#149 =( NAMED_UNIT ( * ) SI_UNIT ( $, .STERADIAN. ) SOLID_ANGLE_UNIT ( ) );
#150 = APPLICATION_CONTEXT ( 'automotive_design' ) ;
#151 = CARTESIAN_POINT ( 'NONE',  ( -1.714505518806293849E-15, 89.00000000000000000, 0.000000000000000000 ) ) ;
#152 = COLOUR_RGB ( '',1.000000000000000000, 0.000000000000000000, 0.000000000000000000 ) ;
#153 = EDGE_CURVE ( 'NONE', #294, #55, #324, .T. ) ;
#154 =( NAMED_UNIT ( * ) PLANE_ANGLE_UNIT ( ) SI_UNIT ( $, .RADIAN. ) );
#155 = EDGE_CURVE ( 'NONE', #181, #55, #49, .T. ) ;
#156 = CYLINDRICAL_SURFACE ( 'NONE', #84, 8.000000000000000000 ) ;
#157 = ORIENTED_EDGE ( 'NONE', *, *, #26, .F. ) ;
#158 = CARTESIAN_POINT ( 'NONE',  ( 0.000000000000000000, 0.000000000000000000, 0.000000000000000000 ) ) ;
#159 = STYLED_ITEM ( 'NONE', ( #63 ), #58 ) ;
#160 = SURFACE_STYLE_USAGE ( .BOTH. , #304 ) ;
#161 = LINE ( 'NONE', #132, #212 ) ;
#162 = FILL_AREA_STYLE_COLOUR ( '', #152 ) ;
#163 = CARTESIAN_POINT ( 'NONE',  ( 0.000000000000000000, 1.000000000000000000, 0.000000000000000000 ) ) ;
#164 = MANIFOLD_SOLID_BREP ( 'Revolve - Tool Body (Straight Shanked)', #53 ) ;
#165 = CARTESIAN_POINT ( 'NONE',  ( 7.999999999999996447, 89.00000000000000000, 9.797174393178823685E-16 ) ) ;
#166 = CYLINDRICAL_SURFACE ( 'NONE', #81, 7.999999999999998224 ) ;
#167 = EDGE_CURVE ( 'NONE', #74, #267, #23, .T. ) ;
#168 = AXIS2_PLACEMENT_3D ( 'NONE', #346, #123, #34 ) ;
#169 = CARTESIAN_POINT ( 'NONE',  ( 0.000000000000000000, 0.000000000000000000, 0.000000000000000000 ) ) ;
#170 = DIRECTION ( 'NONE',  ( 0.000000000000000000, 0.000000000000000000, -1.000000000000000000 ) ) ;
#171 = UNCERTAINTY_MEASURE_WITH_UNIT (LENGTH_MEASURE( 1.000000000000000082E-05 ), #174, 'distance_accuracy_value', 'NONE');
#172 = PLANE ( 'NONE',  #104 ) ;
#173 = ORIENTED_EDGE ( 'NONE', *, *, #78, .T. ) ;
#174 =( LENGTH_UNIT ( ) NAMED_UNIT ( * ) SI_UNIT ( .MILLI., .METRE. ) );
#175 = MECHANICAL_DESIGN_GEOMETRIC_PRESENTATION_REPRESENTATION (  '', ( #262 ), #275 ) ;
#176 = ADVANCED_FACE ( 'NONE', ( #16 ), #172, .T. ) ;
#177 = CARTESIAN_POINT ( 'NONE',  ( 0.000000000000000000, 0.000000000000000000, 0.000000000000000000 ) ) ;
#178 = DIRECTION ( 'NONE',  ( -1.213802797673107944E-16, 1.000000000000000000, -0.000000000000000000 ) ) ;
#179 = MECHANICAL_DESIGN_GEOMETRIC_PRESENTATION_REPRESENTATION (  '', ( #126 ), #54 ) ;
#180 =( GEOMETRIC_REPRESENTATION_CONTEXT ( 3 ) GLOBAL_UNCERTAINTY_ASSIGNED_CONTEXT ( ( #19 ) ) GLOBAL_UNIT_ASSIGNED_CONTEXT ( ( #316, #362, #90 ) ) REPRESENTATION_CONTEXT ( 'NONE', 'WORKASPACE' ) );
#181 = VERTEX_POINT ( 'NONE', #228 ) ;
#182 = FACE_OUTER_BOUND ( 'NONE', #29, .T. ) ;
#183 = ORIENTED_EDGE ( 'NONE', *, *, #284, .F. ) ;
#184 = DIRECTION ( 'NONE',  ( -1.213802797673107944E-16, 1.000000000000000000, -0.000000000000000000 ) ) ;
#185 = MECHANICAL_DESIGN_GEOMETRIC_PRESENTATION_REPRESENTATION (  '', ( #253 ), #339 ) ;
#186 = AXIS2_PLACEMENT_3D ( 'NONE', #158, #191, #12 ) ;
#187 = ORIENTED_EDGE ( 'NONE', *, *, #155, .T. ) ;
#188 =( NAMED_UNIT ( * ) PLANE_ANGLE_UNIT ( ) SI_UNIT ( $, .RADIAN. ) );
#189 = CARTESIAN_POINT ( 'NONE',  ( 8.000000000000000000, 89.00000000000000000, 9.797174393178825657E-16 ) ) ;
#190 = ORIENTED_EDGE ( 'NONE', *, *, #78, .F. ) ;
#191 = DIRECTION ( 'NONE',  ( 0.000000000000000000, -1.000000000000000000, -0.000000000000000000 ) ) ;
#192 = PLANE ( 'NONE',  #33 ) ;
#193 = STYLED_ITEM ( 'NONE', ( #56 ), #176 ) ;
#194 = VERTEX_POINT ( 'NONE', #110 ) ;
#195 = DIRECTION ( 'NONE',  ( 1.000000000000000000, 1.213802797673107944E-16, 0.000000000000000000 ) ) ;
#196 = PRESENTATION_STYLE_ASSIGNMENT (( #270 ) ) ;
#197 = ADVANCED_FACE ( 'NONE', ( #227 ), #39, .T. ) ;
#198 = DIRECTION ( 'NONE',  ( 1.000000000000000000, 0.000000000000000000, -1.224646799147353207E-16 ) ) ;
#199 = SURFACE_STYLE_FILL_AREA ( #105 ) ;
#200 = PLANE ( 'NONE',  #60 ) ;
#201 = DIRECTION ( 'NONE',  ( -0.000000000000000000, -1.000000000000000000, -0.000000000000000000 ) ) ;
#202 = AXIS2_PLACEMENT_3D ( 'NONE', #14, #135, #203 ) ;
#203 = DIRECTION ( 'NONE',  ( 0.000000000000000000, 0.000000000000000000, -1.000000000000000000 ) ) ;
#204 = PRESENTATION_STYLE_ASSIGNMENT (( #73 ) ) ;
#205 = PRESENTATION_STYLE_ASSIGNMENT (( #143 ) ) ;
#206 = SURFACE_STYLE_FILL_AREA ( #355 ) ;
#207 = SURFACE_SIDE_STYLE ('',( #341 ) ) ;
#208 = EDGE_LOOP ( 'NONE', ( #140, #345, #124, #279 ) ) ;
#209 = PRODUCT ( '59664', '59664', '', ( #237 ) ) ;
#210 = CARTESIAN_POINT ( 'NONE',  ( 0.000000000000000000, 0.000000000000000000, 0.000000000000000000 ) ) ;
#211 = EDGE_CURVE ( 'NONE', #55, #294, #98, .T. ) ;
#212 = VECTOR ( 'NONE', #243, 1000.000000000000000 ) ;
#213 = SURFACE_STYLE_USAGE ( .BOTH. , #64 ) ;
#214 = DIRECTION ( 'NONE',  ( 0.000000000000000000, 0.000000000000000000, 1.000000000000000000 ) ) ;
#215 = CARTESIAN_POINT ( 'NONE',  ( -7.999999999999989342, 32.00000000000000000, 0.000000000000000000 ) ) ;
#216 = APPLICATION_CONTEXT ( 'automotive_design' ) ;
#217 = EDGE_LOOP ( 'NONE', ( #5, #350, #133, #83 ) ) ;
#218 = DIRECTION ( 'NONE',  ( 0.000000000000000000, 0.000000000000000000, -1.000000000000000000 ) ) ;
#219 = DIRECTION ( 'NONE',  ( -1.000000000000000000, 0.000000000000000000, 0.000000000000000000 ) ) ;
#220 = SURFACE_STYLE_FILL_AREA ( #360 ) ;
#221 = VECTOR ( 'NONE', #271, 1000.000000000000000 ) ;
#222 = EDGE_CURVE ( 'NONE', #267, #194, #247, .T. ) ;
#223 = FACE_OUTER_BOUND ( 'NONE', #1, .T. ) ;
#224 = FILL_AREA_STYLE_COLOUR ( '', #287 ) ;
#225 = UNCERTAINTY_MEASURE_WITH_UNIT (LENGTH_MEASURE( 1.000000000000000082E-05 ), #119, 'distance_accuracy_value', 'NONE');
#226 = PRESENTATION_LAYER_ASSIGNMENT (  '', '', ( #262 ) ) ;
#227 = FACE_OUTER_BOUND ( 'NONE', #109, .T. ) ;
#228 = CARTESIAN_POINT ( 'NONE',  ( 8.000000000000000000, 32.00000000000000000, 9.797174393178825657E-16 ) ) ;
#229 = SURFACE_STYLE_USAGE ( .BOTH. , #207 ) ;
#230 = SURFACE_STYLE_USAGE ( .BOTH. , #280 ) ;
#231 = PRESENTATION_LAYER_ASSIGNMENT (  '', '', ( #268 ) ) ;
#232 = SURFACE_SIDE_STYLE ('',( #199 ) ) ;
#233 = CARTESIAN_POINT ( 'NONE',  ( 0.000000000000000000, 0.000000000000000000, -7.000000000000000000 ) ) ;
#234 = DIRECTION ( 'NONE',  ( 0.000000000000000000, 0.000000000000000000, -1.000000000000000000 ) ) ;
#235 =( NAMED_UNIT ( * ) PLANE_ANGLE_UNIT ( ) SI_UNIT ( $, .RADIAN. ) );
#236 = PRESENTATION_LAYER_ASSIGNMENT (  '', '', ( #6 ) ) ;
#237 = PRODUCT_CONTEXT ( 'NONE', #216, 'mechanical' ) ;
#238 = ADVANCED_FACE ( 'NONE', ( #77 ), #299, .T. ) ;
#239 = COLOUR_RGB ( '',0.7921568627450980005, 0.8196078431372548767, 0.9333333333333333481 ) ;
#240 = SURFACE_SIDE_STYLE ('',( #11 ) ) ;
#241 = DIRECTION ( 'NONE',  ( -0.000000000000000000, -1.000000000000000000, -0.000000000000000000 ) ) ;
#242 = ADVANCED_FACE ( 'NONE', ( #223 ), #200, .F. ) ;
#243 = DIRECTION ( 'NONE',  ( -0.000000000000000000, -1.000000000000000000, -0.000000000000000000 ) ) ;
#244 = FILL_AREA_STYLE_COLOUR ( '', #239 ) ;
#245 = LINE ( 'NONE', #327, #18 ) ;
#246 = CIRCLE ( 'NONE', #59, 8.000000000000000000 ) ;
#247 = CIRCLE ( 'NONE', #85, 1.000000000000000000 ) ;
#248 = AXIS2_PLACEMENT_3D ( 'NONE', #163, #288, #35 ) ;
#249 =( NAMED_UNIT ( * ) PLANE_ANGLE_UNIT ( ) SI_UNIT ( $, .RADIAN. ) );
#250 = UNCERTAINTY_MEASURE_WITH_UNIT (LENGTH_MEASURE( 1.000000000000000082E-05 ), #113, 'distance_accuracy_value', 'NONE');
#251 = VERTEX_POINT ( 'NONE', #134 ) ;
#252 = DIRECTION ( 'NONE',  ( -1.213802797673107944E-16, 1.000000000000000000, -0.000000000000000000 ) ) ;
#253 = STYLED_ITEM ( 'NONE', ( #204 ), #30 ) ;
#254 = ORIENTED_EDGE ( 'NONE', *, *, #167, .F. ) ;
#255 =( NAMED_UNIT ( * ) PLANE_ANGLE_UNIT ( ) SI_UNIT ( $, .RADIAN. ) );
#256 = FILL_AREA_STYLE_COLOUR ( '', #370 ) ;
#257 = COLOUR_RGB ( '',0.7921568627450980005, 0.8196078431372548767, 0.9333333333333333481 ) ;
#258 = EDGE_LOOP ( 'NONE', ( #254, #173, #61, #101 ) ) ;
#259 = DIRECTION ( 'NONE',  ( -1.000000000000000000, 0.000000000000000000, 0.000000000000000000 ) ) ;
#260 =( LENGTH_UNIT ( ) NAMED_UNIT ( * ) SI_UNIT ( .MILLI., .METRE. ) );
#261 = EDGE_LOOP ( 'NONE', ( #57, #190 ) ) ;
#262 = STYLED_ITEM ( 'NONE', ( #205 ), #164 ) ;
#263 = AXIS2_PLACEMENT_3D ( 'NONE', #210, #94, #62 ) ;
#264 =( NAMED_UNIT ( * ) SI_UNIT ( $, .STERADIAN. ) SOLID_ANGLE_UNIT ( ) );
#265 = EDGE_LOOP ( 'NONE', ( #128, #118, #183, #317 ) ) ;
#266 = FILL_AREA_STYLE ('',( #162 ) ) ;
#267 = VERTEX_POINT ( 'NONE', #48 ) ;
#268 = STYLED_ITEM ( 'NONE', ( #313 ), #282 ) ;
#269 = DIRECTION ( 'NONE',  ( 1.213802797673107944E-16, -1.000000000000000000, 0.000000000000000000 ) ) ;
#270 = SURFACE_STYLE_USAGE ( .BOTH. , #277 ) ;
#271 = DIRECTION ( 'NONE',  ( -1.213802797673107944E-16, 1.000000000000000000, -0.000000000000000000 ) ) ;
#272 = UNCERTAINTY_MEASURE_WITH_UNIT (LENGTH_MEASURE( 1.000000000000000082E-05 ), #293, 'distance_accuracy_value', 'NONE');
#273 =( LENGTH_UNIT ( ) NAMED_UNIT ( * ) SI_UNIT ( .MILLI., .METRE. ) );
#274 = CIRCLE ( 'NONE', #17, 7.000000000000000000 ) ;
#275 =( GEOMETRIC_REPRESENTATION_CONTEXT ( 3 ) GLOBAL_UNCERTAINTY_ASSIGNED_CONTEXT ( ( #171 ) ) GLOBAL_UNIT_ASSIGNED_CONTEXT ( ( #174, #255, #28 ) ) REPRESENTATION_CONTEXT ( 'NONE', 'WORKASPACE' ) );
#276 = COLOUR_RGB ( '',1.000000000000000000, 0.000000000000000000, 0.000000000000000000 ) ;
#277 = SURFACE_SIDE_STYLE ('',( #220 ) ) ;
#278 =( NAMED_UNIT ( * ) PLANE_ANGLE_UNIT ( ) SI_UNIT ( $, .RADIAN. ) );
#279 = ORIENTED_EDGE ( 'NONE', *, *, #296, .F. ) ;
#280 = SURFACE_SIDE_STYLE ('',( #343 ) ) ;
#281 = AXIS2_PLACEMENT_3D ( 'NONE', #169, #241, #21 ) ;
#282 = MANIFOLD_SOLID_BREP ( 'Revolve - Cutting Edge', #32 ) ;
#283 = CARTESIAN_POINT ( 'NONE',  ( 0.000000000000000000, 32.00000000000000000, 0.000000000000000000 ) ) ;
#284 = EDGE_CURVE ( 'NONE', #251, #267, #347, .T. ) ;
#285 = ORIENTED_EDGE ( 'NONE', *, *, #153, .T. ) ;
#286 = CARTESIAN_POINT ( 'NONE',  ( 9.797174393178825657E-16, 0.000000000000000000, 8.000000000000000000 ) ) ;
#287 = COLOUR_RGB ( '',1.000000000000000000, 0.000000000000000000, 0.000000000000000000 ) ;
#288 = DIRECTION ( 'NONE',  ( -0.000000000000000000, -1.000000000000000000, -0.000000000000000000 ) ) ;
#289 = VECTOR ( 'NONE', #31, 1000.000000000000000 ) ;
#290 = SHAPE_DEFINITION_REPRESENTATION ( #2, #82 ) ;
#291 = APPLICATION_PROTOCOL_DEFINITION ( 'draft international standard', 'automotive_design', 1998, #150 ) ;
#292 = COLOUR_RGB ( '',1.000000000000000000, 0.000000000000000000, 0.000000000000000000 ) ;
#293 =( LENGTH_UNIT ( ) NAMED_UNIT ( * ) SI_UNIT ( .MILLI., .METRE. ) );
#294 = VERTEX_POINT ( 'NONE', #320 ) ;
#295 = CARTESIAN_POINT ( 'NONE',  ( 0.000000000000000000, 1.000000000000000000, -7.000000000000000000 ) ) ;
#296 = EDGE_CURVE ( 'NONE', #194, #352, #8, .T. ) ;
#297 = FILL_AREA_STYLE ('',( #44 ) ) ;
#298 = DIRECTION ( 'NONE',  ( 0.000000000000000000, 0.000000000000000000, -1.000000000000000000 ) ) ;
#299 = PLANE ( 'NONE',  #186 ) ;
#300 = DIRECTION ( 'NONE',  ( -0.000000000000000000, -1.000000000000000000, -0.000000000000000000 ) ) ;
#301 = CARTESIAN_POINT ( 'NONE',  ( 8.000000000000000000, 89.00000000000000000, 0.000000000000000000 ) ) ;
#302 = CARTESIAN_POINT ( 'NONE',  ( 5.204170427930421283E-15, 32.00000000000000000, 0.000000000000000000 ) ) ;
#303 = ORIENTED_EDGE ( 'NONE', *, *, #115, .F. ) ;
#304 = SURFACE_SIDE_STYLE ('',( #51 ) ) ;
#305 = DIRECTION ( 'NONE',  ( -1.000000000000000000, 0.000000000000000000, 0.000000000000000000 ) ) ;
#306 = FILL_AREA_STYLE ('',( #45 ) ) ;
#307 =( NAMED_UNIT ( * ) SI_UNIT ( $, .STERADIAN. ) SOLID_ANGLE_UNIT ( ) );
#308 = UNCERTAINTY_MEASURE_WITH_UNIT (LENGTH_MEASURE( 1.000000000000000082E-05 ), #129, 'distance_accuracy_value', 'NONE');
#309 = PRODUCT_RELATED_PRODUCT_CATEGORY ( 'part', '', ( #209 ) ) ;
#310 = CYLINDRICAL_SURFACE ( 'NONE', #281, 8.000000000000000000 ) ;
#311 = STYLED_ITEM ( 'NONE', ( #333 ), #238 ) ;
#312 = FACE_OUTER_BOUND ( 'NONE', #265, .T. ) ;
#313 = PRESENTATION_STYLE_ASSIGNMENT (( #22 ) ) ;
#314 = EDGE_CURVE ( 'NONE', #251, #352, #40, .T. ) ;
#315 = MECHANICAL_DESIGN_GEOMETRIC_PRESENTATION_REPRESENTATION (  '', ( #6 ), #321 ) ;
#316 =( LENGTH_UNIT ( ) NAMED_UNIT ( * ) SI_UNIT ( .MILLI., .METRE. ) );
#317 = ORIENTED_EDGE ( 'NONE', *, *, #145, .F. ) ;
#318 =( NAMED_UNIT ( * ) SI_UNIT ( $, .STERADIAN. ) SOLID_ANGLE_UNIT ( ) );
#319 = VERTEX_POINT ( 'NONE', #42 ) ;
#320 = CARTESIAN_POINT ( 'NONE',  ( -8.000000000000003553, 89.00000000000000000, 0.000000000000000000 ) ) ;
#321 =( GEOMETRIC_REPRESENTATION_CONTEXT ( 3 ) GLOBAL_UNCERTAINTY_ASSIGNED_CONTEXT ( ( #250 ) ) GLOBAL_UNIT_ASSIGNED_CONTEXT ( ( #113, #278, #117 ) ) REPRESENTATION_CONTEXT ( 'NONE', 'WORKASPACE' ) );
#322 = CARTESIAN_POINT ( 'NONE',  ( 0.000000000000000000, 32.00000000000000000, 0.000000000000000000 ) ) ;
#323 = ADVANCED_FACE ( 'NONE', ( #182 ), #9, .T. ) ;
#324 = CIRCLE ( 'NONE', #69, 8.000000000000001776 ) ;
#325 = CARTESIAN_POINT ( 'NONE',  ( 0.000000000000000000, 0.000000000000000000, 0.000000000000000000 ) ) ;
#326 = ORIENTED_EDGE ( 'NONE', *, *, #211, .T. ) ;
#327 = CARTESIAN_POINT ( 'NONE',  ( -8.000000000000000000, 89.00000000000000000, 0.000000000000000000 ) ) ;
#328 = FACE_OUTER_BOUND ( 'NONE', #41, .T. ) ;
#329 = CIRCLE ( 'NONE', #120, 7.999999999999994671 ) ;
#330 = AXIS2_PLACEMENT_3D ( 'NONE', #177, #96, #66 ) ;
#331 = DIRECTION ( 'NONE',  ( -1.224646799147353454E-16, 0.000000000000000000, -1.000000000000000000 ) ) ;
#332 = DIRECTION ( 'NONE',  ( 0.000000000000000000, 0.000000000000000000, -1.000000000000000000 ) ) ;
#333 = PRESENTATION_STYLE_ASSIGNMENT (( #160 ) ) ;
#334 = EDGE_CURVE ( 'NONE', #4, #181, #364, .T. ) ;
#335 = DIRECTION ( 'NONE',  ( -0.000000000000000000, -1.000000000000000000, -0.000000000000000000 ) ) ;
#336 = PRESENTATION_LAYER_ASSIGNMENT (  '', '', ( #126 ) ) ;
#337 = MECHANICAL_DESIGN_GEOMETRIC_PRESENTATION_REPRESENTATION (  '', ( #311 ), #340 ) ;
#338 = FILL_AREA_STYLE ('',( #112 ) ) ;
#339 =( GEOMETRIC_REPRESENTATION_CONTEXT ( 3 ) GLOBAL_UNCERTAINTY_ASSIGNED_CONTEXT ( ( #142 ) ) GLOBAL_UNIT_ASSIGNED_CONTEXT ( ( #260, #71, #349 ) ) REPRESENTATION_CONTEXT ( 'NONE', 'WORKASPACE' ) );
#340 =( GEOMETRIC_REPRESENTATION_CONTEXT ( 3 ) GLOBAL_UNCERTAINTY_ASSIGNED_CONTEXT ( ( #136 ) ) GLOBAL_UNIT_ASSIGNED_CONTEXT ( ( #273, #249, #359 ) ) REPRESENTATION_CONTEXT ( 'NONE', 'WORKASPACE' ) );
#341 = SURFACE_STYLE_FILL_AREA ( #338 ) ;
#342 = DIRECTION ( 'NONE',  ( -1.000000000000000000, 0.000000000000000000, 0.000000000000000000 ) ) ;
#343 = SURFACE_STYLE_FILL_AREA ( #368 ) ;
#344 = DIRECTION ( 'NONE',  ( -0.000000000000000000, -1.000000000000000000, -0.000000000000000000 ) ) ;
#345 = ORIENTED_EDGE ( 'NONE', *, *, #47, .T. ) ;
#346 = CARTESIAN_POINT ( 'NONE',  ( 5.204170427930421283E-15, 32.00000000000000000, 0.000000000000000000 ) ) ;
#347 = CIRCLE ( 'NONE', #248, 8.000000000000000000 ) ;
#348 = AXIS2_PLACEMENT_3D ( 'NONE', #151, #184, #342 ) ;
#349 =( NAMED_UNIT ( * ) SI_UNIT ( $, .STERADIAN. ) SOLID_ANGLE_UNIT ( ) );
#350 = ORIENTED_EDGE ( 'NONE', *, *, #108, .T. ) ;
#351 = AXIS2_PLACEMENT_3D ( 'NONE', #80, #335, #170 ) ;
#352 = VERTEX_POINT ( 'NONE', #233 ) ;
#353 =( NAMED_UNIT ( * ) PLANE_ANGLE_UNIT ( ) SI_UNIT ( $, .RADIAN. ) );
#354 = CARTESIAN_POINT ( 'NONE',  ( -1.714505518806293652E-15, 89.00000000000000000, 0.000000000000000000 ) ) ;
#355 = FILL_AREA_STYLE ('',( #244 ) ) ;
#356 = FILL_AREA_STYLE_COLOUR ( '', #257 ) ;
#357 = PRESENTATION_LAYER_ASSIGNMENT (  '', '', ( #193 ) ) ;
#358 = UNCERTAINTY_MEASURE_WITH_UNIT (LENGTH_MEASURE( 1.000000000000000082E-05 ), #366, 'distance_accuracy_value', 'NONE');
#359 =( NAMED_UNIT ( * ) SI_UNIT ( $, .STERADIAN. ) SOLID_ANGLE_UNIT ( ) );
#360 = FILL_AREA_STYLE ('',( #224 ) ) ;
#361 = DIRECTION ( 'NONE',  ( -1.000000000000000000, 0.000000000000000000, 0.000000000000000000 ) ) ;
#362 =( NAMED_UNIT ( * ) PLANE_ANGLE_UNIT ( ) SI_UNIT ( $, .RADIAN. ) );
#363 = MECHANICAL_DESIGN_GEOMETRIC_PRESENTATION_REPRESENTATION (  '', ( #159 ), #148 ) ;
#364 = CIRCLE ( 'NONE', #168, 7.999999999999994671 ) ;
#365 = PRESENTATION_STYLE_ASSIGNMENT (( #230 ) ) ;
#366 =( LENGTH_UNIT ( ) NAMED_UNIT ( * ) SI_UNIT ( .MILLI., .METRE. ) );
#367 = CARTESIAN_POINT ( 'NONE',  ( -1.714505518806293652E-15, 89.00000000000000000, 0.000000000000000000 ) ) ;
#368 = FILL_AREA_STYLE ('',( #256 ) ) ;
#369 = COLOUR_RGB ( '',1.000000000000000000, 0.000000000000000000, 0.000000000000000000 ) ;
#370 = COLOUR_RGB ( '',1.000000000000000000, 0.000000000000000000, 0.000000000000000000 ) ;
ENDSEC;
END-ISO-10303-21;
