ISO-10303-21;
HEADER;
FILE_DESCRIPTION (( 'STEP AP214' ),
    '1' );
FILE_NAME ('84788.STEP',
    '2023-07-05T16:28:33',
    ( '' ),
    ( '' ),
    'SwSTEP 2.0',
    'SolidWorks 2023',
    '' );
FILE_SCHEMA (( 'AUTOMOTIVE_DESIGN' ));
ENDSEC;

DATA;
#1 = DIRECTION ( 'NONE',  ( -1.479148523824648137E-16, 1.000000000000000000, -0.000000000000000000 ) ) ;
#2 = COLOUR_RGB ( '',1.000000000000000000, 0.000000000000000000, 0.000000000000000000 ) ;
#3 = CIRCLE ( 'NONE', #62, 0.3749999999999998890 ) ;
#4 = SURFACE_STYLE_USAGE ( .BOTH. , #128 ) ;
#5 = CIRCLE ( 'NONE', #182, 0.3749999999999996114 ) ;
#6 =( LENGTH_UNIT ( ) NAMED_UNIT ( * ) SI_UNIT ( $, .METRE. ) );
#7 = SURFACE_STYLE_FILL_AREA ( #29 ) ;
#8 = DIRECTION ( 'NONE',  ( 0.000000000000000000, 1.000000000000000000, 0.000000000000000000 ) ) ;
#9 = DIRECTION ( 'NONE',  ( 1.000000000000000000, 1.479148523824648137E-16, 0.000000000000000000 ) ) ;
#10 = CONICAL_SURFACE ( 'NONE', #260, 22.73032555864674009, 0.5235987755982999259 ) ;
#11 = DIRECTION ( 'NONE',  ( -1.479148523824648137E-16, 1.000000000000000000, -0.000000000000000000 ) ) ;
#12 =( CONVERSION_BASED_UNIT ( 'INCH', #259 ) LENGTH_UNIT ( ) NAMED_UNIT ( #166 ) );
#13 = CIRCLE ( 'NONE', #262, 0.3749999999999999445 ) ;
#14 = AXIS2_PLACEMENT_3D ( 'NONE', #64, #1, #185 ) ;
#15 = SURFACE_STYLE_FILL_AREA ( #111 ) ;
#16 = DIRECTION ( 'NONE',  ( 0.000000000000000000, 1.000000000000000000, 0.000000000000000000 ) ) ;
#17 = ORIENTED_EDGE ( 'NONE', *, *, #106, .F. ) ;
#18 = UNCERTAINTY_MEASURE_WITH_UNIT (LENGTH_MEASURE( 1.000000000000000082E-05 ), #47, 'distance_accuracy_value', 'NONE');
#19 = PRESENTATION_LAYER_ASSIGNMENT (  '', '', ( #132 ) ) ;
#20 = DIRECTION ( 'NONE',  ( -1.479148523824648137E-16, 1.000000000000000000, -0.000000000000000000 ) ) ;
#21 = ORIENTED_EDGE ( 'NONE', *, *, #243, .F. ) ;
#22 = CARTESIAN_POINT ( 'NONE',  ( 0.000000000000000000, 0.000000000000000000, 0.000000000000000000 ) ) ;
#23 = FACE_OUTER_BOUND ( 'NONE', #57, .T. ) ;
#24 = COLOUR_RGB ( '',1.000000000000000000, 0.000000000000000000, 0.000000000000000000 ) ;
#25 = ADVANCED_FACE ( 'NONE', ( #36 ), #171, .F. ) ;
#26 =( NAMED_UNIT ( * ) SI_UNIT ( $, .STERADIAN. ) SOLID_ANGLE_UNIT ( ) );
#27 = DIRECTION ( 'NONE',  ( -1.479148523824648137E-16, 1.000000000000000000, -0.000000000000000000 ) ) ;
#28 =( GEOMETRIC_REPRESENTATION_CONTEXT ( 3 ) GLOBAL_UNCERTAINTY_ASSIGNED_CONTEXT ( ( #234 ) ) GLOBAL_UNIT_ASSIGNED_CONTEXT ( ( #12, #190, #32 ) ) REPRESENTATION_CONTEXT ( 'NONE', 'WORKASPACE' ) );
#29 = FILL_AREA_STYLE ('',( #230 ) ) ;
#30 = SURFACE_STYLE_USAGE ( .BOTH. , #76 ) ;
#31 = APPLICATION_CONTEXT ( 'automotive_design' ) ;
#32 =( NAMED_UNIT ( * ) SI_UNIT ( $, .STERADIAN. ) SOLID_ANGLE_UNIT ( ) );
#33 =( GEOMETRIC_REPRESENTATION_CONTEXT ( 3 ) GLOBAL_UNCERTAINTY_ASSIGNED_CONTEXT ( ( #18 ) ) GLOBAL_UNIT_ASSIGNED_CONTEXT ( ( #47, #205, #150 ) ) REPRESENTATION_CONTEXT ( 'NONE', 'WORKASPACE' ) );
#34 = PRESENTATION_STYLE_ASSIGNMENT (( #30 ) ) ;
#35 = SURFACE_STYLE_FILL_AREA ( #238 ) ;
#36 = FACE_OUTER_BOUND ( 'NONE', #43, .T. ) ;
#37 = DIRECTION ( 'NONE',  ( -0.000000000000000000, -1.000000000000000000, -0.000000000000000000 ) ) ;
#38 = CARTESIAN_POINT ( 'NONE',  ( 0.3749999999999998890, 3.000000000000000444, 0.000000000000000000 ) ) ;
#39 = LINE ( 'NONE', #159, #167 ) ;
#40 = UNCERTAINTY_MEASURE_WITH_UNIT (LENGTH_MEASURE( 1.000000000000000082E-05 ), #198, 'distance_accuracy_value', 'NONE');
#41 = ORIENTED_EDGE ( 'NONE', *, *, #199, .F. ) ;
#42 =( NAMED_UNIT ( * ) PLANE_ANGLE_UNIT ( ) SI_UNIT ( $, .RADIAN. ) );
#43 = EDGE_LOOP ( 'NONE', ( #21, #134 ) ) ;
#44 =( LENGTH_UNIT ( ) NAMED_UNIT ( * ) SI_UNIT ( $, .METRE. ) );
#45 = MANIFOLD_SOLID_BREP ( 'Revolve - Cutting Edge', #249 ) ;
#46 = PRESENTATION_LAYER_ASSIGNMENT (  '', '', ( #177 ) ) ;
#47 =( CONVERSION_BASED_UNIT ( 'INCH', #127 ) LENGTH_UNIT ( ) NAMED_UNIT ( #104 ) );
#48 = CARTESIAN_POINT ( 'NONE',  ( -6.123233995736770966E-17, 3.000000000000000444, 0.000000000000000000 ) ) ;
#49 = MECHANICAL_DESIGN_GEOMETRIC_PRESENTATION_REPRESENTATION (  '', ( #141 ), #28 ) ;
#50 =( CONVERSION_BASED_UNIT ( 'INCH', #135 ) LENGTH_UNIT ( ) NAMED_UNIT ( #99 ) );
#51 = CARTESIAN_POINT ( 'NONE',  ( 0.000000000000000000, 39.37007874015748143, 0.000000000000000000 ) ) ;
#52 = FILL_AREA_STYLE_COLOUR ( '', #2 ) ;
#53 = DIRECTION ( 'NONE',  ( -1.479148523824648137E-16, 1.000000000000000000, -0.000000000000000000 ) ) ;
#54 = CONICAL_SURFACE ( 'NONE', #71, 22.73032555864674009, 0.5235987755982999259 ) ;
#55 =( LENGTH_UNIT ( ) NAMED_UNIT ( * ) SI_UNIT ( $, .METRE. ) );
#56 = ADVANCED_FACE ( 'NONE', ( #235 ), #10, .T. ) ;
#57 = EDGE_LOOP ( 'NONE', ( #115, #84, #184, #17 ) ) ;
#58 = CARTESIAN_POINT ( 'NONE',  ( 2.864387023698472327E-16, 0.6495190528383271156, 0.000000000000000000 ) ) ;
#59 = DIRECTION ( 'NONE',  ( 0.000000000000000000, 0.000000000000000000, 1.000000000000000000 ) ) ;
#60 = AXIS2_PLACEMENT_3D ( 'NONE', #209, #252, #93 ) ;
#61 = EDGE_LOOP ( 'NONE', ( #226, #118, #140, #138 ) ) ;
#62 = AXIS2_PLACEMENT_3D ( 'NONE', #139, #37, #63 ) ;
#63 = DIRECTION ( 'NONE',  ( 0.000000000000000000, 0.000000000000000000, -1.000000000000000000 ) ) ;
#64 = CARTESIAN_POINT ( 'NONE',  ( -6.123233995736772199E-17, 3.000000000000000444, 0.000000000000000000 ) ) ;
#65 = PRODUCT_DEFINITION_CONTEXT ( 'detailed design', #244, 'design' ) ;
#66 = DIRECTION ( 'NONE',  ( 6.123233995736777129E-17, 0.8660254037844380415, -0.5000000000000008882 ) ) ;
#67 = DIRECTION ( 'NONE',  ( 0.000000000000000000, 0.000000000000000000, -1.000000000000000000 ) ) ;
#68 = VECTOR ( 'NONE', #53, 39.37007874015748143 ) ;
#69 =( CONVERSION_BASED_UNIT ( 'INCH', #253 ) LENGTH_UNIT ( ) NAMED_UNIT ( #180 ) );
#70 = MECHANICAL_DESIGN_GEOMETRIC_PRESENTATION_REPRESENTATION (  '', ( #177 ), #192 ) ;
#71 = AXIS2_PLACEMENT_3D ( 'NONE', #156, #8, #174 ) ;
#72 = UNCERTAINTY_MEASURE_WITH_UNIT (LENGTH_MEASURE( 1.000000000000000082E-05 ), #261, 'distance_accuracy_value', 'NONE');
#73 = CARTESIAN_POINT ( 'NONE',  ( -0.3749999999999993339, 0.6495190528383271156, 0.000000000000000000 ) ) ;
#74 = CARTESIAN_POINT ( 'NONE',  ( 0.000000000000000000, 0.6495190528383271156, 0.000000000000000000 ) ) ;
#75 = DIRECTION ( 'NONE',  ( 0.000000000000000000, 1.000000000000000000, 0.000000000000000000 ) ) ;
#76 = SURFACE_SIDE_STYLE ('',( #15 ) ) ;
#77 = VECTOR ( 'NONE', #187, 39.37007874015748143 ) ;
#78 =( GEOMETRIC_REPRESENTATION_CONTEXT ( 3 ) GLOBAL_UNCERTAINTY_ASSIGNED_CONTEXT ( ( #40 ) ) GLOBAL_UNIT_ASSIGNED_CONTEXT ( ( #198, #42, #89 ) ) REPRESENTATION_CONTEXT ( 'NONE', 'WORKASPACE' ) );
#79 = ORIENTED_EDGE ( 'NONE', *, *, #106, .T. ) ;
#80 = FACE_OUTER_BOUND ( 'NONE', #246, .T. ) ;
#81 =( NAMED_UNIT ( * ) PLANE_ANGLE_UNIT ( ) SI_UNIT ( $, .RADIAN. ) );
#82 = CARTESIAN_POINT ( 'NONE',  ( 4.592425496802572370E-17, 0.6495190528383271156, -0.3749999999999998335 ) ) ;
#83 = VERTEX_POINT ( 'NONE', #136 ) ;
#84 = ORIENTED_EDGE ( 'NONE', *, *, #173, .T. ) ;
#85 = ADVANCED_FACE ( 'NONE', ( #221 ), #175, .F. ) ;
#86 = CARTESIAN_POINT ( 'NONE',  ( 0.000000000000000000, 0.000000000000000000, 0.000000000000000000 ) ) ;
#87 = ORIENTED_EDGE ( 'NONE', *, *, #116, .F. ) ;
#88 = SURFACE_SIDE_STYLE ('',( #168 ) ) ;
#89 =( NAMED_UNIT ( * ) SI_UNIT ( $, .STERADIAN. ) SOLID_ANGLE_UNIT ( ) );
#90 =( GEOMETRIC_REPRESENTATION_CONTEXT ( 3 ) GLOBAL_UNCERTAINTY_ASSIGNED_CONTEXT ( ( #72 ) ) GLOBAL_UNIT_ASSIGNED_CONTEXT ( ( #261, #81, #109 ) ) REPRESENTATION_CONTEXT ( 'NONE', 'WORKASPACE' ) );
#91 = PRESENTATION_STYLE_ASSIGNMENT (( #4 ) ) ;
#92 = PRODUCT_DEFINITION_SHAPE ( 'NONE', 'NONE',  #110 ) ;
#93 = DIRECTION ( 'NONE',  ( -1.000000000000000000, -1.479148523824648137E-16, 0.000000000000000000 ) ) ;
#94 = CARTESIAN_POINT ( 'NONE',  ( 0.000000000000000000, 0.6495190528383271156, 0.000000000000000000 ) ) ;
#95 = CLOSED_SHELL ( 'NONE', ( #215, #25, #254, #85 ) ) ;
#96 = CARTESIAN_POINT ( 'NONE',  ( -0.3750000000000000555, 3.000000000000000444, 0.000000000000000000 ) ) ;
#97 = UNCERTAINTY_MEASURE_WITH_UNIT (LENGTH_MEASURE( 1.000000000000000082E-05 ), #50, 'distance_accuracy_value', 'NONE');
#98 = DIRECTION ( 'NONE',  ( -1.000000000000000000, 0.000000000000000000, 0.000000000000000000 ) ) ;
#99 = DIMENSIONAL_EXPONENTS ( 1.000000000000000000, 0.000000000000000000, 0.000000000000000000, 0.000000000000000000, 0.000000000000000000, 0.000000000000000000, 0.000000000000000000 ) ;
#100 = VERTEX_POINT ( 'NONE', #96 ) ;
#101 = ORIENTED_EDGE ( 'NONE', *, *, #124, .T. ) ;
#102 = CYLINDRICAL_SURFACE ( 'NONE', #264, 0.3749999999999998335 ) ;
#103 = COLOUR_RGB ( '',1.000000000000000000, 0.000000000000000000, 0.000000000000000000 ) ;
#104 = DIMENSIONAL_EXPONENTS ( 1.000000000000000000, 0.000000000000000000, 0.000000000000000000, 0.000000000000000000, 0.000000000000000000, 0.000000000000000000, 0.000000000000000000 ) ;
#105 = EDGE_CURVE ( 'NONE', #183, #162, #142, .T. ) ;
#106 = EDGE_CURVE ( 'NONE', #83, #100, #13, .T. ) ;
#107 = ADVANCED_BREP_SHAPE_REPRESENTATION ( '84788', ( #45, #126, #193 ), #78 ) ;
#108 = CARTESIAN_POINT ( 'NONE',  ( 2.864387023698472327E-16, 0.6495190528383271156, 0.000000000000000000 ) ) ;
#109 =( NAMED_UNIT ( * ) SI_UNIT ( $, .STERADIAN. ) SOLID_ANGLE_UNIT ( ) );
#110 = PRODUCT_DEFINITION ( 'UNKNOWN', '', #189, #65 ) ;
#111 = FILL_AREA_STYLE ('',( #213 ) ) ;
#112 = PRESENTATION_STYLE_ASSIGNMENT (( #214 ) ) ;
#113 =( NAMED_UNIT ( * ) SI_UNIT ( $, .STERADIAN. ) SOLID_ANGLE_UNIT ( ) );
#114 = PRESENTATION_LAYER_ASSIGNMENT (  '', '', ( #160 ) ) ;
#115 = ORIENTED_EDGE ( 'NONE', *, *, #148, .F. ) ;
#116 = EDGE_CURVE ( 'NONE', #218, #183, #204, .T. ) ;
#117 = CARTESIAN_POINT ( 'NONE',  ( -6.123233995736772199E-17, 3.000000000000000444, 0.000000000000000000 ) ) ;
#118 = ORIENTED_EDGE ( 'NONE', *, *, #148, .T. ) ;
#119 = DIRECTION ( 'NONE',  ( -1.000000000000000000, 0.000000000000000000, 0.000000000000000000 ) ) ;
#120 = COLOUR_RGB ( '',0.7921568627450980005, 0.8196078431372548767, 0.9333333333333333481 ) ;
#121 = VERTEX_POINT ( 'NONE', #207 ) ;
#122 =( GEOMETRIC_REPRESENTATION_CONTEXT ( 3 ) GLOBAL_UNCERTAINTY_ASSIGNED_CONTEXT ( ( #97 ) ) GLOBAL_UNIT_ASSIGNED_CONTEXT ( ( #50, #217, #113 ) ) REPRESENTATION_CONTEXT ( 'NONE', 'WORKASPACE' ) );
#123 = DIRECTION ( 'NONE',  ( 0.000000000000000000, 0.000000000000000000, 1.000000000000000000 ) ) ;
#124 = EDGE_CURVE ( 'NONE', #100, #83, #165, .T. ) ;
#125 = DIRECTION ( 'NONE',  ( -1.000000000000000000, 0.000000000000000000, 0.000000000000000000 ) ) ;
#126 = MANIFOLD_SOLID_BREP ( 'Revolve - Tool Body (Pointed)', #95 ) ;
#127 = LENGTH_MEASURE_WITH_UNIT ( LENGTH_MEASURE( 0.02539999999999999897 ), #233 );
#128 = SURFACE_SIDE_STYLE ('',( #186 ) ) ;
#129 =( LENGTH_UNIT ( ) NAMED_UNIT ( * ) SI_UNIT ( $, .METRE. ) );
#130 = LENGTH_MEASURE_WITH_UNIT ( LENGTH_MEASURE( 0.02539999999999999897 ), #242 );
#131 = FACE_OUTER_BOUND ( 'NONE', #228, .T. ) ;
#132 = STYLED_ITEM ( 'NONE', ( #34 ), #176 ) ;
#133 = PRESENTATION_STYLE_ASSIGNMENT (( #258 ) ) ;
#134 = ORIENTED_EDGE ( 'NONE', *, *, #173, .F. ) ;
#135 = LENGTH_MEASURE_WITH_UNIT ( LENGTH_MEASURE( 0.02539999999999999897 ), #55 );
#136 = CARTESIAN_POINT ( 'NONE',  ( 0.3749999999999998890, 3.000000000000000444, 4.592425496802572986E-17 ) ) ;
#137 = MECHANICAL_DESIGN_GEOMETRIC_PRESENTATION_REPRESENTATION (  '', ( #160 ), #90 ) ;
#138 = ORIENTED_EDGE ( 'NONE', *, *, #164, .F. ) ;
#139 = CARTESIAN_POINT ( 'NONE',  ( 0.000000000000000000, 0.6495190528383271156, 0.000000000000000000 ) ) ;
#140 = ORIENTED_EDGE ( 'NONE', *, *, #124, .F. ) ;
#141 = STYLED_ITEM ( 'NONE', ( #133 ), #152 ) ;
#142 = CIRCLE ( 'NONE', #196, 0.3749999999999998890 ) ;
#143 = FILL_AREA_STYLE_COLOUR ( '', #229 ) ;
#144 = MECHANICAL_DESIGN_GEOMETRIC_PRESENTATION_REPRESENTATION (  '', ( #188 ), #33 ) ;
#145 = LINE ( 'NONE', #210, #219 ) ;
#146 = SURFACE_STYLE_USAGE ( .BOTH. , #255 ) ;
#147 = CARTESIAN_POINT ( 'NONE',  ( -6.123233995736770966E-17, 3.000000000000000444, 0.000000000000000000 ) ) ;
#148 = EDGE_CURVE ( 'NONE', #121, #83, #145, .T. ) ;
#149 = PRESENTATION_LAYER_ASSIGNMENT (  '', '', ( #141 ) ) ;
#150 =( NAMED_UNIT ( * ) SI_UNIT ( $, .STERADIAN. ) SOLID_ANGLE_UNIT ( ) );
#151 = LINE ( 'NONE', #194, #68 ) ;
#152 = ADVANCED_FACE ( 'NONE', ( #131 ), #237, .T. ) ;
#153 = SURFACE_SIDE_STYLE ('',( #35 ) ) ;
#154 = AXIS2_PLACEMENT_3D ( 'NONE', #147, #231, #172 ) ;
#155 = EDGE_LOOP ( 'NONE', ( #101, #79 ) ) ;
#156 = CARTESIAN_POINT ( 'NONE',  ( 0.000000000000000000, 39.37007874015748143, 0.000000000000000000 ) ) ;
#157 = ORIENTED_EDGE ( 'NONE', *, *, #116, .T. ) ;
#158 = DIRECTION ( 'NONE',  ( -1.000000000000000000, 0.000000000000000000, 0.000000000000000000 ) ) ;
#159 = CARTESIAN_POINT ( 'NONE',  ( 0.000000000000000000, 0.000000000000000000, 0.000000000000000000 ) ) ;
#160 = STYLED_ITEM ( 'NONE', ( #112 ), #56 ) ;
#161 = ORIENTED_EDGE ( 'NONE', *, *, #206, .F. ) ;
#162 = VERTEX_POINT ( 'NONE', #82 ) ;
#163 = PRODUCT_CONTEXT ( 'NONE', #31, 'mechanical' ) ;
#164 = EDGE_CURVE ( 'NONE', #197, #100, #151, .T. ) ;
#165 = CIRCLE ( 'NONE', #154, 0.3749999999999999445 ) ;
#166 = DIMENSIONAL_EXPONENTS ( 1.000000000000000000, 0.000000000000000000, 0.000000000000000000, 0.000000000000000000, 0.000000000000000000, 0.000000000000000000, 0.000000000000000000 ) ;
#167 = VECTOR ( 'NONE', #66, 39.37007874015748143 ) ;
#168 = SURFACE_STYLE_FILL_AREA ( #265 ) ;
#169 = CARTESIAN_POINT ( 'NONE',  ( 0.000000000000000000, 0.000000000000000000, 0.000000000000000000 ) ) ;
#170 = AXIS2_PLACEMENT_3D ( 'NONE', #108, #11, #98 ) ;
#171 = PLANE ( 'NONE',  #60 ) ;
#172 = DIRECTION ( 'NONE',  ( -1.000000000000000000, 0.000000000000000000, 0.000000000000000000 ) ) ;
#173 = EDGE_CURVE ( 'NONE', #121, #197, #212, .T. ) ;
#174 = DIRECTION ( 'NONE',  ( 0.000000000000000000, 0.000000000000000000, 1.000000000000000000 ) ) ;
#175 = PLANE ( 'NONE',  #245 ) ;
#176 = ADVANCED_FACE ( 'NONE', ( #80 ), #54, .T. ) ;
#177 = STYLED_ITEM ( 'NONE', ( #91 ), #126 ) ;
#178 = UNCERTAINTY_MEASURE_WITH_UNIT (LENGTH_MEASURE( 1.000000000000000082E-05 ), #69, 'distance_accuracy_value', 'NONE');
#179 = EDGE_LOOP ( 'NONE', ( #161, #157, #201 ) ) ;
#180 = DIMENSIONAL_EXPONENTS ( 1.000000000000000000, 0.000000000000000000, 0.000000000000000000, 0.000000000000000000, 0.000000000000000000, 0.000000000000000000, 0.000000000000000000 ) ;
#181 = AXIS2_PLACEMENT_3D ( 'NONE', #94, #75, #195 ) ;
#182 = AXIS2_PLACEMENT_3D ( 'NONE', #58, #223, #158 ) ;
#183 = VERTEX_POINT ( 'NONE', #256 ) ;
#184 = ORIENTED_EDGE ( 'NONE', *, *, #164, .T. ) ;
#185 = DIRECTION ( 'NONE',  ( -1.000000000000000000, 0.000000000000000000, 0.000000000000000000 ) ) ;
#186 = SURFACE_STYLE_FILL_AREA ( #232 ) ;
#187 = DIRECTION ( 'NONE',  ( 0.000000000000000000, 0.8660254037844380415, 0.5000000000000008882 ) ) ;
#188 = STYLED_ITEM ( 'NONE', ( #250 ), #45 ) ;
#189 = PRODUCT_DEFINITION_FORMATION_WITH_SPECIFIED_SOURCE ( 'ANY', '', #257, .NOT_KNOWN. ) ;
#190 =( NAMED_UNIT ( * ) PLANE_ANGLE_UNIT ( ) SI_UNIT ( $, .RADIAN. ) );
#191 = DIRECTION ( 'NONE',  ( 1.479148523824648137E-16, -1.000000000000000000, 0.000000000000000000 ) ) ;
#192 =( GEOMETRIC_REPRESENTATION_CONTEXT ( 3 ) GLOBAL_UNCERTAINTY_ASSIGNED_CONTEXT ( ( #178 ) ) GLOBAL_UNIT_ASSIGNED_CONTEXT ( ( #69, #208, #26 ) ) REPRESENTATION_CONTEXT ( 'NONE', 'WORKASPACE' ) );
#193 = AXIS2_PLACEMENT_3D ( 'NONE', #22, #123, #227 ) ;
#194 = CARTESIAN_POINT ( 'NONE',  ( -0.3749999999999998890, 3.000000000000000444, 0.000000000000000000 ) ) ;
#195 = DIRECTION ( 'NONE',  ( 0.000000000000000000, -0.000000000000000000, 1.000000000000000000 ) ) ;
#196 = AXIS2_PLACEMENT_3D ( 'NONE', #74, #225, #67 ) ;
#197 = VERTEX_POINT ( 'NONE', #73 ) ;
#198 =( CONVERSION_BASED_UNIT ( 'INCH', #203 ) LENGTH_UNIT ( ) NAMED_UNIT ( #239 ) );
#199 = EDGE_CURVE ( 'NONE', #162, #183, #3, .T. ) ;
#200 = MECHANICAL_DESIGN_GEOMETRIC_PRESENTATION_REPRESENTATION (  '', ( #132 ), #122 ) ;
#201 = ORIENTED_EDGE ( 'NONE', *, *, #105, .T. ) ;
#202 = DIMENSIONAL_EXPONENTS ( 1.000000000000000000, 0.000000000000000000, 0.000000000000000000, 0.000000000000000000, 0.000000000000000000, 0.000000000000000000, 0.000000000000000000 ) ;
#203 = LENGTH_MEASURE_WITH_UNIT ( LENGTH_MEASURE( 0.02539999999999999897 ), #44 );
#204 = LINE ( 'NONE', #169, #77 ) ;
#205 =( NAMED_UNIT ( * ) PLANE_ANGLE_UNIT ( ) SI_UNIT ( $, .RADIAN. ) );
#206 = EDGE_CURVE ( 'NONE', #218, #162, #39, .T. ) ;
#207 = CARTESIAN_POINT ( 'NONE',  ( 0.3749999999999998890, 0.6495190528383271156, 4.592425496802572986E-17 ) ) ;
#208 =( NAMED_UNIT ( * ) PLANE_ANGLE_UNIT ( ) SI_UNIT ( $, .RADIAN. ) );
#209 = CARTESIAN_POINT ( 'NONE',  ( 2.864387023698472327E-16, 0.6495190528383271156, 0.000000000000000000 ) ) ;
#210 = CARTESIAN_POINT ( 'NONE',  ( 0.3749999999999997780, 3.000000000000000444, 4.592425496802572370E-17 ) ) ;
#211 = FILL_AREA_STYLE_COLOUR ( '', #24 ) ;
#212 = CIRCLE ( 'NONE', #170, 0.3749999999999996114 ) ;
#213 = FILL_AREA_STYLE_COLOUR ( '', #103 ) ;
#214 = SURFACE_STYLE_USAGE ( .BOTH. , #88 ) ;
#215 = ADVANCED_FACE ( 'NONE', ( #247 ), #263, .T. ) ;
#216 = ORIENTED_EDGE ( 'NONE', *, *, #199, .T. ) ;
#217 =( NAMED_UNIT ( * ) PLANE_ANGLE_UNIT ( ) SI_UNIT ( $, .RADIAN. ) );
#218 = VERTEX_POINT ( 'NONE', #86 ) ;
#219 = VECTOR ( 'NONE', #236, 39.37007874015748143 ) ;
#220 = APPLICATION_PROTOCOL_DEFINITION ( 'draft international standard', 'automotive_design', 1998, #31 ) ;
#221 = FACE_OUTER_BOUND ( 'NONE', #155, .T. ) ;
#222 = ORIENTED_EDGE ( 'NONE', *, *, #206, .T. ) ;
#223 = DIRECTION ( 'NONE',  ( -1.479148523824648137E-16, 1.000000000000000000, -0.000000000000000000 ) ) ;
#224 = PRODUCT_RELATED_PRODUCT_CATEGORY ( 'part', '', ( #257 ) ) ;
#225 = DIRECTION ( 'NONE',  ( -0.000000000000000000, -1.000000000000000000, -0.000000000000000000 ) ) ;
#226 = ORIENTED_EDGE ( 'NONE', *, *, #243, .T. ) ;
#227 = DIRECTION ( 'NONE',  ( 1.000000000000000000, 0.000000000000000000, 0.000000000000000000 ) ) ;
#228 = EDGE_LOOP ( 'NONE', ( #240, #41 ) ) ;
#229 = COLOUR_RGB ( '',0.7921568627450980005, 0.8196078431372548767, 0.9333333333333333481 ) ;
#230 = FILL_AREA_STYLE_COLOUR ( '', #120 ) ;
#231 = DIRECTION ( 'NONE',  ( -1.479148523824648137E-16, 1.000000000000000000, -0.000000000000000000 ) ) ;
#232 = FILL_AREA_STYLE ('',( #143 ) ) ;
#233 =( LENGTH_UNIT ( ) NAMED_UNIT ( * ) SI_UNIT ( $, .METRE. ) );
#234 = UNCERTAINTY_MEASURE_WITH_UNIT (LENGTH_MEASURE( 1.000000000000000082E-05 ), #12, 'distance_accuracy_value', 'NONE');
#235 = FACE_OUTER_BOUND ( 'NONE', #179, .T. ) ;
#236 = DIRECTION ( 'NONE',  ( -1.479148523824648137E-16, 1.000000000000000000, -0.000000000000000000 ) ) ;
#237 = PLANE ( 'NONE',  #181 ) ;
#238 = FILL_AREA_STYLE ('',( #52 ) ) ;
#239 = DIMENSIONAL_EXPONENTS ( 1.000000000000000000, 0.000000000000000000, 0.000000000000000000, 0.000000000000000000, 0.000000000000000000, 0.000000000000000000, 0.000000000000000000 ) ;
#240 = ORIENTED_EDGE ( 'NONE', *, *, #105, .F. ) ;
#241 = APPLICATION_PROTOCOL_DEFINITION ( 'draft international standard', 'automotive_design', 1998, #244 ) ;
#242 =( LENGTH_UNIT ( ) NAMED_UNIT ( * ) SI_UNIT ( $, .METRE. ) );
#243 = EDGE_CURVE ( 'NONE', #197, #121, #5, .T. ) ;
#244 = APPLICATION_CONTEXT ( 'automotive_design' ) ;
#245 = AXIS2_PLACEMENT_3D ( 'NONE', #38, #191, #9 ) ;
#246 = EDGE_LOOP ( 'NONE', ( #87, #222, #216 ) ) ;
#247 = FACE_OUTER_BOUND ( 'NONE', #61, .T. ) ;
#248 = SHAPE_DEFINITION_REPRESENTATION ( #92, #107 ) ;
#249 = CLOSED_SHELL ( 'NONE', ( #176, #152, #56 ) ) ;
#250 = PRESENTATION_STYLE_ASSIGNMENT (( #146 ) ) ;
#251 = PRESENTATION_LAYER_ASSIGNMENT (  '', '', ( #188 ) ) ;
#252 = DIRECTION ( 'NONE',  ( -1.479148523824648137E-16, 1.000000000000000000, 0.000000000000000000 ) ) ;
#253 = LENGTH_MEASURE_WITH_UNIT ( LENGTH_MEASURE( 0.02539999999999999897 ), #6 );
#254 = ADVANCED_FACE ( 'NONE', ( #23 ), #102, .T. ) ;
#255 = SURFACE_SIDE_STYLE ('',( #7 ) ) ;
#256 = CARTESIAN_POINT ( 'NONE',  ( 0.000000000000000000, 0.6495190528383271156, 0.3749999999999998335 ) ) ;
#257 = PRODUCT ( '84788', '84788', '', ( #163 ) ) ;
#258 = SURFACE_STYLE_USAGE ( .BOTH. , #153 ) ;
#259 = LENGTH_MEASURE_WITH_UNIT ( LENGTH_MEASURE( 0.02539999999999999897 ), #129 );
#260 = AXIS2_PLACEMENT_3D ( 'NONE', #51, #16, #59 ) ;
#261 =( CONVERSION_BASED_UNIT ( 'INCH', #130 ) LENGTH_UNIT ( ) NAMED_UNIT ( #202 ) );
#262 = AXIS2_PLACEMENT_3D ( 'NONE', #48, #27, #125 ) ;
#263 = CYLINDRICAL_SURFACE ( 'NONE', #14, 0.3749999999999998335 ) ;
#264 = AXIS2_PLACEMENT_3D ( 'NONE', #117, #20, #119 ) ;
#265 = FILL_AREA_STYLE ('',( #211 ) ) ;
ENDSEC;
END-ISO-10303-21;
