ISO-10303-21;
HEADER;
FILE_DESCRIPTION (( 'STEP AP214' ),
    '1' );
FILE_NAME ('Micro_RSC-187-2X.STEP',
    '2021-09-03T17:46:19',
    ( '' ),
    ( '' ),
    'SwSTEP 2.0',
    'SolidWorks 2020',
    '' );
FILE_SCHEMA (( 'AUTOMOTIVE_DESIGN' ));
ENDSEC;

DATA;
#1 = DIRECTION ( 'NONE',  ( 0.0000000000000000000, 0.0000000000000000000, 1.000000000000000000 ) ) ;
#2 = DIRECTION ( 'NONE',  ( -1.000000000000000000, 0.0000000000000000000, 0.0000000000000000000 ) ) ;
#3 = DIRECTION ( 'NONE',  ( 0.0000000000000000000, 0.0000000000000000000, -1.000000000000000000 ) ) ;
#4 = CARTESIAN_POINT ( 'NONE',  ( -0.003999999999999999216, -4.898587196589411612E-19, 2.000000000000000000 ) ) ;
#5 =( NAMED_UNIT ( * ) PLANE_ANGLE_UNIT ( ) SI_UNIT ( $, .RADIAN. ) );
#6 = DIRECTION ( 'NONE',  ( -1.000000000000000000, 0.0000000000000000000, 0.0000000000000000000 ) ) ;
#7 = PRESENTATION_STYLE_ASSIGNMENT (( #128 ) ) ;
#8 = PRESENTATION_LAYER_ASSIGNMENT (  '', '', ( #188 ) ) ;
#9 = APPLICATION_PROTOCOL_DEFINITION ( 'draft international standard', 'automotive_design', 1998, #247 ) ;
#10 = EDGE_LOOP ( 'NONE', ( #122, #45 ) ) ;
#11 = VERTEX_POINT ( 'NONE', #51 ) ;
#12 = DIRECTION ( 'NONE',  ( 0.0000000000000000000, 0.0000000000000000000, 1.000000000000000000 ) ) ;
#13 = CARTESIAN_POINT ( 'NONE',  ( 0.09375000000000001388, 1.148106374200643863E-17, 0.1554515599793062086 ) ) ;
#14 = UNCERTAINTY_MEASURE_WITH_UNIT (LENGTH_MEASURE( 1.000000000000000082E-05 ), #186, 'distance_accuracy_value', 'NONE');
#15 = VERTEX_POINT ( 'NONE', #13 ) ;
#16 = EDGE_CURVE ( 'NONE', #171, #15, #70, .T. ) ;
#17 = FACE_OUTER_BOUND ( 'NONE', #192, .T. ) ;
#18 = PRODUCT_DEFINITION_CONTEXT ( 'detailed design', #247, 'design' ) ;
#19 = AXIS2_PLACEMENT_3D ( 'NONE', #178, #12, #216 ) ;
#20 = DIRECTION ( 'NONE',  ( -0.0000000000000000000, -0.0000000000000000000, -1.000000000000000000 ) ) ;
#21 = CARTESIAN_POINT ( 'NONE',  ( 0.0000000000000000000, 0.0000000000000000000, 2.000000000000000000 ) ) ;
#22 = DIRECTION ( 'NONE',  ( 0.0000000000000000000, 0.0000000000000000000, -1.000000000000000000 ) ) ;
#23 = PLANE ( 'NONE',  #242 ) ;
#24 = AXIS2_PLACEMENT_3D ( 'NONE', #77, #22, #159 ) ;
#25 = PRODUCT_RELATED_PRODUCT_CATEGORY ( 'part', '', ( #181 ) ) ;
#26 = FILL_AREA_STYLE ('',( #168 ) ) ;
#27 = EDGE_LOOP ( 'NONE', ( #29, #191, #129, #163 ) ) ;
#28 = SHAPE_DEFINITION_REPRESENTATION ( #96, #147 ) ;
#29 = ORIENTED_EDGE ( 'NONE', *, *, #119, .T. ) ;
#30 = ORIENTED_EDGE ( 'NONE', *, *, #133, .F. ) ;
#31 = AXIS2_PLACEMENT_3D ( 'NONE', #33, #234, #136 ) ;
#32 = ADVANCED_FACE ( 'NONE', ( #212 ), #145, .T. ) ;
#33 = CARTESIAN_POINT ( 'NONE',  ( 0.0000000000000000000, 0.0000000000000000000, 2.000000000000000000 ) ) ;
#34 = DIMENSIONAL_EXPONENTS ( 1.000000000000000000, 0.0000000000000000000, 0.0000000000000000000, 0.0000000000000000000, 0.0000000000000000000, 0.0000000000000000000, 0.0000000000000000000 ) ;
#35 = SURFACE_STYLE_USAGE ( .BOTH. , #135 ) ;
#36 = AXIS2_PLACEMENT_3D ( 'NONE', #213, #132, #115 ) ;
#37 = CIRCLE ( 'NONE', #64, 0.003999999999999999216 ) ;
#38 = CARTESIAN_POINT ( 'NONE',  ( 0.0000000000000000000, 0.0000000000000000000, 0.0000000000000000000 ) ) ;
#39 = SURFACE_STYLE_FILL_AREA ( #113 ) ;
#40 = DIRECTION ( 'NONE',  ( -0.0000000000000000000, -0.0000000000000000000, -1.000000000000000000 ) ) ;
#41 = CIRCLE ( 'NONE', #24, 0.09375000000000001388 ) ;
#42 = CARTESIAN_POINT ( 'NONE',  ( 0.0000000000000000000, 0.0000000000000000000, 1.844548440020693736 ) ) ;
#43 = DIRECTION ( 'NONE',  ( -0.0000000000000000000, -0.0000000000000000000, -1.000000000000000000 ) ) ;
#44 = EDGE_CURVE ( 'NONE', #98, #69, #225, .T. ) ;
#45 = ORIENTED_EDGE ( 'NONE', *, *, #184, .T. ) ;
#46 = PRODUCT_CONTEXT ( 'NONE', #111, 'mechanical' ) ;
#47 = PRESENTATION_LAYER_ASSIGNMENT (  '', '', ( #161 ) ) ;
#48 = ORIENTED_EDGE ( 'NONE', *, *, #104, .F. ) ;
#49 = ORIENTED_EDGE ( 'NONE', *, *, #235, .T. ) ;
#50 = ADVANCED_FACE ( 'NONE', ( #194 ), #114, .T. ) ;
#51 = CARTESIAN_POINT ( 'NONE',  ( 0.003999999999999999216, 0.0000000000000000000, 0.0000000000000000000 ) ) ;
#52 = CIRCLE ( 'NONE', #125, 0.09375000000000001388 ) ;
#53 = PLANE ( 'NONE',  #107 ) ;
#54 = FILL_AREA_STYLE_COLOUR ( '', #102 ) ;
#55 = ADVANCED_FACE ( 'NONE', ( #17 ), #226, .T. ) ;
#56 = CARTESIAN_POINT ( 'NONE',  ( -0.003999999999999999216, -5.985461230832691724E-18, 2.000000000000000000 ) ) ;
#57 =( CONVERSION_BASED_UNIT ( 'INCH', #239 ) LENGTH_UNIT ( ) NAMED_UNIT ( #34 ) );
#58 = CARTESIAN_POINT ( 'NONE',  ( 0.0000000000000000000, 0.0000000000000000000, 2.000000000000000000 ) ) ;
#59 =( LENGTH_UNIT ( ) NAMED_UNIT ( * ) SI_UNIT ( $, .METRE. ) );
#60 = AXIS2_PLACEMENT_3D ( 'NONE', #93, #109, #2 ) ;
#61 = DIRECTION ( 'NONE',  ( 0.5000000000000012212, 0.0000000000000000000, 0.8660254037844377084 ) ) ;
#62 = EDGE_CURVE ( 'NONE', #172, #171, #217, .T. ) ;
#63 = DIRECTION ( 'NONE',  ( -1.000000000000000000, 0.0000000000000000000, 0.0000000000000000000 ) ) ;
#64 = AXIS2_PLACEMENT_3D ( 'NONE', #79, #101, #138 ) ;
#65 =( NAMED_UNIT ( * ) PLANE_ANGLE_UNIT ( ) SI_UNIT ( $, .RADIAN. ) );
#66 = DIRECTION ( 'NONE',  ( 0.0000000000000000000, 0.0000000000000000000, 1.000000000000000000 ) ) ;
#67 = ORIENTED_EDGE ( 'NONE', *, *, #198, .T. ) ;
#68 = AXIS2_PLACEMENT_3D ( 'NONE', #124, #66, #149 ) ;
#69 = VERTEX_POINT ( 'NONE', #137 ) ;
#70 = CIRCLE ( 'NONE', #36, 0.09375000000000001388 ) ;
#71 = CONICAL_SURFACE ( 'NONE', #89, 0.003999999999999999216, 0.5235987755983003700 ) ;
#72 = ORIENTED_EDGE ( 'NONE', *, *, #92, .T. ) ;
#73 = LINE ( 'NONE', #155, #131 ) ;
#74 = ORIENTED_EDGE ( 'NONE', *, *, #229, .T. ) ;
#75 = LINE ( 'NONE', #4, #152 ) ;
#76 = CARTESIAN_POINT ( 'NONE',  ( 0.0000000000000000000, 0.0000000000000000000, 0.1554515599793062086 ) ) ;
#77 = CARTESIAN_POINT ( 'NONE',  ( 0.0000000000000000000, 0.0000000000000000000, 1.844548440020693736 ) ) ;
#78 = MANIFOLD_SOLID_BREP ( 'Mirror1', #232 ) ;
#79 = CARTESIAN_POINT ( 'NONE',  ( 0.0000000000000000000, 0.0000000000000000000, 0.0000000000000000000 ) ) ;
#80 = ORIENTED_EDGE ( 'NONE', *, *, #92, .F. ) ;
#81 = DIRECTION ( 'NONE',  ( 1.000000000000000000, 0.0000000000000000000, -0.0000000000000000000 ) ) ;
#82 = LENGTH_MEASURE_WITH_UNIT ( LENGTH_MEASURE( 0.02539999999999999897 ), #248 );
#83 = ADVANCED_FACE ( 'NONE', ( #153 ), #53, .F. ) ;
#84 = ORIENTED_EDGE ( 'NONE', *, *, #143, .T. ) ;
#85 = EDGE_LOOP ( 'NONE', ( #80, #193, #84, #231 ) ) ;
#86 = MECHANICAL_DESIGN_GEOMETRIC_PRESENTATION_REPRESENTATION (  '', ( #188 ), #146 ) ;
#87 = VERTEX_POINT ( 'NONE', #112 ) ;
#88 = PRESENTATION_STYLE_ASSIGNMENT (( #35 ) ) ;
#89 = AXIS2_PLACEMENT_3D ( 'NONE', #21, #100, #241 ) ;
#90 = VECTOR ( 'NONE', #61, 39.37007874015748854 ) ;
#91 =( NAMED_UNIT ( * ) SI_UNIT ( $, .STERADIAN. ) SOLID_ANGLE_UNIT ( ) );
#92 = EDGE_CURVE ( 'NONE', #245, #171, #73, .T. ) ;
#93 = CARTESIAN_POINT ( 'NONE',  ( 0.0000000000000000000, 0.0000000000000000000, 2.000000000000000000 ) ) ;
#94 = CIRCLE ( 'NONE', #238, 0.003999999999999999216 ) ;
#95 = CYLINDRICAL_SURFACE ( 'NONE', #233, 0.09375000000000001388 ) ;
#96 = PRODUCT_DEFINITION_SHAPE ( 'NONE', 'NONE',  #189 ) ;
#97 = FACE_OUTER_BOUND ( 'NONE', #106, .T. ) ;
#98 = VERTEX_POINT ( 'NONE', #56 ) ;
#99 = AXIS2_PLACEMENT_3D ( 'NONE', #76, #160, #206 ) ;
#100 = DIRECTION ( 'NONE',  ( 0.0000000000000000000, 0.0000000000000000000, -1.000000000000000000 ) ) ;
#101 = DIRECTION ( 'NONE',  ( -0.0000000000000000000, -0.0000000000000000000, -1.000000000000000000 ) ) ;
#102 = COLOUR_RGB ( '',0.7921568627450980005, 0.8196078431372548767, 0.9333333333333333481 ) ;
#103 = ORIENTED_EDGE ( 'NONE', *, *, #198, .F. ) ;
#104 = EDGE_CURVE ( 'NONE', #98, #172, #75, .T. ) ;
#105 = EDGE_LOOP ( 'NONE', ( #48, #223, #67, #108 ) ) ;
#106 = EDGE_LOOP ( 'NONE', ( #156, #151 ) ) ;
#107 = AXIS2_PLACEMENT_3D ( 'NONE', #38, #195, #175 ) ;
#108 = ORIENTED_EDGE ( 'NONE', *, *, #119, .F. ) ;
#109 = DIRECTION ( 'NONE',  ( 0.0000000000000000000, 0.0000000000000000000, -1.000000000000000000 ) ) ;
#110 = ADVANCED_FACE ( 'NONE', ( #180 ), #95, .T. ) ;
#111 = APPLICATION_CONTEXT ( 'automotive_design' ) ;
#112 = CARTESIAN_POINT ( 'NONE',  ( 0.09375000000000001388, 1.148106374200643863E-17, 1.844548440020693736 ) ) ;
#113 = FILL_AREA_STYLE ('',( #54 ) ) ;
#114 = CONICAL_SURFACE ( 'NONE', #215, 0.003999999999999999216, 0.5235987755983003700 ) ;
#115 = DIRECTION ( 'NONE',  ( -1.000000000000000000, 0.0000000000000000000, 0.0000000000000000000 ) ) ;
#116 = EDGE_CURVE ( 'NONE', #11, #245, #118, .T. ) ;
#117 = CARTESIAN_POINT ( 'NONE',  ( 0.0000000000000000000, 0.0000000000000000000, 2.000000000000000000 ) ) ;
#118 = CIRCLE ( 'NONE', #204, 0.003999999999999999216 ) ;
#119 = EDGE_CURVE ( 'NONE', #172, #87, #41, .T. ) ;
#120 = LINE ( 'NONE', #222, #173 ) ;
#121 = CARTESIAN_POINT ( 'NONE',  ( -0.003999999999999999216, 5.985461230832687873E-18, 0.0000000000000000000 ) ) ;
#122 = ORIENTED_EDGE ( 'NONE', *, *, #116, .T. ) ;
#123 = DIMENSIONAL_EXPONENTS ( 1.000000000000000000, 0.0000000000000000000, 0.0000000000000000000, 0.0000000000000000000, 0.0000000000000000000, 0.0000000000000000000, 0.0000000000000000000 ) ;
#124 = CARTESIAN_POINT ( 'NONE',  ( 0.0000000000000000000, 0.0000000000000000000, 0.0000000000000000000 ) ) ;
#125 = AXIS2_PLACEMENT_3D ( 'NONE', #42, #224, #63 ) ;
#126 = EDGE_CURVE ( 'NONE', #87, #15, #120, .T. ) ;
#127 = ORIENTED_EDGE ( 'NONE', *, *, #143, .F. ) ;
#128 = SURFACE_STYLE_USAGE ( .BOTH. , #166 ) ;
#129 = ORIENTED_EDGE ( 'NONE', *, *, #16, .F. ) ;
#130 = ORIENTED_EDGE ( 'NONE', *, *, #62, .T. ) ;
#131 = VECTOR ( 'NONE', #237, 39.37007874015748854 ) ;
#132 = DIRECTION ( 'NONE',  ( -0.0000000000000000000, -0.0000000000000000000, -1.000000000000000000 ) ) ;
#133 = EDGE_CURVE ( 'NONE', #15, #171, #148, .T. ) ;
#134 = DIMENSIONAL_EXPONENTS ( 1.000000000000000000, 0.0000000000000000000, 0.0000000000000000000, 0.0000000000000000000, 0.0000000000000000000, 0.0000000000000000000, 0.0000000000000000000 ) ;
#135 = SURFACE_SIDE_STYLE ('',( #39 ) ) ;
#136 = DIRECTION ( 'NONE',  ( 1.000000000000000000, 0.0000000000000000000, 0.0000000000000000000 ) ) ;
#137 = CARTESIAN_POINT ( 'NONE',  ( 0.003999999999999999216, 0.0000000000000000000, 2.000000000000000000 ) ) ;
#138 = DIRECTION ( 'NONE',  ( -1.000000000000000000, 0.0000000000000000000, 0.0000000000000000000 ) ) ;
#139 = CARTESIAN_POINT ( 'NONE',  ( 0.003999999999999999216, 0.0000000000000000000, 2.000000000000000000 ) ) ;
#140 =( GEOMETRIC_REPRESENTATION_CONTEXT ( 3 ) GLOBAL_UNCERTAINTY_ASSIGNED_CONTEXT ( ( #14 ) ) GLOBAL_UNIT_ASSIGNED_CONTEXT ( ( #186, #5, #209 ) ) REPRESENTATION_CONTEXT ( 'NONE', 'WORKASPACE' ) );
#141 = DIRECTION ( 'NONE',  ( 0.0000000000000000000, 0.0000000000000000000, 1.000000000000000000 ) ) ;
#142 = ORIENTED_EDGE ( 'NONE', *, *, #126, .F. ) ;
#143 = EDGE_CURVE ( 'NONE', #11, #15, #243, .T. ) ;
#144 = CARTESIAN_POINT ( 'NONE',  ( -0.09375000000000001388, 0.0000000000000000000, 1.844548440020693736 ) ) ;
#145 = CONICAL_SURFACE ( 'NONE', #31, 0.003999999999999999216, 0.5235987755983003700 ) ;
#146 =( GEOMETRIC_REPRESENTATION_CONTEXT ( 3 ) GLOBAL_UNCERTAINTY_ASSIGNED_CONTEXT ( ( #169 ) ) GLOBAL_UNIT_ASSIGNED_CONTEXT ( ( #57, #197, #91 ) ) REPRESENTATION_CONTEXT ( 'NONE', 'WORKASPACE' ) );
#147 = ADVANCED_BREP_SHAPE_REPRESENTATION ( 'Micro_RSC-187-2X', ( #78, #68 ), #140 ) ;
#148 = CIRCLE ( 'NONE', #99, 0.09375000000000001388 ) ;
#149 = DIRECTION ( 'NONE',  ( 1.000000000000000000, 0.0000000000000000000, 0.0000000000000000000 ) ) ;
#150 = ORIENTED_EDGE ( 'NONE', *, *, #104, .T. ) ;
#151 = ORIENTED_EDGE ( 'NONE', *, *, #44, .F. ) ;
#152 = VECTOR ( 'NONE', #179, 39.37007874015748854 ) ;
#153 = FACE_OUTER_BOUND ( 'NONE', #10, .T. ) ;
#154 = CARTESIAN_POINT ( 'NONE',  ( -0.09375000000000001388, 0.0000000000000000000, 2.000000000000000000 ) ) ;
#155 = CARTESIAN_POINT ( 'NONE',  ( -0.003999999999999999216, 4.898587196589411612E-19, 0.0000000000000000000 ) ) ;
#156 = ORIENTED_EDGE ( 'NONE', *, *, #229, .F. ) ;
#157 = PRODUCT_DEFINITION_FORMATION_WITH_SPECIFIED_SOURCE ( 'ANY', '', #181, .NOT_KNOWN. ) ;
#158 = DIRECTION ( 'NONE',  ( -1.000000000000000000, 0.0000000000000000000, 0.0000000000000000000 ) ) ;
#159 = DIRECTION ( 'NONE',  ( -1.000000000000000000, 0.0000000000000000000, 0.0000000000000000000 ) ) ;
#160 = DIRECTION ( 'NONE',  ( -0.0000000000000000000, -0.0000000000000000000, -1.000000000000000000 ) ) ;
#161 = STYLED_ITEM ( 'NONE', ( #7 ), #147 ) ;
#162 = LINE ( 'NONE', #139, #211 ) ;
#163 = ORIENTED_EDGE ( 'NONE', *, *, #62, .F. ) ;
#164 = ADVANCED_FACE ( 'NONE', ( #187 ), #71, .T. ) ;
#165 = DIRECTION ( 'NONE',  ( 0.5000000000000012212, 0.0000000000000000000, -0.8660254037844377084 ) ) ;
#166 = SURFACE_SIDE_STYLE ('',( #227 ) ) ;
#167 = AXIS2_PLACEMENT_3D ( 'NONE', #58, #20, #6 ) ;
#168 = FILL_AREA_STYLE_COLOUR ( '', #220 ) ;
#169 = UNCERTAINTY_MEASURE_WITH_UNIT (LENGTH_MEASURE( 1.000000000000000082E-05 ), #57, 'distance_accuracy_value', 'NONE');
#170 = ADVANCED_FACE ( 'NONE', ( #97 ), #23, .T. ) ;
#171 = VERTEX_POINT ( 'NONE', #182 ) ;
#172 = VERTEX_POINT ( 'NONE', #144 ) ;
#173 = VECTOR ( 'NONE', #40, 39.37007874015748143 ) ;
#174 = CARTESIAN_POINT ( 'NONE',  ( 0.0000000000000000000, 0.0000000000000000000, 0.0000000000000000000 ) ) ;
#175 = DIRECTION ( 'NONE',  ( 1.000000000000000000, 0.0000000000000000000, -0.0000000000000000000 ) ) ;
#176 =( LENGTH_UNIT ( ) NAMED_UNIT ( * ) SI_UNIT ( $, .METRE. ) );
#177 = UNCERTAINTY_MEASURE_WITH_UNIT (LENGTH_MEASURE( 1.000000000000000082E-05 ), #190, 'distance_accuracy_value', 'NONE');
#178 = CARTESIAN_POINT ( 'NONE',  ( 0.0000000000000000000, 0.0000000000000000000, 0.0000000000000000000 ) ) ;
#179 = DIRECTION ( 'NONE',  ( -0.5000000000000012212, -6.123233995736780827E-17, -0.8660254037844377084 ) ) ;
#180 = FACE_OUTER_BOUND ( 'NONE', #27, .T. ) ;
#181 = PRODUCT ( 'Micro_RSC-187-2X', 'Micro_RSC-187-2X', '', ( #46 ) ) ;
#182 = CARTESIAN_POINT ( 'NONE',  ( -0.09375000000000001388, 0.0000000000000000000, 0.1554515599793062086 ) ) ;
#183 =( GEOMETRIC_REPRESENTATION_CONTEXT ( 3 ) GLOBAL_UNCERTAINTY_ASSIGNED_CONTEXT ( ( #177 ) ) GLOBAL_UNIT_ASSIGNED_CONTEXT ( ( #190, #65, #208 ) ) REPRESENTATION_CONTEXT ( 'NONE', 'WORKASPACE' ) );
#184 = EDGE_CURVE ( 'NONE', #245, #11, #37, .T. ) ;
#185 = ORIENTED_EDGE ( 'NONE', *, *, #235, .F. ) ;
#186 =( CONVERSION_BASED_UNIT ( 'INCH', #200 ) LENGTH_UNIT ( ) NAMED_UNIT ( #134 ) );
#187 = FACE_OUTER_BOUND ( 'NONE', #105, .T. ) ;
#188 = STYLED_ITEM ( 'NONE', ( #88 ), #78 ) ;
#189 = PRODUCT_DEFINITION ( 'UNKNOWN', '', #157, #18 ) ;
#190 =( CONVERSION_BASED_UNIT ( 'INCH', #82 ) LENGTH_UNIT ( ) NAMED_UNIT ( #123 ) );
#191 = ORIENTED_EDGE ( 'NONE', *, *, #126, .T. ) ;
#192 = EDGE_LOOP ( 'NONE', ( #202, #72, #230, #127 ) ) ;
#193 = ORIENTED_EDGE ( 'NONE', *, *, #116, .F. ) ;
#194 = FACE_OUTER_BOUND ( 'NONE', #85, .T. ) ;
#195 = DIRECTION ( 'NONE',  ( 0.0000000000000000000, 0.0000000000000000000, 1.000000000000000000 ) ) ;
#196 = DIRECTION ( 'NONE',  ( 1.000000000000000000, 0.0000000000000000000, 0.0000000000000000000 ) ) ;
#197 =( NAMED_UNIT ( * ) PLANE_ANGLE_UNIT ( ) SI_UNIT ( $, .RADIAN. ) );
#198 = EDGE_CURVE ( 'NONE', #69, #87, #162, .T. ) ;
#199 = CYLINDRICAL_SURFACE ( 'NONE', #167, 0.09375000000000001388 ) ;
#200 = LENGTH_MEASURE_WITH_UNIT ( LENGTH_MEASURE( 0.02539999999999999897 ), #59 );
#201 = CARTESIAN_POINT ( 'NONE',  ( 0.0000000000000000000, 0.0000000000000000000, 2.000000000000000000 ) ) ;
#202 = ORIENTED_EDGE ( 'NONE', *, *, #184, .F. ) ;
#203 = FACE_OUTER_BOUND ( 'NONE', #205, .T. ) ;
#204 = AXIS2_PLACEMENT_3D ( 'NONE', #221, #43, #158 ) ;
#205 = EDGE_LOOP ( 'NONE', ( #142, #49, #130, #30 ) ) ;
#206 = DIRECTION ( 'NONE',  ( -1.000000000000000000, 0.0000000000000000000, 0.0000000000000000000 ) ) ;
#207 = APPLICATION_PROTOCOL_DEFINITION ( 'draft international standard', 'automotive_design', 1998, #111 ) ;
#208 =( NAMED_UNIT ( * ) SI_UNIT ( $, .STERADIAN. ) SOLID_ANGLE_UNIT ( ) );
#209 =( NAMED_UNIT ( * ) SI_UNIT ( $, .STERADIAN. ) SOLID_ANGLE_UNIT ( ) );
#210 = EDGE_LOOP ( 'NONE', ( #74, #150, #185, #103 ) ) ;
#211 = VECTOR ( 'NONE', #165, 39.37007874015748854 ) ;
#212 = FACE_OUTER_BOUND ( 'NONE', #210, .T. ) ;
#213 = CARTESIAN_POINT ( 'NONE',  ( 0.0000000000000000000, 0.0000000000000000000, 0.1554515599793062086 ) ) ;
#214 = ADVANCED_FACE ( 'NONE', ( #203 ), #199, .T. ) ;
#215 = AXIS2_PLACEMENT_3D ( 'NONE', #174, #1, #196 ) ;
#216 = DIRECTION ( 'NONE',  ( 1.000000000000000000, 0.0000000000000000000, 0.0000000000000000000 ) ) ;
#217 = LINE ( 'NONE', #154, #228 ) ;
#218 = DIRECTION ( 'NONE',  ( -0.0000000000000000000, -0.0000000000000000000, -1.000000000000000000 ) ) ;
#219 = CARTESIAN_POINT ( 'NONE',  ( 0.0000000000000000000, 0.0000000000000000000, 2.000000000000000000 ) ) ;
#220 = COLOUR_RGB ( '',0.7921568627450980005, 0.8196078431372548767, 0.9333333333333333481 ) ;
#221 = CARTESIAN_POINT ( 'NONE',  ( 0.0000000000000000000, 0.0000000000000000000, 0.0000000000000000000 ) ) ;
#222 = CARTESIAN_POINT ( 'NONE',  ( 0.09375000000000001388, 1.148106374200643863E-17, 2.000000000000000000 ) ) ;
#223 = ORIENTED_EDGE ( 'NONE', *, *, #44, .T. ) ;
#224 = DIRECTION ( 'NONE',  ( 0.0000000000000000000, 0.0000000000000000000, -1.000000000000000000 ) ) ;
#225 = CIRCLE ( 'NONE', #60, 0.003999999999999999216 ) ;
#226 = CONICAL_SURFACE ( 'NONE', #19, 0.003999999999999999216, 0.5235987755983003700 ) ;
#227 = SURFACE_STYLE_FILL_AREA ( #26 ) ;
#228 = VECTOR ( 'NONE', #236, 39.37007874015748143 ) ;
#229 = EDGE_CURVE ( 'NONE', #69, #98, #94, .T. ) ;
#230 = ORIENTED_EDGE ( 'NONE', *, *, #16, .T. ) ;
#231 = ORIENTED_EDGE ( 'NONE', *, *, #133, .T. ) ;
#232 = CLOSED_SHELL ( 'NONE', ( #32, #55, #110, #214, #50, #83, #164, #170 ) ) ;
#233 = AXIS2_PLACEMENT_3D ( 'NONE', #201, #218, #240 ) ;
#234 = DIRECTION ( 'NONE',  ( 0.0000000000000000000, 0.0000000000000000000, -1.000000000000000000 ) ) ;
#235 = EDGE_CURVE ( 'NONE', #87, #172, #52, .T. ) ;
#236 = DIRECTION ( 'NONE',  ( -0.0000000000000000000, -0.0000000000000000000, -1.000000000000000000 ) ) ;
#237 = DIRECTION ( 'NONE',  ( -0.5000000000000012212, 6.123233995736780827E-17, 0.8660254037844377084 ) ) ;
#238 = AXIS2_PLACEMENT_3D ( 'NONE', #219, #3, #244 ) ;
#239 = LENGTH_MEASURE_WITH_UNIT ( LENGTH_MEASURE( 0.02539999999999999897 ), #176 );
#240 = DIRECTION ( 'NONE',  ( -1.000000000000000000, 0.0000000000000000000, 0.0000000000000000000 ) ) ;
#241 = DIRECTION ( 'NONE',  ( 1.000000000000000000, 0.0000000000000000000, 0.0000000000000000000 ) ) ;
#242 = AXIS2_PLACEMENT_3D ( 'NONE', #117, #141, #81 ) ;
#243 = LINE ( 'NONE', #246, #90 ) ;
#244 = DIRECTION ( 'NONE',  ( -1.000000000000000000, 0.0000000000000000000, 0.0000000000000000000 ) ) ;
#245 = VERTEX_POINT ( 'NONE', #121 ) ;
#246 = CARTESIAN_POINT ( 'NONE',  ( 0.003999999999999999216, 0.0000000000000000000, 0.0000000000000000000 ) ) ;
#247 = APPLICATION_CONTEXT ( 'automotive_design' ) ;
#248 =( LENGTH_UNIT ( ) NAMED_UNIT ( * ) SI_UNIT ( $, .METRE. ) );
#249 = MECHANICAL_DESIGN_GEOMETRIC_PRESENTATION_REPRESENTATION (  '', ( #161 ), #183 ) ;
ENDSEC;
END-ISO-10303-21;
