ISO-10303-21;
HEADER;
FILE_DESCRIPTION (( 'STEP AP214' ),
    '1' );
FILE_NAME ('Micro_AEMM-015-4.STEP',
    '2022-03-15T14:22:54',
    ( '' ),
    ( '' ),
    'SwSTEP 2.0',
    'SolidWorks 2022',
    '' );
FILE_SCHEMA (( 'AUTOMOTIVE_DESIGN' ));
ENDSEC;

DATA;
#1 = CARTESIAN_POINT ( 'NONE',  ( 1.928573779297251702E-17, 0.000000000000000000, 0.1574800000000000089 ) ) ;
#2 = VECTOR ( 'NONE', #62, 39.37007874015748854 ) ;
#3 = ORIENTED_EDGE ( 'NONE', *, *, #224, .T. ) ;
#4 = EDGE_CURVE ( 'NONE', #236, #237, #86, .T. ) ;
#5 = ORIENTED_EDGE ( 'NONE', *, *, #105, .T. ) ;
#6 = VERTEX_POINT ( 'NONE', #287 ) ;
#7 = ORIENTED_EDGE ( 'NONE', *, *, #151, .F. ) ;
#8 = VECTOR ( 'NONE', #255, 39.37007874015747433 ) ;
#9 = CARTESIAN_POINT ( 'NONE',  ( 0.02949797250000001092, 0.000000000000000000, 0.1574800000000000089 ) ) ;
#10 = CARTESIAN_POINT ( 'NONE',  ( 0.000000000000000000, 0.000000000000000000, 0.000000000000000000 ) ) ;
#11 = EDGE_CURVE ( 'NONE', #121, #175, #211, .T. ) ;
#12 = DIRECTION ( 'NONE',  ( -1.000000000000000000, 0.000000000000000000, 0.000000000000000000 ) ) ;
#13 = ORIENTED_EDGE ( 'NONE', *, *, #16, .F. ) ;
#14 = VECTOR ( 'NONE', #37, 39.37007874015748143 ) ;
#15 = CARTESIAN_POINT ( 'NONE',  ( 5.348588749162019150E-17, 0.000000000000000000, 0.4367454153218638391 ) ) ;
#16 = EDGE_CURVE ( 'NONE', #73, #175, #246, .T. ) ;
#17 = APPLICATION_PROTOCOL_DEFINITION ( 'draft international standard', 'automotive_design', 1998, #241 ) ;
#18 = UNCERTAINTY_MEASURE_WITH_UNIT (LENGTH_MEASURE( 1.000000000000000082E-05 ), #25, 'distance_accuracy_value', 'NONE');
#19 = PLANE ( 'NONE',  #76 ) ;
#20 = AXIS2_PLACEMENT_3D ( 'NONE', #147, #170, #245 ) ;
#21 = CARTESIAN_POINT ( 'NONE',  ( 0.06374000000000018540, 7.805898697765251255E-18, 1.968503999999999809 ) ) ;
#22 = CIRCLE ( 'NONE', #193, 0.02949797250000000398 ) ;
#23 = EDGE_LOOP ( 'NONE', ( #59, #159 ) ) ;
#24 = VECTOR ( 'NONE', #161, 39.37007874015748143 ) ;
#25 =( CONVERSION_BASED_UNIT ( 'INCH', #181 ) LENGTH_UNIT ( ) NAMED_UNIT ( #163 ) );
#26 = ADVANCED_FACE ( 'NONE', ( #96 ), #92, .T. ) ;
#27 = ORIENTED_EDGE ( 'NONE', *, *, #268, .T. ) ;
#28 = DIRECTION ( 'NONE',  ( 1.000000000000000000, 0.000000000000000000, 0.000000000000000000 ) ) ;
#29 = ORIENTED_EDGE ( 'NONE', *, *, #111, .F. ) ;
#30 = DIRECTION ( 'NONE',  ( -1.224646799147353207E-16, -0.000000000000000000, -1.000000000000000000 ) ) ;
#31 = AXIS2_PLACEMENT_3D ( 'NONE', #136, #264, #138 ) ;
#32 = CARTESIAN_POINT ( 'NONE',  ( 1.928573779297251702E-17, 0.000000000000000000, 0.1574800000000000089 ) ) ;
#33 = FACE_OUTER_BOUND ( 'NONE', #221, .T. ) ;
#34 =( NAMED_UNIT ( * ) SI_UNIT ( $, .STERADIAN. ) SOLID_ANGLE_UNIT ( ) );
#35 =( CONVERSION_BASED_UNIT ( 'INCH', #99 ) LENGTH_UNIT ( ) NAMED_UNIT ( #212 ) );
#36 = LINE ( 'NONE', #61, #14 ) ;
#37 = DIRECTION ( 'NONE',  ( -1.224646799147353207E-16, -0.000000000000000000, -1.000000000000000000 ) ) ;
#38 = CARTESIAN_POINT ( 'NONE',  ( 0.000000000000000000, 0.000000000000000000, 1.968503999999999809 ) ) ;
#39 = CONICAL_SURFACE ( 'NONE', #133, 0.06374000000000018540, 0.7853981633974522758 ) ;
#40 = DIRECTION ( 'NONE',  ( 1.224646799147353207E-16, 0.000000000000000000, 1.000000000000000000 ) ) ;
#41 = SURFACE_STYLE_FILL_AREA ( #253 ) ;
#42 = STYLED_ITEM ( 'NONE', ( #278 ), #216 ) ;
#43 = CIRCLE ( 'NONE', #49, 0.06374000000000018540 ) ;
#44 = CARTESIAN_POINT ( 'NONE',  ( 0.02949797249999999357, 3.612459760346164074E-18, -3.612459760346164074E-18 ) ) ;
#45 = ORIENTED_EDGE ( 'NONE', *, *, #160, .F. ) ;
#46 = AXIS2_PLACEMENT_3D ( 'NONE', #168, #272, #56 ) ;
#47 = EDGE_LOOP ( 'NONE', ( #192, #126, #5, #238 ) ) ;
#48 = ORIENTED_EDGE ( 'NONE', *, *, #218, .T. ) ;
#49 = AXIS2_PLACEMENT_3D ( 'NONE', #222, #122, #247 ) ;
#50 = CARTESIAN_POINT ( 'NONE',  ( 1.928573779297251702E-17, 0.000000000000000000, 0.1574800000000000089 ) ) ;
#51 = EDGE_CURVE ( 'NONE', #82, #236, #67, .T. ) ;
#52 = CARTESIAN_POINT ( 'NONE',  ( 0.07874000000000000443, 9.642868896486258509E-18, 1.968503999999999809 ) ) ;
#53 = DIRECTION ( 'NONE',  ( 0.1736481776669313859, 0.000000000000000000, 0.9848077530122077983 ) ) ;
#54 = ADVANCED_FACE ( 'NONE', ( #265 ), #89, .T. ) ;
#55 = CARTESIAN_POINT ( 'NONE',  ( 0.07874000000000000443, 9.642868896486258509E-18, 1.953504000000000129 ) ) ;
#56 = DIRECTION ( 'NONE',  ( -1.000000000000000000, 0.000000000000000000, 0.000000000000000000 ) ) ;
#57 = MECHANICAL_DESIGN_GEOMETRIC_PRESENTATION_REPRESENTATION (  '', ( #42 ), #271 ) ;
#58 = DIRECTION ( 'NONE',  ( -1.224646799147353207E-16, -0.000000000000000000, -1.000000000000000000 ) ) ;
#59 = ORIENTED_EDGE ( 'NONE', *, *, #227, .T. ) ;
#60 = ADVANCED_FACE ( 'NONE', ( #118 ), #129, .T. ) ;
#61 = CARTESIAN_POINT ( 'NONE',  ( -0.02949797249999999357, 0.000000000000000000, 3.612459760346164074E-18 ) ) ;
#62 = DIRECTION ( 'NONE',  ( 0.7071067811865502373, 8.659560562354966138E-17, -0.7071067811865446862 ) ) ;
#63 = AXIS2_PLACEMENT_3D ( 'NONE', #289, #74, #180 ) ;
#64 = ORIENTED_EDGE ( 'NONE', *, *, #51, .F. ) ;
#65 = CARTESIAN_POINT ( 'NONE',  ( -0.02949797249999996929, 6.627664328416210521E-18, 0.1574800000000000089 ) ) ;
#66 = MANIFOLD_SOLID_BREP ( 'Cut-Revolve1', #127 ) ;
#67 = CIRCLE ( 'NONE', #146, 0.07874000000000000443 ) ;
#68 = APPLICATION_PROTOCOL_DEFINITION ( 'draft international standard', 'automotive_design', 1998, #262 ) ;
#69 = DIRECTION ( 'NONE',  ( -1.224646799147353207E-16, -0.000000000000000000, -1.000000000000000000 ) ) ;
#70 = STYLED_ITEM ( 'NONE', ( #203 ), #66 ) ;
#71 = SHAPE_DEFINITION_REPRESENTATION ( #120, #216 ) ;
#72 = DIRECTION ( 'NONE',  ( 1.224646799147353207E-16, 0.000000000000000000, 1.000000000000000000 ) ) ;
#73 = VERTEX_POINT ( 'NONE', #191 ) ;
#74 = DIRECTION ( 'NONE',  ( -1.224646799147353207E-16, -0.000000000000000000, -1.000000000000000000 ) ) ;
#75 = DIRECTION ( 'NONE',  ( 1.000000000000000000, 0.000000000000000000, 0.000000000000000000 ) ) ;
#76 = AXIS2_PLACEMENT_3D ( 'NONE', #226, #176, #256 ) ;
#77 =( LENGTH_UNIT ( ) NAMED_UNIT ( * ) SI_UNIT ( $, .METRE. ) );
#78 = PRODUCT_RELATED_PRODUCT_CATEGORY ( 'part', '', ( #244 ) ) ;
#79 = DIRECTION ( 'NONE',  ( -0.000000000000000000, -0.000000000000000000, -1.000000000000000000 ) ) ;
#80 = DIRECTION ( 'NONE',  ( -1.224646799147353207E-16, -0.000000000000000000, -1.000000000000000000 ) ) ;
#81 = AXIS2_PLACEMENT_3D ( 'NONE', #104, #290, #75 ) ;
#82 = VERTEX_POINT ( 'NONE', #55 ) ;
#83 = DIRECTION ( 'NONE',  ( 0.000000000000000000, 0.000000000000000000, -1.000000000000000000 ) ) ;
#84 = AXIS2_PLACEMENT_3D ( 'NONE', #15, #58, #125 ) ;
#85 = DIRECTION ( 'NONE',  ( 0.000000000000000000, 0.000000000000000000, 1.000000000000000000 ) ) ;
#86 = LINE ( 'NONE', #166, #24 ) ;
#87 = FILL_AREA_STYLE_COLOUR ( '', #240 ) ;
#88 = LINE ( 'NONE', #21, #2 ) ;
#89 = CONICAL_SURFACE ( 'NONE', #208, 0.02949797249999999010, 0.1745329251994338915 ) ;
#90 = LENGTH_MEASURE_WITH_UNIT ( LENGTH_MEASURE( 0.02539999999999999897 ), #130 );
#91 = DIRECTION ( 'NONE',  ( -1.224646799147353207E-16, -0.000000000000000000, -1.000000000000000000 ) ) ;
#92 = CYLINDRICAL_SURFACE ( 'NONE', #299, 0.02949797249999999357 ) ;
#93 = DIRECTION ( 'NONE',  ( -1.000000000000000000, 0.000000000000000000, 1.224646799147352961E-16 ) ) ;
#94 = ORIENTED_EDGE ( 'NONE', *, *, #95, .T. ) ;
#95 = EDGE_CURVE ( 'NONE', #175, #73, #22, .T. ) ;
#96 = FACE_OUTER_BOUND ( 'NONE', #141, .T. ) ;
#97 = AXIS2_PLACEMENT_3D ( 'NONE', #248, #85, #131 ) ;
#98 = EDGE_CURVE ( 'NONE', #82, #148, #274, .T. ) ;
#99 = LENGTH_MEASURE_WITH_UNIT ( LENGTH_MEASURE( 0.02539999999999999897 ), #77 );
#100 = DIRECTION ( 'NONE',  ( 1.000000000000000000, 0.000000000000000000, -0.000000000000000000 ) ) ;
#101 = FACE_OUTER_BOUND ( 'NONE', #102, .T. ) ;
#102 = EDGE_LOOP ( 'NONE', ( #144, #94 ) ) ;
#103 = CARTESIAN_POINT ( 'NONE',  ( 0.07874000000000004607, 9.642868896486264672E-18, 0.4367454153218638391 ) ) ;
#104 = CARTESIAN_POINT ( 'NONE',  ( 0.000000000000000000, 0.000000000000000000, 1.953504000000000129 ) ) ;
#105 = EDGE_CURVE ( 'NONE', #121, #148, #242, .T. ) ;
#106 = SURFACE_STYLE_USAGE ( .BOTH. , #295 ) ;
#107 = LINE ( 'NONE', #202, #8 ) ;
#108 = PRODUCT_DEFINITION_CONTEXT ( 'detailed design', #262, 'design' ) ;
#109 = CIRCLE ( 'NONE', #178, 0.02949797249999999010 ) ;
#110 = EDGE_LOOP ( 'NONE', ( #139, #143, #132, #223 ) ) ;
#111 = EDGE_CURVE ( 'NONE', #6, #116, #43, .T. ) ;
#112 = DIRECTION ( 'NONE',  ( -0.000000000000000000, -0.000000000000000000, -1.000000000000000000 ) ) ;
#113 = AXIS2_PLACEMENT_3D ( 'NONE', #269, #91, #93 ) ;
#114 = EDGE_CURVE ( 'NONE', #121, #294, #225, .T. ) ;
#115 = AXIS2_PLACEMENT_3D ( 'NONE', #50, #72, #188 ) ;
#116 = VERTEX_POINT ( 'NONE', #169 ) ;
#117 = ORIENTED_EDGE ( 'NONE', *, *, #4, .T. ) ;
#118 = FACE_OUTER_BOUND ( 'NONE', #215, .T. ) ;
#119 = ORIENTED_EDGE ( 'NONE', *, *, #142, .T. ) ;
#120 = PRODUCT_DEFINITION_SHAPE ( 'NONE', 'NONE',  #186 ) ;
#121 = VERTEX_POINT ( 'NONE', #9 ) ;
#122 = DIRECTION ( 'NONE',  ( 0.000000000000000000, 0.000000000000000000, 1.000000000000000000 ) ) ;
#123 = ORIENTED_EDGE ( 'NONE', *, *, #151, .T. ) ;
#124 = CARTESIAN_POINT ( 'NONE',  ( 0.02949797250000001092, 0.000000000000000000, 0.1574800000000000089 ) ) ;
#125 = DIRECTION ( 'NONE',  ( 1.000000000000000000, 0.000000000000000000, 0.000000000000000000 ) ) ;
#126 = ORIENTED_EDGE ( 'NONE', *, *, #114, .F. ) ;
#127 = CLOSED_SHELL ( 'NONE', ( #26, #60, #135, #251, #171, #257, #276, #54, #182, #158 ) ) ;
#128 = DIRECTION ( 'NONE',  ( -1.224646799147353207E-16, -0.000000000000000000, -1.000000000000000000 ) ) ;
#129 = CONICAL_SURFACE ( 'NONE', #115, 0.02949797249999999010, 0.1745329251994338915 ) ;
#130 =( LENGTH_UNIT ( ) NAMED_UNIT ( * ) SI_UNIT ( $, .METRE. ) );
#131 = DIRECTION ( 'NONE',  ( 1.000000000000000000, 0.000000000000000000, 0.000000000000000000 ) ) ;
#132 = ORIENTED_EDGE ( 'NONE', *, *, #142, .F. ) ;
#133 = AXIS2_PLACEMENT_3D ( 'NONE', #38, #83, #284 ) ;
#134 = PRODUCT_CONTEXT ( 'NONE', #241, 'mechanical' ) ;
#135 = ADVANCED_FACE ( 'NONE', ( #33 ), #213, .T. ) ;
#136 = CARTESIAN_POINT ( 'NONE',  ( 0.000000000000000000, 0.000000000000000000, 0.000000000000000000 ) ) ;
#137 = VECTOR ( 'NONE', #79, 39.37007874015748143 ) ;
#138 = DIRECTION ( 'NONE',  ( 1.000000000000000000, 0.000000000000000000, 0.000000000000000000 ) ) ;
#139 = ORIENTED_EDGE ( 'NONE', *, *, #160, .T. ) ;
#140 = DIRECTION ( 'NONE',  ( 1.000000000000000000, 0.000000000000000000, 0.000000000000000000 ) ) ;
#141 = EDGE_LOOP ( 'NONE', ( #123, #277, #13, #165 ) ) ;
#142 = EDGE_CURVE ( 'NONE', #237, #148, #231, .T. ) ;
#143 = ORIENTED_EDGE ( 'NONE', *, *, #98, .T. ) ;
#144 = ORIENTED_EDGE ( 'NONE', *, *, #16, .T. ) ;
#145 = SURFACE_STYLE_USAGE ( .BOTH. , #285 ) ;
#146 = AXIS2_PLACEMENT_3D ( 'NONE', #258, #187, #28 ) ;
#147 = CARTESIAN_POINT ( 'NONE',  ( 0.000000000000000000, 0.000000000000000000, 1.968503999999999809 ) ) ;
#148 = VERTEX_POINT ( 'NONE', #103 ) ;
#149 = DIRECTION ( 'NONE',  ( -1.000000000000000000, 0.000000000000000000, 0.000000000000000000 ) ) ;
#150 = PLANE ( 'NONE',  #219 ) ;
#151 = EDGE_CURVE ( 'NONE', #294, #121, #109, .T. ) ;
#152 = CARTESIAN_POINT ( 'NONE',  ( 0.000000000000000000, 0.000000000000000000, 0.000000000000000000 ) ) ;
#153 = ORIENTED_EDGE ( 'NONE', *, *, #105, .F. ) ;
#154 = CARTESIAN_POINT ( 'NONE',  ( 0.000000000000000000, 0.000000000000000000, 1.968503999999999809 ) ) ;
#155 = ORIENTED_EDGE ( 'NONE', *, *, #280, .F. ) ;
#156 =( NAMED_UNIT ( * ) SI_UNIT ( $, .STERADIAN. ) SOLID_ANGLE_UNIT ( ) );
#157 =( CONVERSION_BASED_UNIT ( 'INCH', #90 ) LENGTH_UNIT ( ) NAMED_UNIT ( #185 ) );
#158 = ADVANCED_FACE ( 'NONE', ( #101 ), #150, .F. ) ;
#159 = ORIENTED_EDGE ( 'NONE', *, *, #111, .T. ) ;
#160 = EDGE_CURVE ( 'NONE', #236, #82, #228, .T. ) ;
#161 = DIRECTION ( 'NONE',  ( -0.000000000000000000, -0.000000000000000000, -1.000000000000000000 ) ) ;
#162 = VECTOR ( 'NONE', #214, 39.37007874015748143 ) ;
#163 = DIMENSIONAL_EXPONENTS ( 1.000000000000000000, 0.000000000000000000, 0.000000000000000000, 0.000000000000000000, 0.000000000000000000, 0.000000000000000000, 0.000000000000000000 ) ;
#164 = CARTESIAN_POINT ( 'NONE',  ( 4.423987282556545948E-34, 0.000000000000000000, 3.612459760346164844E-18 ) ) ;
#165 = ORIENTED_EDGE ( 'NONE', *, *, #218, .F. ) ;
#166 = CARTESIAN_POINT ( 'NONE',  ( -0.07874000000000000443, 0.000000000000000000, 1.968503999999999809 ) ) ;
#167 = ORIENTED_EDGE ( 'NONE', *, *, #51, .T. ) ;
#168 = CARTESIAN_POINT ( 'NONE',  ( 0.000000000000000000, 0.000000000000000000, 1.968503999999999809 ) ) ;
#169 = CARTESIAN_POINT ( 'NONE',  ( -0.06374000000000018540, 0.000000000000000000, 1.968503999999999809 ) ) ;
#170 = DIRECTION ( 'NONE',  ( 0.000000000000000000, 0.000000000000000000, -1.000000000000000000 ) ) ;
#171 = ADVANCED_FACE ( 'NONE', ( #195 ), #291, .T. ) ;
#172 = DIRECTION ( 'NONE',  ( 0.000000000000000000, 0.000000000000000000, 1.000000000000000000 ) ) ;
#173 = CYLINDRICAL_SURFACE ( 'NONE', #210, 0.02949797249999999357 ) ;
#174 =( GEOMETRIC_REPRESENTATION_CONTEXT ( 3 ) GLOBAL_UNCERTAINTY_ASSIGNED_CONTEXT ( ( #18 ) ) GLOBAL_UNIT_ASSIGNED_CONTEXT ( ( #25, #232, #156 ) ) REPRESENTATION_CONTEXT ( 'NONE', 'WORKASPACE' ) );
#175 = VERTEX_POINT ( 'NONE', #200 ) ;
#176 = DIRECTION ( 'NONE',  ( 0.000000000000000000, 0.000000000000000000, 1.000000000000000000 ) ) ;
#177 = FACE_OUTER_BOUND ( 'NONE', #23, .T. ) ;
#178 = AXIS2_PLACEMENT_3D ( 'NONE', #32, #292, #12 ) ;
#179 = PRODUCT_DEFINITION_FORMATION_WITH_SPECIFIED_SOURCE ( 'ANY', '', #244, .NOT_KNOWN. ) ;
#180 = DIRECTION ( 'NONE',  ( 1.000000000000000000, 0.000000000000000000, 0.000000000000000000 ) ) ;
#181 = LENGTH_MEASURE_WITH_UNIT ( LENGTH_MEASURE( 0.02539999999999999897 ), #235 );
#182 = ADVANCED_FACE ( 'NONE', ( #293 ), #173, .T. ) ;
#183 =( NAMED_UNIT ( * ) SI_UNIT ( $, .STERADIAN. ) SOLID_ANGLE_UNIT ( ) );
#184 = FILL_AREA_STYLE_COLOUR ( '', #254 ) ;
#185 = DIMENSIONAL_EXPONENTS ( 1.000000000000000000, 0.000000000000000000, 0.000000000000000000, 0.000000000000000000, 0.000000000000000000, 0.000000000000000000, 0.000000000000000000 ) ;
#186 = PRODUCT_DEFINITION ( 'UNKNOWN', '', #179, #108 ) ;
#187 = DIRECTION ( 'NONE',  ( 0.000000000000000000, 0.000000000000000000, -1.000000000000000000 ) ) ;
#188 = DIRECTION ( 'NONE',  ( 1.000000000000000000, 0.000000000000000000, 0.000000000000000000 ) ) ;
#189 = CIRCLE ( 'NONE', #63, 0.07874000000000000443 ) ;
#190 = ORIENTED_EDGE ( 'NONE', *, *, #98, .F. ) ;
#191 = CARTESIAN_POINT ( 'NONE',  ( -0.02949797250000000398, 0.000000000000000000, 7.224919520692329689E-18 ) ) ;
#192 = ORIENTED_EDGE ( 'NONE', *, *, #268, .F. ) ;
#193 = AXIS2_PLACEMENT_3D ( 'NONE', #164, #80, #270 ) ;
#194 = CARTESIAN_POINT ( 'NONE',  ( 1.928573779297251702E-17, 0.000000000000000000, 0.1574800000000000089 ) ) ;
#195 = FACE_OUTER_BOUND ( 'NONE', #263, .T. ) ;
#196 = EDGE_LOOP ( 'NONE', ( #297, #243, #48, #252 ) ) ;
#197 = VECTOR ( 'NONE', #201, 39.37007874015748854 ) ;
#198 = EDGE_CURVE ( 'NONE', #148, #237, #189, .T. ) ;
#199 =( NAMED_UNIT ( * ) PLANE_ANGLE_UNIT ( ) SI_UNIT ( $, .RADIAN. ) );
#200 = CARTESIAN_POINT ( 'NONE',  ( 0.02949797250000000745, 3.612459760346164844E-18, -9.478001694819074349E-34 ) ) ;
#201 = DIRECTION ( 'NONE',  ( -0.7071067811865502373, 0.000000000000000000, -0.7071067811865446862 ) ) ;
#202 = CARTESIAN_POINT ( 'NONE',  ( -0.02949797249999996929, 3.612459760346163304E-18, 0.1574800000000000089 ) ) ;
#203 = PRESENTATION_STYLE_ASSIGNMENT (( #145 ) ) ;
#204 =( GEOMETRIC_REPRESENTATION_CONTEXT ( 3 ) GLOBAL_UNCERTAINTY_ASSIGNED_CONTEXT ( ( #249 ) ) GLOBAL_UNIT_ASSIGNED_CONTEXT ( ( #35, #199, #34 ) ) REPRESENTATION_CONTEXT ( 'NONE', 'WORKASPACE' ) );
#205 = FACE_OUTER_BOUND ( 'NONE', #110, .T. ) ;
#206 = CARTESIAN_POINT ( 'NONE',  ( -0.07874000000000000443, 0.000000000000000000, 1.953504000000000129 ) ) ;
#207 = AXIS2_PLACEMENT_3D ( 'NONE', #194, #128, #149 ) ;
#208 = AXIS2_PLACEMENT_3D ( 'NONE', #1, #40, #140 ) ;
#209 = DIRECTION ( 'NONE',  ( -1.000000000000000000, 0.000000000000000000, 1.224646799147353207E-16 ) ) ;
#210 = AXIS2_PLACEMENT_3D ( 'NONE', #152, #30, #220 ) ;
#211 = LINE ( 'NONE', #44, #162 ) ;
#212 = DIMENSIONAL_EXPONENTS ( 1.000000000000000000, 0.000000000000000000, 0.000000000000000000, 0.000000000000000000, 0.000000000000000000, 0.000000000000000000, 0.000000000000000000 ) ;
#213 = CONICAL_SURFACE ( 'NONE', #20, 0.06374000000000018540, 0.7853981633974522758 ) ;
#214 = DIRECTION ( 'NONE',  ( -1.224646799147353207E-16, -0.000000000000000000, -1.000000000000000000 ) ) ;
#215 = EDGE_LOOP ( 'NONE', ( #7, #27, #119, #153 ) ) ;
#216 = ADVANCED_BREP_SHAPE_REPRESENTATION ( 'Micro_AEMM-015-4', ( #66, #31 ), #174 ) ;
#217 = EDGE_LOOP ( 'NONE', ( #282, #267, #239, #64 ) ) ;
#218 = EDGE_CURVE ( 'NONE', #294, #73, #36, .T. ) ;
#219 = AXIS2_PLACEMENT_3D ( 'NONE', #10, #172, #100 ) ;
#220 = DIRECTION ( 'NONE',  ( -1.000000000000000000, 0.000000000000000000, 1.224646799147353207E-16 ) ) ;
#221 = EDGE_LOOP ( 'NONE', ( #29, #3, #45, #155 ) ) ;
#222 = CARTESIAN_POINT ( 'NONE',  ( 0.000000000000000000, 0.000000000000000000, 1.968503999999999809 ) ) ;
#223 = ORIENTED_EDGE ( 'NONE', *, *, #4, .F. ) ;
#224 = EDGE_CURVE ( 'NONE', #6, #82, #88, .T. ) ;
#225 = CIRCLE ( 'NONE', #207, 0.02949797249999999010 ) ;
#226 = CARTESIAN_POINT ( 'NONE',  ( 0.000000000000000000, 0.000000000000000000, 1.968503999999999809 ) ) ;
#227 = EDGE_CURVE ( 'NONE', #116, #6, #261, .T. ) ;
#228 = CIRCLE ( 'NONE', #81, 0.07874000000000000443 ) ;
#229 = UNCERTAINTY_MEASURE_WITH_UNIT (LENGTH_MEASURE( 1.000000000000000082E-05 ), #157, 'distance_accuracy_value', 'NONE');
#230 = LINE ( 'NONE', #283, #197 ) ;
#231 = CIRCLE ( 'NONE', #84, 0.07874000000000000443 ) ;
#232 =( NAMED_UNIT ( * ) PLANE_ANGLE_UNIT ( ) SI_UNIT ( $, .RADIAN. ) );
#233 = CARTESIAN_POINT ( 'NONE',  ( 0.000000000000000000, 0.000000000000000000, 0.000000000000000000 ) ) ;
#234 = MECHANICAL_DESIGN_GEOMETRIC_PRESENTATION_REPRESENTATION (  '', ( #70 ), #204 ) ;
#235 =( LENGTH_UNIT ( ) NAMED_UNIT ( * ) SI_UNIT ( $, .METRE. ) );
#236 = VERTEX_POINT ( 'NONE', #206 ) ;
#237 = VERTEX_POINT ( 'NONE', #296 ) ;
#238 = ORIENTED_EDGE ( 'NONE', *, *, #198, .T. ) ;
#239 = ORIENTED_EDGE ( 'NONE', *, *, #280, .T. ) ;
#240 = COLOUR_RGB ( '',0.7921568627450980005, 0.8196078431372548767, 0.9333333333333333481 ) ;
#241 = APPLICATION_CONTEXT ( 'automotive_design' ) ;
#242 = LINE ( 'NONE', #124, #250 ) ;
#243 = ORIENTED_EDGE ( 'NONE', *, *, #114, .T. ) ;
#244 = PRODUCT ( 'Micro_AEMM-015-4', 'Micro_AEMM-015-4', '', ( #134 ) ) ;
#245 = DIRECTION ( 'NONE',  ( -1.000000000000000000, 0.000000000000000000, 0.000000000000000000 ) ) ;
#246 = CIRCLE ( 'NONE', #113, 0.02949797250000000398 ) ;
#247 = DIRECTION ( 'NONE',  ( 1.000000000000000000, 0.000000000000000000, 0.000000000000000000 ) ) ;
#248 = CARTESIAN_POINT ( 'NONE',  ( 0.000000000000000000, 0.000000000000000000, 1.968503999999999809 ) ) ;
#249 = UNCERTAINTY_MEASURE_WITH_UNIT (LENGTH_MEASURE( 1.000000000000000082E-05 ), #35, 'distance_accuracy_value', 'NONE');
#250 = VECTOR ( 'NONE', #53, 39.37007874015748143 ) ;
#251 = ADVANCED_FACE ( 'NONE', ( #205 ), #259, .T. ) ;
#252 = ORIENTED_EDGE ( 'NONE', *, *, #95, .F. ) ;
#253 = FILL_AREA_STYLE ('',( #87 ) ) ;
#254 = COLOUR_RGB ( '',0.7921568627450980005, 0.8196078431372548767, 0.9333333333333333481 ) ;
#255 = DIRECTION ( 'NONE',  ( -0.1736481776669311916, 2.126576849575783316E-17, 0.9848077530122080203 ) ) ;
#256 = DIRECTION ( 'NONE',  ( 1.000000000000000000, 0.000000000000000000, -0.000000000000000000 ) ) ;
#257 = ADVANCED_FACE ( 'NONE', ( #177 ), #19, .T. ) ;
#258 = CARTESIAN_POINT ( 'NONE',  ( 0.000000000000000000, 0.000000000000000000, 1.953504000000000129 ) ) ;
#259 = CYLINDRICAL_SURFACE ( 'NONE', #275, 0.07874000000000000443 ) ;
#260 =( NAMED_UNIT ( * ) PLANE_ANGLE_UNIT ( ) SI_UNIT ( $, .RADIAN. ) );
#261 = CIRCLE ( 'NONE', #97, 0.06374000000000018540 ) ;
#262 = APPLICATION_CONTEXT ( 'automotive_design' ) ;
#263 = EDGE_LOOP ( 'NONE', ( #190, #167, #117, #286 ) ) ;
#264 = DIRECTION ( 'NONE',  ( 0.000000000000000000, 0.000000000000000000, 1.000000000000000000 ) ) ;
#265 = FACE_OUTER_BOUND ( 'NONE', #47, .T. ) ;
#266 = FILL_AREA_STYLE ('',( #184 ) ) ;
#267 = ORIENTED_EDGE ( 'NONE', *, *, #227, .F. ) ;
#268 = EDGE_CURVE ( 'NONE', #294, #237, #107, .T. ) ;
#269 = CARTESIAN_POINT ( 'NONE',  ( 4.423987282556545948E-34, 0.000000000000000000, 3.612459760346164844E-18 ) ) ;
#270 = DIRECTION ( 'NONE',  ( -1.000000000000000000, 0.000000000000000000, 1.224646799147352961E-16 ) ) ;
#271 =( GEOMETRIC_REPRESENTATION_CONTEXT ( 3 ) GLOBAL_UNCERTAINTY_ASSIGNED_CONTEXT ( ( #229 ) ) GLOBAL_UNIT_ASSIGNED_CONTEXT ( ( #157, #260, #183 ) ) REPRESENTATION_CONTEXT ( 'NONE', 'WORKASPACE' ) );
#272 = DIRECTION ( 'NONE',  ( -0.000000000000000000, -0.000000000000000000, -1.000000000000000000 ) ) ;
#273 = PRESENTATION_LAYER_ASSIGNMENT (  '', '', ( #70 ) ) ;
#274 = LINE ( 'NONE', #52, #137 ) ;
#275 = AXIS2_PLACEMENT_3D ( 'NONE', #154, #112, #298 ) ;
#276 = ADVANCED_FACE ( 'NONE', ( #279 ), #39, .T. ) ;
#277 = ORIENTED_EDGE ( 'NONE', *, *, #11, .T. ) ;
#278 = PRESENTATION_STYLE_ASSIGNMENT (( #106 ) ) ;
#279 = FACE_OUTER_BOUND ( 'NONE', #217, .T. ) ;
#280 = EDGE_CURVE ( 'NONE', #116, #236, #230, .T. ) ;
#281 = PRESENTATION_LAYER_ASSIGNMENT (  '', '', ( #42 ) ) ;
#282 = ORIENTED_EDGE ( 'NONE', *, *, #224, .F. ) ;
#283 = CARTESIAN_POINT ( 'NONE',  ( -0.06374000000000018540, 0.000000000000000000, 1.968503999999999809 ) ) ;
#284 = DIRECTION ( 'NONE',  ( -1.000000000000000000, 0.000000000000000000, 0.000000000000000000 ) ) ;
#285 = SURFACE_SIDE_STYLE ('',( #288 ) ) ;
#286 = ORIENTED_EDGE ( 'NONE', *, *, #198, .F. ) ;
#287 = CARTESIAN_POINT ( 'NONE',  ( 0.06374000000000018540, 8.724383797125754882E-18, 1.968503999999999809 ) ) ;
#288 = SURFACE_STYLE_FILL_AREA ( #266 ) ;
#289 = CARTESIAN_POINT ( 'NONE',  ( 5.348588749162019150E-17, 0.000000000000000000, 0.4367454153218638391 ) ) ;
#290 = DIRECTION ( 'NONE',  ( 0.000000000000000000, 0.000000000000000000, -1.000000000000000000 ) ) ;
#291 = CYLINDRICAL_SURFACE ( 'NONE', #46, 0.07874000000000000443 ) ;
#292 = DIRECTION ( 'NONE',  ( -1.224646799147353207E-16, -0.000000000000000000, -1.000000000000000000 ) ) ;
#293 = FACE_OUTER_BOUND ( 'NONE', #196, .T. ) ;
#294 = VERTEX_POINT ( 'NONE', #65 ) ;
#295 = SURFACE_SIDE_STYLE ('',( #41 ) ) ;
#296 = CARTESIAN_POINT ( 'NONE',  ( -0.07873999999999994892, 0.000000000000000000, 0.4367454153218638391 ) ) ;
#297 = ORIENTED_EDGE ( 'NONE', *, *, #11, .F. ) ;
#298 = DIRECTION ( 'NONE',  ( -1.000000000000000000, 0.000000000000000000, 0.000000000000000000 ) ) ;
#299 = AXIS2_PLACEMENT_3D ( 'NONE', #233, #69, #209 ) ;
ENDSEC;
END-ISO-10303-21;
