ISO-10303-21;
HEADER;
FILE_DESCRIPTION (( 'STEP AP214' ),
    '1' );
FILE_NAME ('Micro_SEM-390-04.STEP',
    '2021-09-02T03:13:45',
    ( '' ),
    ( '' ),
    'SwSTEP 2.0',
    'SolidWorks 2020',
    '' );
FILE_SCHEMA (( 'AUTOMOTIVE_DESIGN' ));
ENDSEC;

DATA;
#1 = DIRECTION ( 'NONE',  ( 1.000000000000000000, 0.0000000000000000000, -0.0000000000000000000 ) ) ;
#2 = EDGE_CURVE ( 'NONE', #37, #89, #80, .T. ) ;
#3 = EDGE_CURVE ( 'NONE', #63, #257, #118, .T. ) ;
#4 = VECTOR ( 'NONE', #229, 39.37007874015748143 ) ;
#5 = FACE_OUTER_BOUND ( 'NONE', #144, .T. ) ;
#6 = ADVANCED_BREP_SHAPE_REPRESENTATION ( 'Micro_SEM-390-04', ( #100, #93 ), #152 ) ;
#7 =( CONVERSION_BASED_UNIT ( 'INCH', #225 ) LENGTH_UNIT ( ) NAMED_UNIT ( #33 ) );
#8 = DIRECTION ( 'NONE',  ( 0.7071067811865621167, 8.659560562355110352E-17, -0.7071067811865330288 ) ) ;
#9 = VECTOR ( 'NONE', #49, 39.37007874015748143 ) ;
#10 = PRESENTATION_LAYER_ASSIGNMENT (  '', '', ( #283 ) ) ;
#11 = CARTESIAN_POINT ( 'NONE',  ( 0.1951046999999999920, 2.389343463536045978E-17, 0.0000000000000000000 ) ) ;
#12 = DIMENSIONAL_EXPONENTS ( 1.000000000000000000, 0.0000000000000000000, 0.0000000000000000000, 0.0000000000000000000, 0.0000000000000000000, 0.0000000000000000000, 0.0000000000000000000 ) ;
#13 = CARTESIAN_POINT ( 'NONE',  ( 0.1951047000000001030, 0.0000000000000000000, 0.6250000000000000000 ) ) ;
#14 = DIRECTION ( 'NONE',  ( -1.000000000000000000, 0.0000000000000000000, 1.224646799147353207E-16 ) ) ;
#15 = CARTESIAN_POINT ( 'NONE',  ( 0.0000000000000000000, 0.0000000000000000000, 2.484999999999999876 ) ) ;
#16 = CARTESIAN_POINT ( 'NONE',  ( 0.0000000000000000000, 0.0000000000000000000, 0.0000000000000000000 ) ) ;
#17 = ORIENTED_EDGE ( 'NONE', *, *, #129, .T. ) ;
#18 = CYLINDRICAL_SURFACE ( 'NONE', #282, 0.2187500000000000000 ) ;
#19 = ORIENTED_EDGE ( 'NONE', *, *, #48, .T. ) ;
#20 = DIRECTION ( 'NONE',  ( 0.0000000000000000000, 0.0000000000000000000, 1.000000000000000000 ) ) ;
#21 = VERTEX_POINT ( 'NONE', #228 ) ;
#22 = CONICAL_SURFACE ( 'NONE', #151, 0.1951047000000000198, 0.1745329251994339748 ) ;
#23 = PRESENTATION_STYLE_ASSIGNMENT (( #62 ) ) ;
#24 = FACE_OUTER_BOUND ( 'NONE', #41, .T. ) ;
#25 = CARTESIAN_POINT ( 'NONE',  ( 0.2187500000000000833, 2.678914873134836296E-17, 0.7590991600094056935 ) ) ;
#26 = AXIS2_PLACEMENT_3D ( 'NONE', #266, #207, #250 ) ;
#27 = EDGE_CURVE ( 'NONE', #63, #271, #128, .T. ) ;
#28 = CARTESIAN_POINT ( 'NONE',  ( -0.1951046999999999920, 0.0000000000000000000, 4.778686927072091956E-17 ) ) ;
#29 = UNCERTAINTY_MEASURE_WITH_UNIT (LENGTH_MEASURE( 1.000000000000000082E-05 ), #7, 'distance_accuracy_value', 'NONE');
#30 = AXIS2_PLACEMENT_3D ( 'NONE', #91, #276, #143 ) ;
#31 = MECHANICAL_DESIGN_GEOMETRIC_PRESENTATION_REPRESENTATION (  '', ( #283 ), #210 ) ;
#32 = ORIENTED_EDGE ( 'NONE', *, *, #134, .T. ) ;
#33 = DIMENSIONAL_EXPONENTS ( 1.000000000000000000, 0.0000000000000000000, 0.0000000000000000000, 0.0000000000000000000, 0.0000000000000000000, 0.0000000000000000000, 0.0000000000000000000 ) ;
#34 = DIRECTION ( 'NONE',  ( 1.000000000000000000, 0.0000000000000000000, -0.0000000000000000000 ) ) ;
#35 = ORIENTED_EDGE ( 'NONE', *, *, #265, .T. ) ;
#36 = EDGE_CURVE ( 'NONE', #89, #37, #274, .T. ) ;
#37 = VERTEX_POINT ( 'NONE', #289 ) ;
#38 = EDGE_LOOP ( 'NONE', ( #158, #234, #233, #290 ) ) ;
#39 = ADVANCED_FACE ( 'NONE', ( #56 ), #180, .T. ) ;
#40 = DIRECTION ( 'NONE',  ( -1.224646799147353207E-16, -0.0000000000000000000, -1.000000000000000000 ) ) ;
#41 = EDGE_LOOP ( 'NONE', ( #269, #108 ) ) ;
#42 = CARTESIAN_POINT ( 'NONE',  ( 2.926101824683069354E-33, 0.0000000000000000000, 2.389343463536045978E-17 ) ) ;
#43 = DIRECTION ( 'NONE',  ( 0.0000000000000000000, 0.0000000000000000000, 1.000000000000000000 ) ) ;
#44 = ORIENTED_EDGE ( 'NONE', *, *, #36, .T. ) ;
#45 =( NAMED_UNIT ( * ) PLANE_ANGLE_UNIT ( ) SI_UNIT ( $, .RADIAN. ) );
#46 = DIRECTION ( 'NONE',  ( -0.0000000000000000000, -0.0000000000000000000, -1.000000000000000000 ) ) ;
#47 = DIRECTION ( 'NONE',  ( -0.1736481776669312471, 2.126576849575783933E-17, 0.9848077530122077983 ) ) ;
#48 = EDGE_CURVE ( 'NONE', #257, #63, #258, .T. ) ;
#49 = DIRECTION ( 'NONE',  ( -1.224646799147353207E-16, -0.0000000000000000000, -1.000000000000000000 ) ) ;
#50 = LINE ( 'NONE', #123, #9 ) ;
#51 = VECTOR ( 'NONE', #138, 39.37007874015748143 ) ;
#52 = DIRECTION ( 'NONE',  ( 1.000000000000000000, 0.0000000000000000000, 0.0000000000000000000 ) ) ;
#53 = AXIS2_PLACEMENT_3D ( 'NONE', #15, #294, #125 ) ;
#54 = ADVANCED_FACE ( 'NONE', ( #286 ), #87, .T. ) ;
#55 = CARTESIAN_POINT ( 'NONE',  ( -0.2037499999999991263, 0.0000000000000000000, 2.500000000000000000 ) ) ;
#56 = FACE_OUTER_BOUND ( 'NONE', #113, .T. ) ;
#57 = ORIENTED_EDGE ( 'NONE', *, *, #2, .F. ) ;
#58 = ORIENTED_EDGE ( 'NONE', *, *, #48, .F. ) ;
#59 = AXIS2_PLACEMENT_3D ( 'NONE', #231, #101, #252 ) ;
#60 = CARTESIAN_POINT ( 'NONE',  ( 0.0000000000000000000, 0.0000000000000000000, 2.500000000000000000 ) ) ;
#61 = ORIENTED_EDGE ( 'NONE', *, *, #94, .T. ) ;
#62 = SURFACE_STYLE_USAGE ( .BOTH. , #236 ) ;
#63 = VERTEX_POINT ( 'NONE', #13 ) ;
#64 = LINE ( 'NONE', #218, #51 ) ;
#65 = ORIENTED_EDGE ( 'NONE', *, *, #27, .F. ) ;
#66 = CONICAL_SURFACE ( 'NONE', #141, 0.2037499999999991263, 0.7853981633974688181 ) ;
#67 = DIRECTION ( 'NONE',  ( -1.224646799147353207E-16, -0.0000000000000000000, -1.000000000000000000 ) ) ;
#68 = CARTESIAN_POINT ( 'NONE',  ( -0.1951046999999999643, 2.389343463536046286E-17, 0.6250000000000000000 ) ) ;
#69 = DIRECTION ( 'NONE',  ( 0.0000000000000000000, 0.0000000000000000000, 1.000000000000000000 ) ) ;
#70 = ADVANCED_FACE ( 'NONE', ( #198 ), #18, .T. ) ;
#71 = VECTOR ( 'NONE', #46, 39.37007874015748143 ) ;
#72 = FACE_OUTER_BOUND ( 'NONE', #83, .T. ) ;
#73 = CARTESIAN_POINT ( 'NONE',  ( 0.2037499999999991263, 2.495217853262720780E-17, 2.500000000000000000 ) ) ;
#74 =( LENGTH_UNIT ( ) NAMED_UNIT ( * ) SI_UNIT ( $, .METRE. ) );
#75 = ORIENTED_EDGE ( 'NONE', *, *, #3, .F. ) ;
#76 =( LENGTH_UNIT ( ) NAMED_UNIT ( * ) SI_UNIT ( $, .METRE. ) );
#77 = ADVANCED_FACE ( 'NONE', ( #159 ), #209, .T. ) ;
#78 = DIRECTION ( 'NONE',  ( 1.000000000000000000, 0.0000000000000000000, 0.0000000000000000000 ) ) ;
#79 = ORIENTED_EDGE ( 'NONE', *, *, #129, .F. ) ;
#80 = CIRCLE ( 'NONE', #59, 0.2187500000000000000 ) ;
#81 = COLOUR_RGB ( '',0.7921568627450980005, 0.8196078431372548767, 0.9333333333333333481 ) ;
#82 = DIRECTION ( 'NONE',  ( -0.7071067811865621167, 0.0000000000000000000, -0.7071067811865330288 ) ) ;
#83 = EDGE_LOOP ( 'NONE', ( #253, #75, #136, #130 ) ) ;
#84 = CARTESIAN_POINT ( 'NONE',  ( 0.0000000000000000000, 0.0000000000000000000, 0.0000000000000000000 ) ) ;
#85 = ORIENTED_EDGE ( 'NONE', *, *, #260, .T. ) ;
#86 = CIRCLE ( 'NONE', #167, 0.2187500000000000000 ) ;
#87 = CYLINDRICAL_SURFACE ( 'NONE', #171, 0.1951046999999999920 ) ;
#88 = EDGE_CURVE ( 'NONE', #181, #21, #86, .T. ) ;
#89 = VERTEX_POINT ( 'NONE', #270 ) ;
#90 = CYLINDRICAL_SURFACE ( 'NONE', #30, 0.2187500000000000000 ) ;
#91 = CARTESIAN_POINT ( 'NONE',  ( 0.0000000000000000000, 0.0000000000000000000, 2.500000000000000000 ) ) ;
#92 =( GEOMETRIC_REPRESENTATION_CONTEXT ( 3 ) GLOBAL_UNCERTAINTY_ASSIGNED_CONTEXT ( ( #191 ) ) GLOBAL_UNIT_ASSIGNED_CONTEXT ( ( #185, #45, #137 ) ) REPRESENTATION_CONTEXT ( 'NONE', 'WORKASPACE' ) );
#93 = AXIS2_PLACEMENT_3D ( 'NONE', #16, #237, #104 ) ;
#94 = EDGE_CURVE ( 'NONE', #163, #89, #173, .T. ) ;
#95 = DIRECTION ( 'NONE',  ( 1.000000000000000000, 0.0000000000000000000, 0.0000000000000000000 ) ) ;
#96 = PRESENTATION_STYLE_ASSIGNMENT (( #264 ) ) ;
#97 = ADVANCED_FACE ( 'NONE', ( #235 ), #201, .T. ) ;
#98 =( NAMED_UNIT ( * ) SI_UNIT ( $, .STERADIAN. ) SOLID_ANGLE_UNIT ( ) );
#99 = DIRECTION ( 'NONE',  ( -1.000000000000000000, 0.0000000000000000000, 0.0000000000000000000 ) ) ;
#100 = MANIFOLD_SOLID_BREP ( 'Cut-Revolve1', #222 ) ;
#101 = DIRECTION ( 'NONE',  ( 0.0000000000000000000, 0.0000000000000000000, -1.000000000000000000 ) ) ;
#102 = ORIENTED_EDGE ( 'NONE', *, *, #177, .F. ) ;
#103 = CARTESIAN_POINT ( 'NONE',  ( 7.654042494670957853E-17, 0.0000000000000000000, 0.6250000000000000000 ) ) ;
#104 = DIRECTION ( 'NONE',  ( 1.000000000000000000, 0.0000000000000000000, 0.0000000000000000000 ) ) ;
#105 = VERTEX_POINT ( 'NONE', #28 ) ;
#106 = ORIENTED_EDGE ( 'NONE', *, *, #27, .T. ) ;
#107 = DIRECTION ( 'NONE',  ( -1.224646799147353207E-16, -0.0000000000000000000, -1.000000000000000000 ) ) ;
#108 = ORIENTED_EDGE ( 'NONE', *, *, #179, .T. ) ;
#109 = CIRCLE ( 'NONE', #131, 0.2187500000000000000 ) ;
#110 = DIRECTION ( 'NONE',  ( -1.000000000000000000, 0.0000000000000000000, 1.224646799147353207E-16 ) ) ;
#111 = CARTESIAN_POINT ( 'NONE',  ( -0.1951046999999999643, 2.534129168335440367E-17, 0.6250000000000000000 ) ) ;
#112 = FACE_OUTER_BOUND ( 'NONE', #38, .T. ) ;
#113 = EDGE_LOOP ( 'NONE', ( #19, #106, #202, #160 ) ) ;
#114 = VECTOR ( 'NONE', #82, 39.37007874015747433 ) ;
#115 = PRODUCT_DEFINITION_FORMATION_WITH_SPECIFIED_SOURCE ( 'ANY', '', #195, .NOT_KNOWN. ) ;
#116 = CARTESIAN_POINT ( 'NONE',  ( 0.0000000000000000000, 0.0000000000000000000, 2.500000000000000000 ) ) ;
#117 = DIRECTION ( 'NONE',  ( 1.000000000000000000, 0.0000000000000000000, 0.0000000000000000000 ) ) ;
#118 = CIRCLE ( 'NONE', #26, 0.1951047000000000198 ) ;
#119 = LENGTH_MEASURE_WITH_UNIT ( LENGTH_MEASURE( 0.02539999999999999897 ), #74 );
#120 = AXIS2_PLACEMENT_3D ( 'NONE', #154, #20, #34 ) ;
#121 = SURFACE_SIDE_STYLE ('',( #284 ) ) ;
#122 = EDGE_CURVE ( 'NONE', #105, #271, #196, .T. ) ;
#123 = CARTESIAN_POINT ( 'NONE',  ( -0.1951046999999999920, 0.0000000000000000000, 2.389343463536045978E-17 ) ) ;
#124 = DIRECTION ( 'NONE',  ( 0.0000000000000000000, 0.0000000000000000000, -1.000000000000000000 ) ) ;
#125 = DIRECTION ( 'NONE',  ( 1.000000000000000000, 0.0000000000000000000, 0.0000000000000000000 ) ) ;
#126 = CARTESIAN_POINT ( 'NONE',  ( 0.1951046999999999920, 2.389343463536045978E-17, -2.389343463536045978E-17 ) ) ;
#127 = EDGE_LOOP ( 'NONE', ( #204, #147, #17, #178 ) ) ;
#128 = LINE ( 'NONE', #126, #4 ) ;
#129 = EDGE_CURVE ( 'NONE', #89, #21, #211, .T. ) ;
#130 = ORIENTED_EDGE ( 'NONE', *, *, #88, .T. ) ;
#131 = AXIS2_PLACEMENT_3D ( 'NONE', #272, #67, #117 ) ;
#132 = DIRECTION ( 'NONE',  ( -1.224646799147353207E-16, -0.0000000000000000000, -1.000000000000000000 ) ) ;
#133 = PRODUCT_CONTEXT ( 'NONE', #197, 'mechanical' ) ;
#134 = EDGE_CURVE ( 'NONE', #176, #163, #188, .T. ) ;
#135 = DIRECTION ( 'NONE',  ( 1.000000000000000000, 0.0000000000000000000, 0.0000000000000000000 ) ) ;
#136 = ORIENTED_EDGE ( 'NONE', *, *, #219, .T. ) ;
#137 =( NAMED_UNIT ( * ) SI_UNIT ( $, .STERADIAN. ) SOLID_ANGLE_UNIT ( ) );
#138 = DIRECTION ( 'NONE',  ( 0.1736481776669314692, 0.0000000000000000000, 0.9848077530122077983 ) ) ;
#139 = FACE_OUTER_BOUND ( 'NONE', #127, .T. ) ;
#140 = DIRECTION ( 'NONE',  ( 1.000000000000000000, 0.0000000000000000000, 0.0000000000000000000 ) ) ;
#141 = AXIS2_PLACEMENT_3D ( 'NONE', #212, #187, #261 ) ;
#142 = COLOUR_RGB ( '',0.7921568627450980005, 0.8196078431372548767, 0.9333333333333333481 ) ;
#143 = DIRECTION ( 'NONE',  ( -1.000000000000000000, 0.0000000000000000000, 0.0000000000000000000 ) ) ;
#144 = EDGE_LOOP ( 'NONE', ( #295, #296, #61, #57 ) ) ;
#145 = ADVANCED_FACE ( 'NONE', ( #139 ), #90, .T. ) ;
#146 = FILL_AREA_STYLE ('',( #193 ) ) ;
#147 = ORIENTED_EDGE ( 'NONE', *, *, #2, .T. ) ;
#148 = AXIS2_PLACEMENT_3D ( 'NONE', #103, #267, #203 ) ;
#149 = DIRECTION ( 'NONE',  ( 1.224646799147353207E-16, 0.0000000000000000000, 1.000000000000000000 ) ) ;
#150 =( NAMED_UNIT ( * ) SI_UNIT ( $, .STERADIAN. ) SOLID_ANGLE_UNIT ( ) );
#151 = AXIS2_PLACEMENT_3D ( 'NONE', #246, #149, #52 ) ;
#152 =( GEOMETRIC_REPRESENTATION_CONTEXT ( 3 ) GLOBAL_UNCERTAINTY_ASSIGNED_CONTEXT ( ( #277 ) ) GLOBAL_UNIT_ASSIGNED_CONTEXT ( ( #221, #247, #98 ) ) REPRESENTATION_CONTEXT ( 'NONE', 'WORKASPACE' ) );
#153 = EDGE_CURVE ( 'NONE', #257, #21, #166, .T. ) ;
#154 = CARTESIAN_POINT ( 'NONE',  ( 0.0000000000000000000, 0.0000000000000000000, 2.500000000000000000 ) ) ;
#155 = ORIENTED_EDGE ( 'NONE', *, *, #177, .T. ) ;
#156 = ADVANCED_FACE ( 'NONE', ( #112 ), #66, .T. ) ;
#157 = DIRECTION ( 'NONE',  ( -1.000000000000000000, 0.0000000000000000000, 1.224646799147353207E-16 ) ) ;
#158 = ORIENTED_EDGE ( 'NONE', *, *, #134, .F. ) ;
#159 = FACE_OUTER_BOUND ( 'NONE', #255, .T. ) ;
#160 = ORIENTED_EDGE ( 'NONE', *, *, #260, .F. ) ;
#161 = AXIS2_PLACEMENT_3D ( 'NONE', #224, #124, #99 ) ;
#162 = DIRECTION ( 'NONE',  ( -1.000000000000000000, 0.0000000000000000000, 0.0000000000000000000 ) ) ;
#163 = VERTEX_POINT ( 'NONE', #259 ) ;
#164 = FILL_AREA_STYLE_COLOUR ( '', #81 ) ;
#165 = EDGE_LOOP ( 'NONE', ( #65, #184, #85, #251 ) ) ;
#166 = LINE ( 'NONE', #68, #200 ) ;
#167 = AXIS2_PLACEMENT_3D ( 'NONE', #256, #40, #135 ) ;
#168 = DIRECTION ( 'NONE',  ( -1.224646799147353207E-16, -0.0000000000000000000, -1.000000000000000000 ) ) ;
#169 = AXIS2_PLACEMENT_3D ( 'NONE', #254, #205, #78 ) ;
#170 = LINE ( 'NONE', #73, #227 ) ;
#171 = AXIS2_PLACEMENT_3D ( 'NONE', #183, #132, #14 ) ;
#172 = PRODUCT_RELATED_PRODUCT_CATEGORY ( 'part', '', ( #195 ) ) ;
#173 = LINE ( 'NONE', #55, #114 ) ;
#174 = ORIENTED_EDGE ( 'NONE', *, *, #153, .T. ) ;
#175 = CARTESIAN_POINT ( 'NONE',  ( 2.926101824683069354E-33, 0.0000000000000000000, 2.389343463536045978E-17 ) ) ;
#176 = VERTEX_POINT ( 'NONE', #273 ) ;
#177 = EDGE_CURVE ( 'NONE', #21, #181, #109, .T. ) ;
#178 = ORIENTED_EDGE ( 'NONE', *, *, #88, .F. ) ;
#179 = EDGE_CURVE ( 'NONE', #271, #105, #288, .T. ) ;
#180 = CYLINDRICAL_SURFACE ( 'NONE', #287, 0.1951046999999999920 ) ;
#181 = VERTEX_POINT ( 'NONE', #25 ) ;
#182 = VECTOR ( 'NONE', #279, 39.37007874015748143 ) ;
#183 = CARTESIAN_POINT ( 'NONE',  ( 0.0000000000000000000, 0.0000000000000000000, 0.0000000000000000000 ) ) ;
#184 = ORIENTED_EDGE ( 'NONE', *, *, #3, .T. ) ;
#185 =( CONVERSION_BASED_UNIT ( 'INCH', #239 ) LENGTH_UNIT ( ) NAMED_UNIT ( #12 ) );
#186 = APPLICATION_PROTOCOL_DEFINITION ( 'draft international standard', 'automotive_design', 1998, #194 ) ;
#187 = DIRECTION ( 'NONE',  ( 0.0000000000000000000, 0.0000000000000000000, -1.000000000000000000 ) ) ;
#188 = CIRCLE ( 'NONE', #263, 0.2037499999999991263 ) ;
#189 = SURFACE_STYLE_FILL_AREA ( #214 ) ;
#190 = PLANE ( 'NONE',  #216 ) ;
#191 = UNCERTAINTY_MEASURE_WITH_UNIT (LENGTH_MEASURE( 1.000000000000000082E-05 ), #185, 'distance_accuracy_value', 'NONE');
#192 = DIRECTION ( 'NONE',  ( -1.224646799147353207E-16, -0.0000000000000000000, -1.000000000000000000 ) ) ;
#193 = FILL_AREA_STYLE_COLOUR ( '', #142 ) ;
#194 = APPLICATION_CONTEXT ( 'automotive_design' ) ;
#195 = PRODUCT ( 'Micro_SEM-390-04', 'Micro_SEM-390-04', '', ( #133 ) ) ;
#196 = CIRCLE ( 'NONE', #262, 0.1951046999999999920 ) ;
#197 = APPLICATION_CONTEXT ( 'automotive_design' ) ;
#198 = FACE_OUTER_BOUND ( 'NONE', #199, .T. ) ;
#199 = EDGE_LOOP ( 'NONE', ( #44, #35, #102, #79 ) ) ;
#200 = VECTOR ( 'NONE', #47, 39.37007874015748143 ) ;
#201 = PLANE ( 'NONE',  #120 ) ;
#202 = ORIENTED_EDGE ( 'NONE', *, *, #122, .F. ) ;
#203 = DIRECTION ( 'NONE',  ( -1.000000000000000000, 0.0000000000000000000, 0.0000000000000000000 ) ) ;
#204 = ORIENTED_EDGE ( 'NONE', *, *, #265, .F. ) ;
#205 = DIRECTION ( 'NONE',  ( 1.224646799147353207E-16, 0.0000000000000000000, 1.000000000000000000 ) ) ;
#206 = SHAPE_DEFINITION_REPRESENTATION ( #217, #6 ) ;
#207 = DIRECTION ( 'NONE',  ( -1.224646799147353207E-16, -0.0000000000000000000, -1.000000000000000000 ) ) ;
#208 = ORIENTED_EDGE ( 'NONE', *, *, #241, .T. ) ;
#209 = CONICAL_SURFACE ( 'NONE', #169, 0.1951047000000000198, 0.1745329251994339748 ) ;
#210 =( GEOMETRIC_REPRESENTATION_CONTEXT ( 3 ) GLOBAL_UNCERTAINTY_ASSIGNED_CONTEXT ( ( #29 ) ) GLOBAL_UNIT_ASSIGNED_CONTEXT ( ( #7, #281, #150 ) ) REPRESENTATION_CONTEXT ( 'NONE', 'WORKASPACE' ) );
#211 = LINE ( 'NONE', #242, #71 ) ;
#212 = CARTESIAN_POINT ( 'NONE',  ( 0.0000000000000000000, 0.0000000000000000000, 2.500000000000000000 ) ) ;
#213 = PRODUCT_DEFINITION ( 'UNKNOWN', '', #115, #215 ) ;
#214 = FILL_AREA_STYLE ('',( #164 ) ) ;
#215 = PRODUCT_DEFINITION_CONTEXT ( 'detailed design', #194, 'design' ) ;
#216 = AXIS2_PLACEMENT_3D ( 'NONE', #220, #69, #1 ) ;
#217 = PRODUCT_DEFINITION_SHAPE ( 'NONE', 'NONE',  #213 ) ;
#218 = CARTESIAN_POINT ( 'NONE',  ( 0.1951047000000001030, 0.0000000000000000000, 0.6250000000000000000 ) ) ;
#219 = EDGE_CURVE ( 'NONE', #63, #181, #64, .T. ) ;
#220 = CARTESIAN_POINT ( 'NONE',  ( 0.0000000000000000000, 0.0000000000000000000, 0.0000000000000000000 ) ) ;
#221 =( CONVERSION_BASED_UNIT ( 'INCH', #119 ) LENGTH_UNIT ( ) NAMED_UNIT ( #232 ) );
#222 = CLOSED_SHELL ( 'NONE', ( #39, #77, #156, #70, #145, #97, #285, #280, #54, #243 ) ) ;
#223 = MECHANICAL_DESIGN_GEOMETRIC_PRESENTATION_REPRESENTATION (  '', ( #249 ), #92 ) ;
#224 = CARTESIAN_POINT ( 'NONE',  ( 0.0000000000000000000, 0.0000000000000000000, 2.500000000000000000 ) ) ;
#225 = LENGTH_MEASURE_WITH_UNIT ( LENGTH_MEASURE( 0.02539999999999999897 ), #76 );
#226 = LINE ( 'NONE', #248, #182 ) ;
#227 = VECTOR ( 'NONE', #8, 39.37007874015747433 ) ;
#228 = CARTESIAN_POINT ( 'NONE',  ( -0.2187499999999998890, 0.0000000000000000000, 0.7590991600094056935 ) ) ;
#229 = DIRECTION ( 'NONE',  ( -1.224646799147353207E-16, -0.0000000000000000000, -1.000000000000000000 ) ) ;
#230 = AXIS2_PLACEMENT_3D ( 'NONE', #116, #43, #95 ) ;
#231 = CARTESIAN_POINT ( 'NONE',  ( 0.0000000000000000000, 0.0000000000000000000, 2.484999999999999876 ) ) ;
#232 = DIMENSIONAL_EXPONENTS ( 1.000000000000000000, 0.0000000000000000000, 0.0000000000000000000, 0.0000000000000000000, 0.0000000000000000000, 0.0000000000000000000, 0.0000000000000000000 ) ;
#233 = ORIENTED_EDGE ( 'NONE', *, *, #36, .F. ) ;
#234 = ORIENTED_EDGE ( 'NONE', *, *, #268, .T. ) ;
#235 = FACE_OUTER_BOUND ( 'NONE', #293, .T. ) ;
#236 = SURFACE_SIDE_STYLE ('',( #189 ) ) ;
#237 = DIRECTION ( 'NONE',  ( 0.0000000000000000000, 0.0000000000000000000, 1.000000000000000000 ) ) ;
#238 = CONICAL_SURFACE ( 'NONE', #161, 0.2037499999999991263, 0.7853981633974688181 ) ;
#239 = LENGTH_MEASURE_WITH_UNIT ( LENGTH_MEASURE( 0.02539999999999999897 ), #297 );
#240 = DIRECTION ( 'NONE',  ( -1.000000000000000000, 0.0000000000000000000, 1.224646799147353207E-16 ) ) ;
#241 = EDGE_CURVE ( 'NONE', #163, #176, #299, .T. ) ;
#242 = CARTESIAN_POINT ( 'NONE',  ( -0.2187500000000000000, 0.0000000000000000000, 2.500000000000000000 ) ) ;
#243 = ADVANCED_FACE ( 'NONE', ( #24 ), #190, .F. ) ;
#244 = ORIENTED_EDGE ( 'NONE', *, *, #219, .F. ) ;
#245 = AXIS2_PLACEMENT_3D ( 'NONE', #42, #168, #240 ) ;
#246 = CARTESIAN_POINT ( 'NONE',  ( 7.654042494670957853E-17, 0.0000000000000000000, 0.6250000000000000000 ) ) ;
#247 =( NAMED_UNIT ( * ) PLANE_ANGLE_UNIT ( ) SI_UNIT ( $, .RADIAN. ) );
#248 = CARTESIAN_POINT ( 'NONE',  ( 0.2187500000000000000, 2.678914873134835064E-17, 2.500000000000000000 ) ) ;
#249 = STYLED_ITEM ( 'NONE', ( #23 ), #100 ) ;
#250 = DIRECTION ( 'NONE',  ( -1.000000000000000000, 0.0000000000000000000, 0.0000000000000000000 ) ) ;
#251 = ORIENTED_EDGE ( 'NONE', *, *, #179, .F. ) ;
#252 = DIRECTION ( 'NONE',  ( 1.000000000000000000, 0.0000000000000000000, 0.0000000000000000000 ) ) ;
#253 = ORIENTED_EDGE ( 'NONE', *, *, #153, .F. ) ;
#254 = CARTESIAN_POINT ( 'NONE',  ( 7.654042494670957853E-17, 0.0000000000000000000, 0.6250000000000000000 ) ) ;
#255 = EDGE_LOOP ( 'NONE', ( #58, #174, #155, #244 ) ) ;
#256 = CARTESIAN_POINT ( 'NONE',  ( 9.296283565409630188E-17, 0.0000000000000000000, 0.7590991600094056935 ) ) ;
#257 = VERTEX_POINT ( 'NONE', #111 ) ;
#258 = CIRCLE ( 'NONE', #148, 0.1951047000000000198 ) ;
#259 = CARTESIAN_POINT ( 'NONE',  ( -0.2037499999999991263, 0.0000000000000000000, 2.500000000000000000 ) ) ;
#260 = EDGE_CURVE ( 'NONE', #257, #105, #50, .T. ) ;
#261 = DIRECTION ( 'NONE',  ( -1.000000000000000000, 0.0000000000000000000, 0.0000000000000000000 ) ) ;
#262 = AXIS2_PLACEMENT_3D ( 'NONE', #175, #192, #110 ) ;
#263 = AXIS2_PLACEMENT_3D ( 'NONE', #275, #298, #140 ) ;
#264 = SURFACE_STYLE_USAGE ( .BOTH. , #121 ) ;
#265 = EDGE_CURVE ( 'NONE', #37, #181, #226, .T. ) ;
#266 = CARTESIAN_POINT ( 'NONE',  ( 7.654042494670957853E-17, 0.0000000000000000000, 0.6250000000000000000 ) ) ;
#267 = DIRECTION ( 'NONE',  ( -1.224646799147353207E-16, -0.0000000000000000000, -1.000000000000000000 ) ) ;
#268 = EDGE_CURVE ( 'NONE', #176, #37, #170, .T. ) ;
#269 = ORIENTED_EDGE ( 'NONE', *, *, #122, .T. ) ;
#270 = CARTESIAN_POINT ( 'NONE',  ( -0.2187500000000000000, 0.0000000000000000000, 2.484999999999999876 ) ) ;
#271 = VERTEX_POINT ( 'NONE', #11 ) ;
#272 = CARTESIAN_POINT ( 'NONE',  ( 9.296283565409630188E-17, 0.0000000000000000000, 0.7590991600094056935 ) ) ;
#273 = CARTESIAN_POINT ( 'NONE',  ( 0.2037499999999991263, 2.587066363198777614E-17, 2.500000000000000000 ) ) ;
#274 = CIRCLE ( 'NONE', #53, 0.2187500000000000000 ) ;
#275 = CARTESIAN_POINT ( 'NONE',  ( 0.0000000000000000000, 0.0000000000000000000, 2.500000000000000000 ) ) ;
#276 = DIRECTION ( 'NONE',  ( -0.0000000000000000000, -0.0000000000000000000, -1.000000000000000000 ) ) ;
#277 = UNCERTAINTY_MEASURE_WITH_UNIT (LENGTH_MEASURE( 1.000000000000000082E-05 ), #221, 'distance_accuracy_value', 'NONE');
#278 = PRESENTATION_LAYER_ASSIGNMENT (  '', '', ( #249 ) ) ;
#279 = DIRECTION ( 'NONE',  ( -0.0000000000000000000, -0.0000000000000000000, -1.000000000000000000 ) ) ;
#280 = ADVANCED_FACE ( 'NONE', ( #72 ), #22, .T. ) ;
#281 =( NAMED_UNIT ( * ) PLANE_ANGLE_UNIT ( ) SI_UNIT ( $, .RADIAN. ) );
#282 = AXIS2_PLACEMENT_3D ( 'NONE', #60, #291, #162 ) ;
#283 = STYLED_ITEM ( 'NONE', ( #96 ), #6 ) ;
#284 = SURFACE_STYLE_FILL_AREA ( #146 ) ;
#285 = ADVANCED_FACE ( 'NONE', ( #5 ), #238, .T. ) ;
#286 = FACE_OUTER_BOUND ( 'NONE', #165, .T. ) ;
#287 = AXIS2_PLACEMENT_3D ( 'NONE', #84, #107, #157 ) ;
#288 = CIRCLE ( 'NONE', #245, 0.1951046999999999920 ) ;
#289 = CARTESIAN_POINT ( 'NONE',  ( 0.2187500000000000000, 2.678914873134835064E-17, 2.484999999999999876 ) ) ;
#290 = ORIENTED_EDGE ( 'NONE', *, *, #94, .F. ) ;
#291 = DIRECTION ( 'NONE',  ( -0.0000000000000000000, -0.0000000000000000000, -1.000000000000000000 ) ) ;
#292 = APPLICATION_PROTOCOL_DEFINITION ( 'draft international standard', 'automotive_design', 1998, #197 ) ;
#293 = EDGE_LOOP ( 'NONE', ( #208, #32 ) ) ;
#294 = DIRECTION ( 'NONE',  ( 0.0000000000000000000, 0.0000000000000000000, -1.000000000000000000 ) ) ;
#295 = ORIENTED_EDGE ( 'NONE', *, *, #268, .F. ) ;
#296 = ORIENTED_EDGE ( 'NONE', *, *, #241, .F. ) ;
#297 =( LENGTH_UNIT ( ) NAMED_UNIT ( * ) SI_UNIT ( $, .METRE. ) );
#298 = DIRECTION ( 'NONE',  ( 0.0000000000000000000, 0.0000000000000000000, 1.000000000000000000 ) ) ;
#299 = CIRCLE ( 'NONE', #230, 0.2037499999999991263 ) ;
ENDSEC;
END-ISO-10303-21;
