ISO-10303-21;
HEADER;
FILE_DESCRIPTION (( 'STEP AP214' ),
    '1' );
FILE_NAME ('30257W.STEP',
    '2023-06-22T18:15:50',
    ( '' ),
    ( '' ),
    'SwSTEP 2.0',
    'SolidWorks 2023',
    '' );
FILE_SCHEMA (( 'AUTOMOTIVE_DESIGN' ));
ENDSEC;

DATA;
#1 = PRESENTATION_STYLE_ASSIGNMENT (( #223 ) ) ;
#2 = APPLICATION_CONTEXT ( 'automotive_design' ) ;
#3 =( CONVERSION_BASED_UNIT ( 'INCH', #120 ) LENGTH_UNIT ( ) NAMED_UNIT ( #85 ) );
#4 = DIRECTION ( 'NONE',  ( -3.498990854706726443E-17, 1.000000000000000000, -0.000000000000000000 ) ) ;
#5 = VERTEX_POINT ( 'NONE', #107 ) ;
#6 = MECHANICAL_DESIGN_GEOMETRIC_PRESENTATION_REPRESENTATION (  '', ( #276 ), #264 ) ;
#7 = COLOUR_RGB ( '',1.000000000000000000, 0.000000000000000000, 0.000000000000000000 ) ;
#8 = CARTESIAN_POINT ( 'NONE',  ( 0.000000000000000000, 1.250000000000000000, 0.000000000000000000 ) ) ;
#9 = FILL_AREA_STYLE_COLOUR ( '', #7 ) ;
#10 = EDGE_CURVE ( 'NONE', #238, #95, #21, .T. ) ;
#11 = DIRECTION ( 'NONE',  ( 0.000000000000000000, 0.000000000000000000, -1.000000000000000000 ) ) ;
#12 = DIRECTION ( 'NONE',  ( -3.498990854706726443E-17, 1.000000000000000000, -0.000000000000000000 ) ) ;
#13 = EDGE_LOOP ( 'NONE', ( #20, #300, #50, #244 ) ) ;
#14 = ADVANCED_FACE ( 'NONE', ( #61 ), #187, .T. ) ;
#15 = UNCERTAINTY_MEASURE_WITH_UNIT (LENGTH_MEASURE( 1.000000000000000082E-05 ), #128, 'distance_accuracy_value', 'NONE');
#16 = SURFACE_STYLE_USAGE ( .BOTH. , #274 ) ;
#17 = CARTESIAN_POINT ( 'NONE',  ( 0.000000000000000000, 0.000000000000000000, 0.000000000000000000 ) ) ;
#18 = CLOSED_SHELL ( 'NONE', ( #197, #14, #108, #145 ) ) ;
#19 = DIRECTION ( 'NONE',  ( -0.000000000000000000, -1.000000000000000000, -0.000000000000000000 ) ) ;
#20 = ORIENTED_EDGE ( 'NONE', *, *, #307, .F. ) ;
#21 = CIRCLE ( 'NONE', #67, 0.1562500000000000000 ) ;
#22 = COLOUR_RGB ( '',1.000000000000000000, 0.000000000000000000, 0.000000000000000000 ) ;
#23 = UNCERTAINTY_MEASURE_WITH_UNIT (LENGTH_MEASURE( 1.000000000000000082E-05 ), #33, 'distance_accuracy_value', 'NONE');
#24 = VECTOR ( 'NONE', #19, 39.37007874015748143 ) ;
#25 = PLANE ( 'NONE',  #152 ) ;
#26 = CARTESIAN_POINT ( 'NONE',  ( -6.123233995736772199E-17, 3.000000000000000444, 0.000000000000000000 ) ) ;
#27 = LENGTH_MEASURE_WITH_UNIT ( LENGTH_MEASURE( 0.02539999999999999897 ), #178 );
#28 = CARTESIAN_POINT ( 'NONE',  ( 0.000000000000000000, 1.250000000000000000, 0.000000000000000000 ) ) ;
#29 = SURFACE_STYLE_USAGE ( .BOTH. , #40 ) ;
#30 = PRODUCT_DEFINITION ( 'UNKNOWN', '', #98, #76 ) ;
#31 = SHAPE_DEFINITION_REPRESENTATION ( #231, #290 ) ;
#32 = ORIENTED_EDGE ( 'NONE', *, *, #216, .T. ) ;
#33 =( CONVERSION_BASED_UNIT ( 'INCH', #253 ) LENGTH_UNIT ( ) NAMED_UNIT ( #273 ) );
#34 = DIMENSIONAL_EXPONENTS ( 1.000000000000000000, 0.000000000000000000, 0.000000000000000000, 0.000000000000000000, 0.000000000000000000, 0.000000000000000000, 0.000000000000000000 ) ;
#35 = MANIFOLD_SOLID_BREP ( 'Revolve - Tool Body (Straight Shanked)', #117 ) ;
#36 = MANIFOLD_SOLID_BREP ( 'Revolve - Cutting Edge', #18 ) ;
#37 =( GEOMETRIC_REPRESENTATION_CONTEXT ( 3 ) GLOBAL_UNCERTAINTY_ASSIGNED_CONTEXT ( ( #23 ) ) GLOBAL_UNIT_ASSIGNED_CONTEXT ( ( #33, #267, #64 ) ) REPRESENTATION_CONTEXT ( 'NONE', 'WORKASPACE' ) );
#38 = DIMENSIONAL_EXPONENTS ( 1.000000000000000000, 0.000000000000000000, 0.000000000000000000, 0.000000000000000000, 0.000000000000000000, 0.000000000000000000, 0.000000000000000000 ) ;
#39 = VERTEX_POINT ( 'NONE', #91 ) ;
#40 = SURFACE_SIDE_STYLE ('',( #78 ) ) ;
#41 = CARTESIAN_POINT ( 'NONE',  ( 0.1562499999999999722, 3.000000000000000444, 1.913510623667739771E-17 ) ) ;
#42 = DIRECTION ( 'NONE',  ( -1.000000000000000000, 0.000000000000000000, 0.000000000000000000 ) ) ;
#43 = AXIS2_PLACEMENT_3D ( 'NONE', #26, #166, #134 ) ;
#44 = VERTEX_POINT ( 'NONE', #302 ) ;
#45 =( NAMED_UNIT ( * ) PLANE_ANGLE_UNIT ( ) SI_UNIT ( $, .RADIAN. ) );
#46 = FILL_AREA_STYLE_COLOUR ( '', #303 ) ;
#47 = PLANE ( 'NONE',  #144 ) ;
#48 = MECHANICAL_DESIGN_GEOMETRIC_PRESENTATION_REPRESENTATION (  '', ( #177 ), #54 ) ;
#49 = UNCERTAINTY_MEASURE_WITH_UNIT (LENGTH_MEASURE( 1.000000000000000082E-05 ), #283, 'distance_accuracy_value', 'NONE');
#50 = ORIENTED_EDGE ( 'NONE', *, *, #254, .T. ) ;
#51 = FILL_AREA_STYLE ('',( #9 ) ) ;
#52 = EDGE_CURVE ( 'NONE', #95, #275, #99, .T. ) ;
#53 =( LENGTH_UNIT ( ) NAMED_UNIT ( * ) SI_UNIT ( $, .METRE. ) );
#54 =( GEOMETRIC_REPRESENTATION_CONTEXT ( 3 ) GLOBAL_UNCERTAINTY_ASSIGNED_CONTEXT ( ( #186 ) ) GLOBAL_UNIT_ASSIGNED_CONTEXT ( ( #188, #82, #261 ) ) REPRESENTATION_CONTEXT ( 'NONE', 'WORKASPACE' ) );
#55 = DIRECTION ( 'NONE',  ( 0.000000000000000000, 0.000000000000000000, -1.000000000000000000 ) ) ;
#56 = SURFACE_STYLE_USAGE ( .BOTH. , #158 ) ;
#57 = EDGE_CURVE ( 'NONE', #281, #44, #292, .T. ) ;
#58 = DIRECTION ( 'NONE',  ( -0.000000000000000000, -1.000000000000000000, -0.000000000000000000 ) ) ;
#59 = AXIS2_PLACEMENT_3D ( 'NONE', #258, #215, #42 ) ;
#60 = UNCERTAINTY_MEASURE_WITH_UNIT (LENGTH_MEASURE( 1.000000000000000082E-05 ), #232, 'distance_accuracy_value', 'NONE');
#61 = FACE_OUTER_BOUND ( 'NONE', #270, .T. ) ;
#62 = CARTESIAN_POINT ( 'NONE',  ( 0.000000000000000000, 0.000000000000000000, 0.000000000000000000 ) ) ;
#63 = CARTESIAN_POINT ( 'NONE',  ( 0.000000000000000000, 1.250000000000000000, 0.000000000000000000 ) ) ;
#64 =( NAMED_UNIT ( * ) SI_UNIT ( $, .STERADIAN. ) SOLID_ANGLE_UNIT ( ) );
#65 =( NAMED_UNIT ( * ) PLANE_ANGLE_UNIT ( ) SI_UNIT ( $, .RADIAN. ) );
#66 = FILL_AREA_STYLE_COLOUR ( '', #237 ) ;
#67 = AXIS2_PLACEMENT_3D ( 'NONE', #63, #58, #11 ) ;
#68 =( GEOMETRIC_REPRESENTATION_CONTEXT ( 3 ) GLOBAL_UNCERTAINTY_ASSIGNED_CONTEXT ( ( #147 ) ) GLOBAL_UNIT_ASSIGNED_CONTEXT ( ( #3, #149, #279 ) ) REPRESENTATION_CONTEXT ( 'NONE', 'WORKASPACE' ) );
#69 = DIRECTION ( 'NONE',  ( -3.498990854706726443E-17, 1.000000000000000000, -0.000000000000000000 ) ) ;
#70 = FILL_AREA_STYLE ('',( #46 ) ) ;
#71 = EDGE_CURVE ( 'NONE', #280, #275, #176, .T. ) ;
#72 = AXIS2_PLACEMENT_3D ( 'NONE', #185, #12, #164 ) ;
#73 = ORIENTED_EDGE ( 'NONE', *, *, #52, .F. ) ;
#74 = DIRECTION ( 'NONE',  ( 1.000000000000000000, 3.498990854706726443E-17, 0.000000000000000000 ) ) ;
#75 = FACE_OUTER_BOUND ( 'NONE', #132, .T. ) ;
#76 = PRODUCT_DEFINITION_CONTEXT ( 'detailed design', #2, 'design' ) ;
#77 = EDGE_LOOP ( 'NONE', ( #156, #103, #100, #141 ) ) ;
#78 = SURFACE_STYLE_FILL_AREA ( #51 ) ;
#79 =( NAMED_UNIT ( * ) PLANE_ANGLE_UNIT ( ) SI_UNIT ( $, .RADIAN. ) );
#80 = APPLICATION_CONTEXT ( 'automotive_design' ) ;
#81 = DIRECTION ( 'NONE',  ( -1.000000000000000000, -3.498990854706726443E-17, 0.000000000000000000 ) ) ;
#82 =( NAMED_UNIT ( * ) PLANE_ANGLE_UNIT ( ) SI_UNIT ( $, .RADIAN. ) );
#83 =( GEOMETRIC_REPRESENTATION_CONTEXT ( 3 ) GLOBAL_UNCERTAINTY_ASSIGNED_CONTEXT ( ( #49 ) ) GLOBAL_UNIT_ASSIGNED_CONTEXT ( ( #283, #65, #131 ) ) REPRESENTATION_CONTEXT ( 'NONE', 'WORKASPACE' ) );
#84 =( LENGTH_UNIT ( ) NAMED_UNIT ( * ) SI_UNIT ( $, .METRE. ) );
#85 = DIMENSIONAL_EXPONENTS ( 1.000000000000000000, 0.000000000000000000, 0.000000000000000000, 0.000000000000000000, 0.000000000000000000, 0.000000000000000000, 0.000000000000000000 ) ;
#86 = SURFACE_STYLE_USAGE ( .BOTH. , #163 ) ;
#87 = CARTESIAN_POINT ( 'NONE',  ( -6.123233995736772199E-17, 3.000000000000000444, 0.000000000000000000 ) ) ;
#88 =( LENGTH_UNIT ( ) NAMED_UNIT ( * ) SI_UNIT ( $, .METRE. ) );
#89 = MECHANICAL_DESIGN_GEOMETRIC_PRESENTATION_REPRESENTATION (  '', ( #135 ), #173 ) ;
#90 =( GEOMETRIC_REPRESENTATION_CONTEXT ( 3 ) GLOBAL_UNCERTAINTY_ASSIGNED_CONTEXT ( ( #287 ) ) GLOBAL_UNIT_ASSIGNED_CONTEXT ( ( #259, #45, #213 ) ) REPRESENTATION_CONTEXT ( 'NONE', 'WORKASPACE' ) );
#91 = CARTESIAN_POINT ( 'NONE',  ( 0.1562500000000000000, 3.000000000000000444, 1.913510623667739771E-17 ) ) ;
#92 = DIRECTION ( 'NONE',  ( -0.000000000000000000, -1.000000000000000000, -0.000000000000000000 ) ) ;
#93 = EDGE_CURVE ( 'NONE', #238, #280, #220, .T. ) ;
#94 = DIRECTION ( 'NONE',  ( 3.498990854706726443E-17, -1.000000000000000000, 0.000000000000000000 ) ) ;
#95 = VERTEX_POINT ( 'NONE', #143 ) ;
#96 = AXIS2_PLACEMENT_3D ( 'NONE', #8, #291, #105 ) ;
#97 = PRESENTATION_STYLE_ASSIGNMENT (( #16 ) ) ;
#98 = PRODUCT_DEFINITION_FORMATION_WITH_SPECIFIED_SOURCE ( 'ANY', '', #190, .NOT_KNOWN. ) ;
#99 = LINE ( 'NONE', #171, #118 ) ;
#100 = ORIENTED_EDGE ( 'NONE', *, *, #216, .F. ) ;
#101 = COLOUR_RGB ( '',1.000000000000000000, 0.000000000000000000, 0.000000000000000000 ) ;
#102 = CARTESIAN_POINT ( 'NONE',  ( 0.000000000000000000, 1.250000000000000000, 0.000000000000000000 ) ) ;
#103 = ORIENTED_EDGE ( 'NONE', *, *, #307, .T. ) ;
#104 = AXIS2_PLACEMENT_3D ( 'NONE', #236, #165, #133 ) ;
#105 = DIRECTION ( 'NONE',  ( 0.000000000000000000, -0.000000000000000000, 1.000000000000000000 ) ) ;
#106 = FILL_AREA_STYLE ('',( #66 ) ) ;
#107 = CARTESIAN_POINT ( 'NONE',  ( -0.1562500000000001388, 3.000000000000000444, 0.000000000000000000 ) ) ;
#108 = ADVANCED_FACE ( 'NONE', ( #115 ), #297, .T. ) ;
#109 = DIRECTION ( 'NONE',  ( -3.498990854706726443E-17, 1.000000000000000000, -0.000000000000000000 ) ) ;
#110 = PRESENTATION_LAYER_ASSIGNMENT (  '', '', ( #276 ) ) ;
#111 = CIRCLE ( 'NONE', #214, 0.1562500000000000000 ) ;
#112 = DIRECTION ( 'NONE',  ( -3.498990854706726443E-17, 1.000000000000000000, -0.000000000000000000 ) ) ;
#113 = EDGE_CURVE ( 'NONE', #95, #238, #284, .T. ) ;
#114 = DIRECTION ( 'NONE',  ( 0.000000000000000000, 0.000000000000000000, -1.000000000000000000 ) ) ;
#115 = FACE_OUTER_BOUND ( 'NONE', #172, .T. ) ;
#116 = ORIENTED_EDGE ( 'NONE', *, *, #93, .F. ) ;
#117 = CLOSED_SHELL ( 'NONE', ( #282, #262, #265, #175 ) ) ;
#118 = VECTOR ( 'NONE', #140, 39.37007874015748143 ) ;
#119 = ORIENTED_EDGE ( 'NONE', *, *, #151, .T. ) ;
#120 = LENGTH_MEASURE_WITH_UNIT ( LENGTH_MEASURE( 0.02539999999999999897 ), #53 );
#121 = VECTOR ( 'NONE', #109, 39.37007874015748143 ) ;
#122 = SURFACE_SIDE_STYLE ('',( #154 ) ) ;
#123 = CARTESIAN_POINT ( 'NONE',  ( 0.000000000000000000, 0.000000000000000000, 0.000000000000000000 ) ) ;
#124 = ORIENTED_EDGE ( 'NONE', *, *, #57, .F. ) ;
#125 = DIMENSIONAL_EXPONENTS ( 1.000000000000000000, 0.000000000000000000, 0.000000000000000000, 0.000000000000000000, 0.000000000000000000, 0.000000000000000000, 0.000000000000000000 ) ;
#126 = AXIS2_PLACEMENT_3D ( 'NONE', #155, #203, #81 ) ;
#127 = CARTESIAN_POINT ( 'NONE',  ( -0.1562500000000001110, 3.000000000000000444, 0.000000000000000000 ) ) ;
#128 =( CONVERSION_BASED_UNIT ( 'INCH', #268 ) LENGTH_UNIT ( ) NAMED_UNIT ( #125 ) );
#129 = LINE ( 'NONE', #41, #121 ) ;
#130 = DIMENSIONAL_EXPONENTS ( 1.000000000000000000, 0.000000000000000000, 0.000000000000000000, 0.000000000000000000, 0.000000000000000000, 0.000000000000000000, 0.000000000000000000 ) ;
#131 =( NAMED_UNIT ( * ) SI_UNIT ( $, .STERADIAN. ) SOLID_ANGLE_UNIT ( ) );
#132 = EDGE_LOOP ( 'NONE', ( #266, #218 ) ) ;
#133 = DIRECTION ( 'NONE',  ( -1.000000000000000000, 0.000000000000000000, 0.000000000000000000 ) ) ;
#134 = DIRECTION ( 'NONE',  ( -1.000000000000000000, 0.000000000000000000, 0.000000000000000000 ) ) ;
#135 = STYLED_ITEM ( 'NONE', ( #250 ), #35 ) ;
#136 = ORIENTED_EDGE ( 'NONE', *, *, #301, .F. ) ;
#137 = CARTESIAN_POINT ( 'NONE',  ( 0.000000000000000000, 0.000000000000000000, 0.000000000000000000 ) ) ;
#138 = ORIENTED_EDGE ( 'NONE', *, *, #10, .F. ) ;
#139 = PRESENTATION_LAYER_ASSIGNMENT (  '', '', ( #200 ) ) ;
#140 = DIRECTION ( 'NONE',  ( -0.000000000000000000, -1.000000000000000000, -0.000000000000000000 ) ) ;
#141 = ORIENTED_EDGE ( 'NONE', *, *, #254, .F. ) ;
#142 = ORIENTED_EDGE ( 'NONE', *, *, #71, .F. ) ;
#143 = CARTESIAN_POINT ( 'NONE',  ( 0.000000000000000000, 1.250000000000000000, -0.1562500000000000000 ) ) ;
#144 = AXIS2_PLACEMENT_3D ( 'NONE', #299, #94, #74 ) ;
#145 = ADVANCED_FACE ( 'NONE', ( #75 ), #25, .T. ) ;
#146 = FACE_OUTER_BOUND ( 'NONE', #77, .T. ) ;
#147 = UNCERTAINTY_MEASURE_WITH_UNIT (LENGTH_MEASURE( 1.000000000000000082E-05 ), #3, 'distance_accuracy_value', 'NONE');
#148 = CARTESIAN_POINT ( 'NONE',  ( -0.1562500000000000000, 1.250000000000000000, 0.000000000000000000 ) ) ;
#149 =( NAMED_UNIT ( * ) PLANE_ANGLE_UNIT ( ) SI_UNIT ( $, .RADIAN. ) );
#150 = PRESENTATION_LAYER_ASSIGNMENT (  '', '', ( #135 ) ) ;
#151 = EDGE_CURVE ( 'NONE', #39, #5, #169, .T. ) ;
#152 = AXIS2_PLACEMENT_3D ( 'NONE', #62, #228, #167 ) ;
#153 = FILL_AREA_STYLE ('',( #278 ) ) ;
#154 = SURFACE_STYLE_FILL_AREA ( #196 ) ;
#155 = CARTESIAN_POINT ( 'NONE',  ( 9.564794532282272738E-35, 1.250000000000000000, 0.000000000000000000 ) ) ;
#156 = ORIENTED_EDGE ( 'NONE', *, *, #57, .T. ) ;
#157 = FACE_OUTER_BOUND ( 'NONE', #256, .T. ) ;
#158 = SURFACE_SIDE_STYLE ('',( #205 ) ) ;
#159 = AXIS2_PLACEMENT_3D ( 'NONE', #123, #309, #224 ) ;
#160 = APPLICATION_PROTOCOL_DEFINITION ( 'draft international standard', 'automotive_design', 1998, #80 ) ;
#161 = EDGE_CURVE ( 'NONE', #275, #280, #272, .T. ) ;
#162 = CARTESIAN_POINT ( 'NONE',  ( 0.000000000000000000, 0.000000000000000000, 0.000000000000000000 ) ) ;
#163 = SURFACE_SIDE_STYLE ('',( #294 ) ) ;
#164 = DIRECTION ( 'NONE',  ( -1.000000000000000000, 0.000000000000000000, 0.000000000000000000 ) ) ;
#165 = DIRECTION ( 'NONE',  ( -3.498990854706726443E-17, 1.000000000000000000, -0.000000000000000000 ) ) ;
#166 = DIRECTION ( 'NONE',  ( -3.498990854706726443E-17, 1.000000000000000000, -0.000000000000000000 ) ) ;
#167 = DIRECTION ( 'NONE',  ( 0.000000000000000000, 0.000000000000000000, -1.000000000000000000 ) ) ;
#168 = DIRECTION ( 'NONE',  ( -1.000000000000000000, 0.000000000000000000, 0.000000000000000000 ) ) ;
#169 = CIRCLE ( 'NONE', #104, 0.1562500000000000833 ) ;
#170 = LENGTH_MEASURE_WITH_UNIT ( LENGTH_MEASURE( 0.02539999999999999897 ), #88 );
#171 = CARTESIAN_POINT ( 'NONE',  ( 0.000000000000000000, 0.000000000000000000, -0.1562500000000000000 ) ) ;
#172 = EDGE_LOOP ( 'NONE', ( #116, #235, #229, #142 ) ) ;
#173 =( GEOMETRIC_REPRESENTATION_CONTEXT ( 3 ) GLOBAL_UNCERTAINTY_ASSIGNED_CONTEXT ( ( #60 ) ) GLOBAL_UNIT_ASSIGNED_CONTEXT ( ( #232, #79, #210 ) ) REPRESENTATION_CONTEXT ( 'NONE', 'WORKASPACE' ) );
#174 = AXIS2_PLACEMENT_3D ( 'NONE', #137, #239, #114 ) ;
#175 = ADVANCED_FACE ( 'NONE', ( #157 ), #47, .F. ) ;
#176 = CIRCLE ( 'NONE', #174, 0.1562500000000000000 ) ;
#177 = STYLED_ITEM ( 'NONE', ( #211 ), #197 ) ;
#178 =( LENGTH_UNIT ( ) NAMED_UNIT ( * ) SI_UNIT ( $, .METRE. ) );
#179 = PLANE ( 'NONE',  #126 ) ;
#180 = PRESENTATION_STYLE_ASSIGNMENT (( #56 ) ) ;
#181 = CARTESIAN_POINT ( 'NONE',  ( 0.000000000000000000, 0.000000000000000000, 0.000000000000000000 ) ) ;
#182 = CYLINDRICAL_SURFACE ( 'NONE', #298, 0.1562500000000000278 ) ;
#183 = FILL_AREA_STYLE ('',( #289 ) ) ;
#184 = VECTOR ( 'NONE', #4, 39.37007874015748143 ) ;
#185 = CARTESIAN_POINT ( 'NONE',  ( -6.123233995736772199E-17, 3.000000000000000444, 0.000000000000000000 ) ) ;
#186 = UNCERTAINTY_MEASURE_WITH_UNIT (LENGTH_MEASURE( 1.000000000000000082E-05 ), #188, 'distance_accuracy_value', 'NONE');
#187 = PLANE ( 'NONE',  #96 ) ;
#188 =( CONVERSION_BASED_UNIT ( 'INCH', #170 ) LENGTH_UNIT ( ) NAMED_UNIT ( #34 ) );
#189 = DIRECTION ( 'NONE',  ( 0.000000000000000000, 0.000000000000000000, -1.000000000000000000 ) ) ;
#190 = PRODUCT ( '30257W', '30257W', '', ( #271 ) ) ;
#191 = MECHANICAL_DESIGN_GEOMETRIC_PRESENTATION_REPRESENTATION (  '', ( #248 ), #90 ) ;
#192 = PRESENTATION_LAYER_ASSIGNMENT (  '', '', ( #248 ) ) ;
#193 = SURFACE_STYLE_FILL_AREA ( #70 ) ;
#194 = CARTESIAN_POINT ( 'NONE',  ( 1.913510623667739463E-17, 0.000000000000000000, 0.1562500000000000000 ) ) ;
#195 = CARTESIAN_POINT ( 'NONE',  ( 1.913510623667739463E-17, 0.000000000000000000, 0.1562500000000000000 ) ) ;
#196 = FILL_AREA_STYLE ('',( #263 ) ) ;
#197 = ADVANCED_FACE ( 'NONE', ( #198 ), #286, .T. ) ;
#198 = FACE_OUTER_BOUND ( 'NONE', #246, .T. ) ;
#199 = DIRECTION ( 'NONE',  ( -0.000000000000000000, -1.000000000000000000, -0.000000000000000000 ) ) ;
#200 = STYLED_ITEM ( 'NONE', ( #285 ), #108 ) ;
#201 = FACE_OUTER_BOUND ( 'NONE', #304, .T. ) ;
#202 = LENGTH_MEASURE_WITH_UNIT ( LENGTH_MEASURE( 0.02539999999999999897 ), #208 );
#203 = DIRECTION ( 'NONE',  ( -3.498990854706726443E-17, 1.000000000000000000, 0.000000000000000000 ) ) ;
#204 = DIRECTION ( 'NONE',  ( 1.000000000000000000, 0.000000000000000000, 0.000000000000000000 ) ) ;
#205 = SURFACE_STYLE_FILL_AREA ( #106 ) ;
#206 = APPLICATION_PROTOCOL_DEFINITION ( 'draft international standard', 'automotive_design', 1998, #2 ) ;
#207 = DIRECTION ( 'NONE',  ( -0.000000000000000000, -1.000000000000000000, -0.000000000000000000 ) ) ;
#208 =( LENGTH_UNIT ( ) NAMED_UNIT ( * ) SI_UNIT ( $, .METRE. ) );
#209 = MECHANICAL_DESIGN_GEOMETRIC_PRESENTATION_REPRESENTATION (  '', ( #200 ), #68 ) ;
#210 =( NAMED_UNIT ( * ) SI_UNIT ( $, .STERADIAN. ) SOLID_ANGLE_UNIT ( ) );
#211 = PRESENTATION_STYLE_ASSIGNMENT (( #29 ) ) ;
#212 = DIRECTION ( 'NONE',  ( -1.000000000000000000, 0.000000000000000000, 0.000000000000000000 ) ) ;
#213 =( NAMED_UNIT ( * ) SI_UNIT ( $, .STERADIAN. ) SOLID_ANGLE_UNIT ( ) );
#214 = AXIS2_PLACEMENT_3D ( 'NONE', #28, #112, #212 ) ;
#215 = DIRECTION ( 'NONE',  ( -3.498990854706726443E-17, 1.000000000000000000, -0.000000000000000000 ) ) ;
#216 = EDGE_CURVE ( 'NONE', #5, #39, #260, .T. ) ;
#217 = LENGTH_MEASURE_WITH_UNIT ( LENGTH_MEASURE( 0.02539999999999999897 ), #255 );
#218 = ORIENTED_EDGE ( 'NONE', *, *, #71, .T. ) ;
#219 = AXIS2_PLACEMENT_3D ( 'NONE', #181, #226, #204 ) ;
#220 = LINE ( 'NONE', #194, #24 ) ;
#221 = STYLED_ITEM ( 'NONE', ( #1 ), #145 ) ;
#222 = SURFACE_STYLE_USAGE ( .BOTH. , #245 ) ;
#223 = SURFACE_STYLE_USAGE ( .BOTH. , #122 ) ;
#224 = DIRECTION ( 'NONE',  ( 0.000000000000000000, 0.000000000000000000, -1.000000000000000000 ) ) ;
#225 = LINE ( 'NONE', #127, #184 ) ;
#226 = DIRECTION ( 'NONE',  ( 0.000000000000000000, 0.000000000000000000, 1.000000000000000000 ) ) ;
#227 =( NAMED_UNIT ( * ) SI_UNIT ( $, .STERADIAN. ) SOLID_ANGLE_UNIT ( ) );
#228 = DIRECTION ( 'NONE',  ( 0.000000000000000000, -1.000000000000000000, -0.000000000000000000 ) ) ;
#229 = ORIENTED_EDGE ( 'NONE', *, *, #52, .T. ) ;
#230 = CARTESIAN_POINT ( 'NONE',  ( 1.913510623667739463E-17, 1.250000000000000000, 0.1562500000000000000 ) ) ;
#231 = PRODUCT_DEFINITION_SHAPE ( 'NONE', 'NONE',  #30 ) ;
#232 =( CONVERSION_BASED_UNIT ( 'INCH', #202 ) LENGTH_UNIT ( ) NAMED_UNIT ( #295 ) );
#233 = AXIS2_PLACEMENT_3D ( 'NONE', #17, #92, #189 ) ;
#234 = PRODUCT_RELATED_PRODUCT_CATEGORY ( 'part', '', ( #190 ) ) ;
#235 = ORIENTED_EDGE ( 'NONE', *, *, #10, .T. ) ;
#236 = CARTESIAN_POINT ( 'NONE',  ( -6.123233995736772199E-17, 3.000000000000000444, 0.000000000000000000 ) ) ;
#237 = COLOUR_RGB ( '',1.000000000000000000, 0.000000000000000000, 0.000000000000000000 ) ;
#238 = VERTEX_POINT ( 'NONE', #230 ) ;
#239 = DIRECTION ( 'NONE',  ( -0.000000000000000000, -1.000000000000000000, -0.000000000000000000 ) ) ;
#240 = COLOUR_RGB ( '',0.7921568627450980005, 0.8196078431372548767, 0.9333333333333333481 ) ;
#241 = AXIS2_PLACEMENT_3D ( 'NONE', #102, #199, #55 ) ;
#242 = FACE_OUTER_BOUND ( 'NONE', #13, .T. ) ;
#243 = ORIENTED_EDGE ( 'NONE', *, *, #93, .T. ) ;
#244 = ORIENTED_EDGE ( 'NONE', *, *, #151, .F. ) ;
#245 = SURFACE_SIDE_STYLE ('',( #306 ) ) ;
#246 = EDGE_LOOP ( 'NONE', ( #257, #243, #288, #73 ) ) ;
#247 = CYLINDRICAL_SURFACE ( 'NONE', #72, 0.1562500000000000278 ) ;
#248 = STYLED_ITEM ( 'NONE', ( #97 ), #36 ) ;
#249 =( NAMED_UNIT ( * ) PLANE_ANGLE_UNIT ( ) SI_UNIT ( $, .RADIAN. ) );
#250 = PRESENTATION_STYLE_ASSIGNMENT (( #86 ) ) ;
#251 =( LENGTH_UNIT ( ) NAMED_UNIT ( * ) SI_UNIT ( $, .METRE. ) );
#252 = PRESENTATION_LAYER_ASSIGNMENT (  '', '', ( #221 ) ) ;
#253 = LENGTH_MEASURE_WITH_UNIT ( LENGTH_MEASURE( 0.02539999999999999897 ), #251 );
#254 = EDGE_CURVE ( 'NONE', #281, #5, #225, .T. ) ;
#255 =( LENGTH_UNIT ( ) NAMED_UNIT ( * ) SI_UNIT ( $, .METRE. ) );
#256 = EDGE_LOOP ( 'NONE', ( #32, #119 ) ) ;
#257 = ORIENTED_EDGE ( 'NONE', *, *, #113, .T. ) ;
#258 = CARTESIAN_POINT ( 'NONE',  ( 0.000000000000000000, 1.250000000000000000, 0.000000000000000000 ) ) ;
#259 =( CONVERSION_BASED_UNIT ( 'INCH', #217 ) LENGTH_UNIT ( ) NAMED_UNIT ( #38 ) );
#260 = CIRCLE ( 'NONE', #43, 0.1562500000000000833 ) ;
#261 =( NAMED_UNIT ( * ) SI_UNIT ( $, .STERADIAN. ) SOLID_ANGLE_UNIT ( ) );
#262 = ADVANCED_FACE ( 'NONE', ( #201 ), #179, .F. ) ;
#263 = FILL_AREA_STYLE_COLOUR ( '', #101 ) ;
#264 =( GEOMETRIC_REPRESENTATION_CONTEXT ( 3 ) GLOBAL_UNCERTAINTY_ASSIGNED_CONTEXT ( ( #15 ) ) GLOBAL_UNIT_ASSIGNED_CONTEXT ( ( #128, #249, #227 ) ) REPRESENTATION_CONTEXT ( 'NONE', 'WORKASPACE' ) );
#265 = ADVANCED_FACE ( 'NONE', ( #242 ), #182, .T. ) ;
#266 = ORIENTED_EDGE ( 'NONE', *, *, #161, .T. ) ;
#267 =( NAMED_UNIT ( * ) PLANE_ANGLE_UNIT ( ) SI_UNIT ( $, .RADIAN. ) );
#268 = LENGTH_MEASURE_WITH_UNIT ( LENGTH_MEASURE( 0.02539999999999999897 ), #84 );
#269 = PRESENTATION_LAYER_ASSIGNMENT (  '', '', ( #177 ) ) ;
#270 = EDGE_LOOP ( 'NONE', ( #305, #138 ) ) ;
#271 = PRODUCT_CONTEXT ( 'NONE', #80, 'mechanical' ) ;
#272 = CIRCLE ( 'NONE', #233, 0.1562500000000000000 ) ;
#273 = DIMENSIONAL_EXPONENTS ( 1.000000000000000000, 0.000000000000000000, 0.000000000000000000, 0.000000000000000000, 0.000000000000000000, 0.000000000000000000, 0.000000000000000000 ) ;
#274 = SURFACE_SIDE_STYLE ('',( #193 ) ) ;
#275 = VERTEX_POINT ( 'NONE', #296 ) ;
#276 = STYLED_ITEM ( 'NONE', ( #180 ), #14 ) ;
#277 = MECHANICAL_DESIGN_GEOMETRIC_PRESENTATION_REPRESENTATION (  '', ( #221 ), #83 ) ;
#278 = FILL_AREA_STYLE_COLOUR ( '', #22 ) ;
#279 =( NAMED_UNIT ( * ) SI_UNIT ( $, .STERADIAN. ) SOLID_ANGLE_UNIT ( ) );
#280 = VERTEX_POINT ( 'NONE', #195 ) ;
#281 = VERTEX_POINT ( 'NONE', #148 ) ;
#282 = ADVANCED_FACE ( 'NONE', ( #146 ), #247, .T. ) ;
#283 =( CONVERSION_BASED_UNIT ( 'INCH', #27 ) LENGTH_UNIT ( ) NAMED_UNIT ( #130 ) );
#284 = CIRCLE ( 'NONE', #241, 0.1562500000000000000 ) ;
#285 = PRESENTATION_STYLE_ASSIGNMENT (( #222 ) ) ;
#286 = CYLINDRICAL_SURFACE ( 'NONE', #308, 0.1562500000000000000 ) ;
#287 = UNCERTAINTY_MEASURE_WITH_UNIT (LENGTH_MEASURE( 1.000000000000000082E-05 ), #259, 'distance_accuracy_value', 'NONE');
#288 = ORIENTED_EDGE ( 'NONE', *, *, #161, .F. ) ;
#289 = FILL_AREA_STYLE_COLOUR ( '', #240 ) ;
#290 = ADVANCED_BREP_SHAPE_REPRESENTATION ( '30257W', ( #36, #35, #219 ), #37 ) ;
#291 = DIRECTION ( 'NONE',  ( 0.000000000000000000, 1.000000000000000000, 0.000000000000000000 ) ) ;
#292 = CIRCLE ( 'NONE', #59, 0.1562500000000000000 ) ;
#293 = DIRECTION ( 'NONE',  ( 0.000000000000000000, 0.000000000000000000, -1.000000000000000000 ) ) ;
#294 = SURFACE_STYLE_FILL_AREA ( #183 ) ;
#295 = DIMENSIONAL_EXPONENTS ( 1.000000000000000000, 0.000000000000000000, 0.000000000000000000, 0.000000000000000000, 0.000000000000000000, 0.000000000000000000, 0.000000000000000000 ) ;
#296 = CARTESIAN_POINT ( 'NONE',  ( 0.000000000000000000, 0.000000000000000000, -0.1562500000000000000 ) ) ;
#297 = CYLINDRICAL_SURFACE ( 'NONE', #159, 0.1562500000000000000 ) ;
#298 = AXIS2_PLACEMENT_3D ( 'NONE', #87, #69, #168 ) ;
#299 = CARTESIAN_POINT ( 'NONE',  ( 0.1562500000000000000, 3.000000000000000444, 0.000000000000000000 ) ) ;
#300 = ORIENTED_EDGE ( 'NONE', *, *, #301, .T. ) ;
#301 = EDGE_CURVE ( 'NONE', #44, #281, #111, .T. ) ;
#302 = CARTESIAN_POINT ( 'NONE',  ( 0.1562500000000000000, 1.250000000000000000, 1.913510623667739771E-17 ) ) ;
#303 = COLOUR_RGB ( '',0.7921568627450980005, 0.8196078431372548767, 0.9333333333333333481 ) ;
#304 = EDGE_LOOP ( 'NONE', ( #124, #136 ) ) ;
#305 = ORIENTED_EDGE ( 'NONE', *, *, #113, .F. ) ;
#306 = SURFACE_STYLE_FILL_AREA ( #153 ) ;
#307 = EDGE_CURVE ( 'NONE', #44, #39, #129, .T. ) ;
#308 = AXIS2_PLACEMENT_3D ( 'NONE', #162, #207, #293 ) ;
#309 = DIRECTION ( 'NONE',  ( -0.000000000000000000, -1.000000000000000000, -0.000000000000000000 ) ) ;
ENDSEC;
END-ISO-10303-21;
