ISO-10303-21;
HEADER;
FILE_DESCRIPTION (( 'STEP AP214' ),
    '1' );
FILE_NAME ('83310.STEP',
    '2023-06-23T09:15:42',
    ( '' ),
    ( '' ),
    'SwSTEP 2.0',
    'SolidWorks 2023',
    '' );
FILE_SCHEMA (( 'AUTOMOTIVE_DESIGN' ));
ENDSEC;

DATA;
#1 = SURFACE_SIDE_STYLE ('',( #115 ) ) ;
#2 = DIRECTION ( 'NONE',  ( -0.000000000000000000, -1.000000000000000000, -0.000000000000000000 ) ) ;
#3 = ORIENTED_EDGE ( 'NONE', *, *, #213, .T. ) ;
#4 = AXIS2_PLACEMENT_3D ( 'NONE', #30, #2, #283 ) ;
#5 = ORIENTED_EDGE ( 'NONE', *, *, #293, .T. ) ;
#6 = EDGE_LOOP ( 'NONE', ( #3, #95, #99, #145 ) ) ;
#7 = DIRECTION ( 'NONE',  ( 0.000000000000000000, -0.000000000000000000, 1.000000000000000000 ) ) ;
#8 = AXIS2_PLACEMENT_3D ( 'NONE', #139, #143, #138 ) ;
#9 = LENGTH_MEASURE_WITH_UNIT ( LENGTH_MEASURE( 0.02539999999999999897 ), #104 );
#10 = FILL_AREA_STYLE_COLOUR ( '', #216 ) ;
#11 = FACE_OUTER_BOUND ( 'NONE', #151, .T. ) ;
#12 =( NAMED_UNIT ( * ) PLANE_ANGLE_UNIT ( ) SI_UNIT ( $, .RADIAN. ) );
#13 = PRESENTATION_LAYER_ASSIGNMENT (  '', '', ( #175 ) ) ;
#14 = STYLED_ITEM ( 'NONE', ( #26 ), #274 ) ;
#15 = SURFACE_STYLE_USAGE ( .BOTH. , #41 ) ;
#16 = FACE_OUTER_BOUND ( 'NONE', #6, .T. ) ;
#17 = DIRECTION ( 'NONE',  ( 0.000000000000000000, -1.000000000000000000, -0.000000000000000000 ) ) ;
#18 = EDGE_CURVE ( 'NONE', #217, #24, #193, .T. ) ;
#19 =( CONVERSION_BASED_UNIT ( 'INCH', #235 ) LENGTH_UNIT ( ) NAMED_UNIT ( #248 ) );
#20 = SURFACE_STYLE_FILL_AREA ( #37 ) ;
#21 = PRESENTATION_STYLE_ASSIGNMENT (( #165 ) ) ;
#22 = MECHANICAL_DESIGN_GEOMETRIC_PRESENTATION_REPRESENTATION (  '', ( #92 ), #52 ) ;
#23 = FILL_AREA_STYLE ('',( #94 ) ) ;
#24 = VERTEX_POINT ( 'NONE', #54 ) ;
#25 = UNCERTAINTY_MEASURE_WITH_UNIT (LENGTH_MEASURE( 1.000000000000000082E-05 ), #34, 'distance_accuracy_value', 'NONE');
#26 = PRESENTATION_STYLE_ASSIGNMENT (( #119 ) ) ;
#27 = CYLINDRICAL_SURFACE ( 'NONE', #253, 0.2500000000000000555 ) ;
#28 = ORIENTED_EDGE ( 'NONE', *, *, #128, .F. ) ;
#29 = AXIS2_PLACEMENT_3D ( 'NONE', #303, #86, #211 ) ;
#30 = CARTESIAN_POINT ( 'NONE',  ( 0.000000000000000000, 2.500000000000000000, 0.000000000000000000 ) ) ;
#31 = DIMENSIONAL_EXPONENTS ( 1.000000000000000000, 0.000000000000000000, 0.000000000000000000, 0.000000000000000000, 0.000000000000000000, 0.000000000000000000, 0.000000000000000000 ) ;
#32 = DIRECTION ( 'NONE',  ( 0.000000000000000000, 1.000000000000000000, 0.000000000000000000 ) ) ;
#33 = ADVANCED_BREP_SHAPE_REPRESENTATION ( '83310', ( #264, #62, #93 ), #210 ) ;
#34 =( CONVERSION_BASED_UNIT ( 'INCH', #102 ) LENGTH_UNIT ( ) NAMED_UNIT ( #31 ) );
#35 = COLOUR_RGB ( '',1.000000000000000000, 0.000000000000000000, 0.000000000000000000 ) ;
#36 = DIRECTION ( 'NONE',  ( -0.000000000000000000, -1.000000000000000000, -0.000000000000000000 ) ) ;
#37 = FILL_AREA_STYLE ('',( #298 ) ) ;
#38 = CIRCLE ( 'NONE', #259, 0.2500000000000001110 ) ;
#39 =( GEOMETRIC_REPRESENTATION_CONTEXT ( 3 ) GLOBAL_UNCERTAINTY_ASSIGNED_CONTEXT ( ( #220 ) ) GLOBAL_UNIT_ASSIGNED_CONTEXT ( ( #286, #121, #53 ) ) REPRESENTATION_CONTEXT ( 'NONE', 'WORKASPACE' ) );
#40 = DIRECTION ( 'NONE',  ( -0.000000000000000000, -1.000000000000000000, -0.000000000000000000 ) ) ;
#41 = SURFACE_SIDE_STYLE ('',( #20 ) ) ;
#42 = ADVANCED_FACE ( 'NONE', ( #242 ), #27, .T. ) ;
#43 = LINE ( 'NONE', #236, #169 ) ;
#44 = DIRECTION ( 'NONE',  ( 0.000000000000000000, 0.000000000000000000, 1.000000000000000000 ) ) ;
#45 =( CONVERSION_BASED_UNIT ( 'INCH', #234 ) LENGTH_UNIT ( ) NAMED_UNIT ( #79 ) );
#46 = EDGE_CURVE ( 'NONE', #217, #98, #247, .T. ) ;
#47 = PRESENTATION_LAYER_ASSIGNMENT (  '', '', ( #222 ) ) ;
#48 =( NAMED_UNIT ( * ) SI_UNIT ( $, .STERADIAN. ) SOLID_ANGLE_UNIT ( ) );
#49 = FACE_OUTER_BOUND ( 'NONE', #57, .T. ) ;
#50 = PLANE ( 'NONE',  #140 ) ;
#51 = ORIENTED_EDGE ( 'NONE', *, *, #160, .T. ) ;
#52 =( GEOMETRIC_REPRESENTATION_CONTEXT ( 3 ) GLOBAL_UNCERTAINTY_ASSIGNED_CONTEXT ( ( #118 ) ) GLOBAL_UNIT_ASSIGNED_CONTEXT ( ( #106, #241, #113 ) ) REPRESENTATION_CONTEXT ( 'NONE', 'WORKASPACE' ) );
#53 =( NAMED_UNIT ( * ) SI_UNIT ( $, .STERADIAN. ) SOLID_ANGLE_UNIT ( ) );
#54 = CARTESIAN_POINT ( 'NONE',  ( 0.000000000000000000, 2.500000000000000000, -0.2500000000000000000 ) ) ;
#55 = FACE_OUTER_BOUND ( 'NONE', #171, .T. ) ;
#56 = ORIENTED_EDGE ( 'NONE', *, *, #306, .T. ) ;
#57 = EDGE_LOOP ( 'NONE', ( #148, #270 ) ) ;
#58 =( GEOMETRIC_REPRESENTATION_CONTEXT ( 3 ) GLOBAL_UNCERTAINTY_ASSIGNED_CONTEXT ( ( #112 ) ) GLOBAL_UNIT_ASSIGNED_CONTEXT ( ( #228, #12, #289 ) ) REPRESENTATION_CONTEXT ( 'NONE', 'WORKASPACE' ) );
#59 =( GEOMETRIC_REPRESENTATION_CONTEXT ( 3 ) GLOBAL_UNCERTAINTY_ASSIGNED_CONTEXT ( ( #266 ) ) GLOBAL_UNIT_ASSIGNED_CONTEXT ( ( #142, #302, #179 ) ) REPRESENTATION_CONTEXT ( 'NONE', 'WORKASPACE' ) );
#60 = PLANE ( 'NONE',  #271 ) ;
#61 = DIMENSIONAL_EXPONENTS ( 1.000000000000000000, 0.000000000000000000, 0.000000000000000000, 0.000000000000000000, 0.000000000000000000, 0.000000000000000000, 0.000000000000000000 ) ;
#62 = MANIFOLD_SOLID_BREP ( 'Revolve - Tool Body (Straight Shanked)', #153 ) ;
#63 = PRESENTATION_STYLE_ASSIGNMENT (( #272 ) ) ;
#64 = DIRECTION ( 'NONE',  ( -4.898587196589413075E-17, 1.000000000000000000, -0.000000000000000000 ) ) ;
#65 =( GEOMETRIC_REPRESENTATION_CONTEXT ( 3 ) GLOBAL_UNCERTAINTY_ASSIGNED_CONTEXT ( ( #25 ) ) GLOBAL_UNIT_ASSIGNED_CONTEXT ( ( #34, #133, #227 ) ) REPRESENTATION_CONTEXT ( 'NONE', 'WORKASPACE' ) );
#66 = DIRECTION ( 'NONE',  ( -1.000000000000000000, 0.000000000000000000, 0.000000000000000000 ) ) ;
#67 = PRODUCT_DEFINITION_SHAPE ( 'NONE', 'NONE',  #279 ) ;
#68 = PLANE ( 'NONE',  #199 ) ;
#69 = FACE_OUTER_BOUND ( 'NONE', #77, .T. ) ;
#70 = ADVANCED_FACE ( 'NONE', ( #197 ), #60, .T. ) ;
#71 = AXIS2_PLACEMENT_3D ( 'NONE', #201, #157, #108 ) ;
#72 = MECHANICAL_DESIGN_GEOMETRIC_PRESENTATION_REPRESENTATION (  '', ( #14 ), #59 ) ;
#73 = FILL_AREA_STYLE_COLOUR ( '', #226 ) ;
#74 = CARTESIAN_POINT ( 'NONE',  ( 0.000000000000000000, 0.000000000000000000, -0.2500000000000000000 ) ) ;
#75 = ORIENTED_EDGE ( 'NONE', *, *, #293, .F. ) ;
#76 = AXIS2_PLACEMENT_3D ( 'NONE', #126, #100, #198 ) ;
#77 = EDGE_LOOP ( 'NONE', ( #116, #150 ) ) ;
#78 = EDGE_LOOP ( 'NONE', ( #191, #51, #5, #170 ) ) ;
#79 = DIMENSIONAL_EXPONENTS ( 1.000000000000000000, 0.000000000000000000, 0.000000000000000000, 0.000000000000000000, 0.000000000000000000, 0.000000000000000000, 0.000000000000000000 ) ;
#80 = CLOSED_SHELL ( 'NONE', ( #230, #70, #274, #152 ) ) ;
#81 = AXIS2_PLACEMENT_3D ( 'NONE', #107, #40, #233 ) ;
#82 = SURFACE_STYLE_FILL_AREA ( #174 ) ;
#83 = FILL_AREA_STYLE ('',( #258 ) ) ;
#84 = UNCERTAINTY_MEASURE_WITH_UNIT (LENGTH_MEASURE( 1.000000000000000082E-05 ), #19, 'distance_accuracy_value', 'NONE');
#85 = DIRECTION ( 'NONE',  ( -4.898587196589412459E-17, 1.000000000000000000, -0.000000000000000000 ) ) ;
#86 = DIRECTION ( 'NONE',  ( -4.898587196589413075E-17, 1.000000000000000000, -0.000000000000000000 ) ) ;
#87 = AXIS2_PLACEMENT_3D ( 'NONE', #307, #305, #91 ) ;
#88 = SHAPE_DEFINITION_REPRESENTATION ( #67, #33 ) ;
#89 = PRESENTATION_STYLE_ASSIGNMENT (( #299 ) ) ;
#90 = CARTESIAN_POINT ( 'NONE',  ( 0.000000000000000000, 0.000000000000000000, 0.000000000000000000 ) ) ;
#91 = DIRECTION ( 'NONE',  ( 0.000000000000000000, 0.000000000000000000, -1.000000000000000000 ) ) ;
#92 = STYLED_ITEM ( 'NONE', ( #207 ), #230 ) ;
#93 = AXIS2_PLACEMENT_3D ( 'NONE', #237, #44, #276 ) ;
#94 = FILL_AREA_STYLE_COLOUR ( '', #200 ) ;
#95 = ORIENTED_EDGE ( 'NONE', *, *, #46, .T. ) ;
#96 = APPLICATION_CONTEXT ( 'automotive_design' ) ;
#97 = ADVANCED_FACE ( 'NONE', ( #11 ), #130, .F. ) ;
#98 = VERTEX_POINT ( 'NONE', #295 ) ;
#99 = ORIENTED_EDGE ( 'NONE', *, *, #202, .F. ) ;
#100 = DIRECTION ( 'NONE',  ( 4.898587196589412459E-17, -1.000000000000000000, 0.000000000000000000 ) ) ;
#101 = AXIS2_PLACEMENT_3D ( 'NONE', #301, #183, #260 ) ;
#102 = LENGTH_MEASURE_WITH_UNIT ( LENGTH_MEASURE( 0.02539999999999999897 ), #249 );
#103 = CARTESIAN_POINT ( 'NONE',  ( 3.061616997868383018E-17, 0.000000000000000000, 0.2500000000000000000 ) ) ;
#104 =( LENGTH_UNIT ( ) NAMED_UNIT ( * ) SI_UNIT ( $, .METRE. ) );
#105 = AXIS2_PLACEMENT_3D ( 'NONE', #280, #158, #182 ) ;
#106 =( CONVERSION_BASED_UNIT ( 'INCH', #137 ) LENGTH_UNIT ( ) NAMED_UNIT ( #61 ) );
#107 = CARTESIAN_POINT ( 'NONE',  ( 0.000000000000000000, 0.000000000000000000, 0.000000000000000000 ) ) ;
#108 = DIRECTION ( 'NONE',  ( 0.000000000000000000, 0.000000000000000000, -1.000000000000000000 ) ) ;
#109 = CIRCLE ( 'NONE', #29, 0.2500000000000000000 ) ;
#110 = CARTESIAN_POINT ( 'NONE',  ( -0.2500000000000002220, 5.000000000000000000, 0.000000000000000000 ) ) ;
#111 =( NAMED_UNIT ( * ) PLANE_ANGLE_UNIT ( ) SI_UNIT ( $, .RADIAN. ) );
#112 = UNCERTAINTY_MEASURE_WITH_UNIT (LENGTH_MEASURE( 1.000000000000000082E-05 ), #228, 'distance_accuracy_value', 'NONE');
#113 =( NAMED_UNIT ( * ) SI_UNIT ( $, .STERADIAN. ) SOLID_ANGLE_UNIT ( ) );
#114 = PRODUCT_CONTEXT ( 'NONE', #96, 'mechanical' ) ;
#115 = SURFACE_STYLE_FILL_AREA ( #23 ) ;
#116 = ORIENTED_EDGE ( 'NONE', *, *, #202, .T. ) ;
#117 = MECHANICAL_DESIGN_GEOMETRIC_PRESENTATION_REPRESENTATION (  '', ( #175 ), #58 ) ;
#118 = UNCERTAINTY_MEASURE_WITH_UNIT (LENGTH_MEASURE( 1.000000000000000082E-05 ), #106, 'distance_accuracy_value', 'NONE');
#119 = SURFACE_STYLE_USAGE ( .BOTH. , #1 ) ;
#120 = VERTEX_POINT ( 'NONE', #250 ) ;
#121 =( NAMED_UNIT ( * ) PLANE_ANGLE_UNIT ( ) SI_UNIT ( $, .RADIAN. ) );
#122 = CARTESIAN_POINT ( 'NONE',  ( -1.224646799147353207E-16, 5.000000000000000000, 0.000000000000000000 ) ) ;
#123 = EDGE_LOOP ( 'NONE', ( #219, #166, #28, #75 ) ) ;
#124 = VECTOR ( 'NONE', #36, 39.37007874015748143 ) ;
#125 = DIRECTION ( 'NONE',  ( -1.000000000000000000, 0.000000000000000000, 0.000000000000000000 ) ) ;
#126 = CARTESIAN_POINT ( 'NONE',  ( 0.2500000000000000000, 5.000000000000000000, 0.000000000000000000 ) ) ;
#127 = DIMENSIONAL_EXPONENTS ( 1.000000000000000000, 0.000000000000000000, 0.000000000000000000, 0.000000000000000000, 0.000000000000000000, 0.000000000000000000, 0.000000000000000000 ) ;
#128 = EDGE_CURVE ( 'NONE', #269, #239, #284, .T. ) ;
#129 = SURFACE_SIDE_STYLE ('',( #292 ) ) ;
#130 = PLANE ( 'NONE',  #76 ) ;
#131 = FILL_AREA_STYLE ('',( #10 ) ) ;
#132 = EDGE_CURVE ( 'NONE', #243, #120, #290, .T. ) ;
#133 =( NAMED_UNIT ( * ) PLANE_ANGLE_UNIT ( ) SI_UNIT ( $, .RADIAN. ) );
#134 = EDGE_CURVE ( 'NONE', #120, #239, #43, .T. ) ;
#135 = COLOUR_RGB ( '',0.7921568627450980005, 0.8196078431372548767, 0.9333333333333333481 ) ;
#136 = PRESENTATION_LAYER_ASSIGNMENT (  '', '', ( #14 ) ) ;
#137 = LENGTH_MEASURE_WITH_UNIT ( LENGTH_MEASURE( 0.02539999999999999897 ), #203 );
#138 = DIRECTION ( 'NONE',  ( -1.000000000000000000, 0.000000000000000000, 0.000000000000000000 ) ) ;
#139 = CARTESIAN_POINT ( 'NONE',  ( -1.224646799147353207E-16, 5.000000000000000000, 0.000000000000000000 ) ) ;
#140 = AXIS2_PLACEMENT_3D ( 'NONE', #187, #282, #147 ) ;
#141 = SURFACE_SIDE_STYLE ('',( #178 ) ) ;
#142 =( CONVERSION_BASED_UNIT ( 'INCH', #206 ) LENGTH_UNIT ( ) NAMED_UNIT ( #155 ) );
#143 = DIRECTION ( 'NONE',  ( -4.898587196589413075E-17, 1.000000000000000000, -0.000000000000000000 ) ) ;
#144 =( LENGTH_UNIT ( ) NAMED_UNIT ( * ) SI_UNIT ( $, .METRE. ) );
#145 = ORIENTED_EDGE ( 'NONE', *, *, #306, .F. ) ;
#146 = STYLED_ITEM ( 'NONE', ( #63 ), #62 ) ;
#147 = DIRECTION ( 'NONE',  ( -1.000000000000000000, -4.898587196589412459E-17, 0.000000000000000000 ) ) ;
#148 = ORIENTED_EDGE ( 'NONE', *, *, #132, .F. ) ;
#149 =( LENGTH_UNIT ( ) NAMED_UNIT ( * ) SI_UNIT ( $, .METRE. ) );
#150 = ORIENTED_EDGE ( 'NONE', *, *, #294, .T. ) ;
#151 = EDGE_LOOP ( 'NONE', ( #223, #288 ) ) ;
#152 = ADVANCED_FACE ( 'NONE', ( #69 ), #68, .T. ) ;
#153 = CLOSED_SHELL ( 'NONE', ( #42, #244, #224, #97 ) ) ;
#154 = CARTESIAN_POINT ( 'NONE',  ( 0.000000000000000000, 2.500000000000000000, 0.000000000000000000 ) ) ;
#155 = DIMENSIONAL_EXPONENTS ( 1.000000000000000000, 0.000000000000000000, 0.000000000000000000, 0.000000000000000000, 0.000000000000000000, 0.000000000000000000, 0.000000000000000000 ) ;
#156 = CARTESIAN_POINT ( 'NONE',  ( 1.516480271171051896E-32, 2.500000000000000000, 0.000000000000000000 ) ) ;
#157 = DIRECTION ( 'NONE',  ( -0.000000000000000000, -1.000000000000000000, -0.000000000000000000 ) ) ;
#158 = DIRECTION ( 'NONE',  ( -0.000000000000000000, -1.000000000000000000, -0.000000000000000000 ) ) ;
#159 = APPLICATION_PROTOCOL_DEFINITION ( 'draft international standard', 'automotive_design', 1998, #190 ) ;
#160 = EDGE_CURVE ( 'NONE', #120, #243, #109, .T. ) ;
#161 = DIRECTION ( 'NONE',  ( -1.000000000000000000, 0.000000000000000000, 0.000000000000000000 ) ) ;
#162 =( LENGTH_UNIT ( ) NAMED_UNIT ( * ) SI_UNIT ( $, .METRE. ) );
#163 = CARTESIAN_POINT ( 'NONE',  ( 3.061616997868383018E-17, 2.500000000000000000, 0.2500000000000000000 ) ) ;
#164 = MECHANICAL_DESIGN_GEOMETRIC_PRESENTATION_REPRESENTATION (  '', ( #222 ), #39 ) ;
#165 = SURFACE_STYLE_USAGE ( .BOTH. , #263 ) ;
#166 = ORIENTED_EDGE ( 'NONE', *, *, #134, .T. ) ;
#167 = SURFACE_STYLE_FILL_AREA ( #168 ) ;
#168 = FILL_AREA_STYLE ('',( #73 ) ) ;
#169 = VECTOR ( 'NONE', #256, 39.37007874015748143 ) ;
#170 = ORIENTED_EDGE ( 'NONE', *, *, #185, .F. ) ;
#171 = EDGE_LOOP ( 'NONE', ( #194, #287, #56, #308 ) ) ;
#172 = COLOUR_RGB ( '',1.000000000000000000, 0.000000000000000000, 0.000000000000000000 ) ;
#173 = FILL_AREA_STYLE_COLOUR ( '', #135 ) ;
#174 = FILL_AREA_STYLE ('',( #173 ) ) ;
#175 = STYLED_ITEM ( 'NONE', ( #225 ), #70 ) ;
#176 =( LENGTH_UNIT ( ) NAMED_UNIT ( * ) SI_UNIT ( $, .METRE. ) );
#177 = CARTESIAN_POINT ( 'NONE',  ( 0.000000000000000000, 0.000000000000000000, -0.2500000000000000000 ) ) ;
#178 = SURFACE_STYLE_FILL_AREA ( #83 ) ;
#179 =( NAMED_UNIT ( * ) SI_UNIT ( $, .STERADIAN. ) SOLID_ANGLE_UNIT ( ) );
#180 = CIRCLE ( 'NONE', #71, 0.2500000000000000000 ) ;
#181 = CARTESIAN_POINT ( 'NONE',  ( -1.224646799147353207E-16, 5.000000000000000000, 0.000000000000000000 ) ) ;
#182 = DIRECTION ( 'NONE',  ( 0.000000000000000000, 0.000000000000000000, -1.000000000000000000 ) ) ;
#183 = DIRECTION ( 'NONE',  ( -0.000000000000000000, -1.000000000000000000, -0.000000000000000000 ) ) ;
#184 = DIRECTION ( 'NONE',  ( -4.898587196589413075E-17, 1.000000000000000000, -0.000000000000000000 ) ) ;
#185 = EDGE_CURVE ( 'NONE', #239, #269, #38, .T. ) ;
#186 = PRESENTATION_LAYER_ASSIGNMENT (  '', '', ( #146 ) ) ;
#187 = CARTESIAN_POINT ( 'NONE',  ( 2.999519565323715729E-34, 2.500000000000000000, 0.000000000000000000 ) ) ;
#188 = ORIENTED_EDGE ( 'NONE', *, *, #213, .F. ) ;
#189 = CARTESIAN_POINT ( 'NONE',  ( -0.2500000000000000000, 2.500000000000000000, 0.000000000000000000 ) ) ;
#190 = APPLICATION_CONTEXT ( 'automotive_design' ) ;
#191 = ORIENTED_EDGE ( 'NONE', *, *, #134, .F. ) ;
#192 = CARTESIAN_POINT ( 'NONE',  ( -0.2500000000000002776, 5.000000000000000000, 0.000000000000000000 ) ) ;
#193 = CIRCLE ( 'NONE', #4, 0.2500000000000000000 ) ;
#194 = ORIENTED_EDGE ( 'NONE', *, *, #46, .F. ) ;
#195 = DIMENSIONAL_EXPONENTS ( 1.000000000000000000, 0.000000000000000000, 0.000000000000000000, 0.000000000000000000, 0.000000000000000000, 0.000000000000000000, 0.000000000000000000 ) ;
#196 = CARTESIAN_POINT ( 'NONE',  ( -1.224646799147353207E-16, 5.000000000000000000, 0.000000000000000000 ) ) ;
#197 = FACE_OUTER_BOUND ( 'NONE', #246, .T. ) ;
#198 = DIRECTION ( 'NONE',  ( 1.000000000000000000, 4.898587196589412459E-17, 0.000000000000000000 ) ) ;
#199 = AXIS2_PLACEMENT_3D ( 'NONE', #90, #17, #212 ) ;
#200 = COLOUR_RGB ( '',1.000000000000000000, 0.000000000000000000, 0.000000000000000000 ) ;
#201 = CARTESIAN_POINT ( 'NONE',  ( 0.000000000000000000, 0.000000000000000000, 0.000000000000000000 ) ) ;
#202 = EDGE_CURVE ( 'NONE', #265, #98, #180, .T. ) ;
#203 =( LENGTH_UNIT ( ) NAMED_UNIT ( * ) SI_UNIT ( $, .METRE. ) );
#204 = PRODUCT ( '83310', '83310', '', ( #114 ) ) ;
#205 = UNCERTAINTY_MEASURE_WITH_UNIT (LENGTH_MEASURE( 1.000000000000000082E-05 ), #45, 'distance_accuracy_value', 'NONE');
#206 = LENGTH_MEASURE_WITH_UNIT ( LENGTH_MEASURE( 0.02539999999999999897 ), #149 );
#207 = PRESENTATION_STYLE_ASSIGNMENT (( #15 ) ) ;
#208 =( NAMED_UNIT ( * ) PLANE_ANGLE_UNIT ( ) SI_UNIT ( $, .RADIAN. ) );
#209 = STYLED_ITEM ( 'NONE', ( #89 ), #152 ) ;
#210 =( GEOMETRIC_REPRESENTATION_CONTEXT ( 3 ) GLOBAL_UNCERTAINTY_ASSIGNED_CONTEXT ( ( #84 ) ) GLOBAL_UNIT_ASSIGNED_CONTEXT ( ( #19, #208, #214 ) ) REPRESENTATION_CONTEXT ( 'NONE', 'WORKASPACE' ) );
#211 = DIRECTION ( 'NONE',  ( -1.000000000000000000, 0.000000000000000000, 0.000000000000000000 ) ) ;
#212 = DIRECTION ( 'NONE',  ( 0.000000000000000000, 0.000000000000000000, -1.000000000000000000 ) ) ;
#213 = EDGE_CURVE ( 'NONE', #24, #217, #285, .T. ) ;
#214 =( NAMED_UNIT ( * ) SI_UNIT ( $, .STERADIAN. ) SOLID_ANGLE_UNIT ( ) );
#215 = CARTESIAN_POINT ( 'NONE',  ( 0.2500000000000000555, 5.000000000000000000, 3.061616997868384251E-17 ) ) ;
#216 = COLOUR_RGB ( '',1.000000000000000000, 0.000000000000000000, 0.000000000000000000 ) ;
#217 = VERTEX_POINT ( 'NONE', #163 ) ;
#218 = LENGTH_MEASURE_WITH_UNIT ( LENGTH_MEASURE( 0.02539999999999999897 ), #144 );
#219 = ORIENTED_EDGE ( 'NONE', *, *, #132, .T. ) ;
#220 = UNCERTAINTY_MEASURE_WITH_UNIT (LENGTH_MEASURE( 1.000000000000000082E-05 ), #286, 'distance_accuracy_value', 'NONE');
#221 = DIRECTION ( 'NONE',  ( -4.898587196589413075E-17, 1.000000000000000000, -0.000000000000000000 ) ) ;
#222 = STYLED_ITEM ( 'NONE', ( #21 ), #264 ) ;
#223 = ORIENTED_EDGE ( 'NONE', *, *, #128, .T. ) ;
#224 = ADVANCED_FACE ( 'NONE', ( #262 ), #254, .T. ) ;
#225 = PRESENTATION_STYLE_ASSIGNMENT (( #291 ) ) ;
#226 = COLOUR_RGB ( '',0.7921568627450980005, 0.8196078431372548767, 0.9333333333333333481 ) ;
#227 =( NAMED_UNIT ( * ) SI_UNIT ( $, .STERADIAN. ) SOLID_ANGLE_UNIT ( ) );
#228 =( CONVERSION_BASED_UNIT ( 'INCH', #9 ) LENGTH_UNIT ( ) NAMED_UNIT ( #195 ) );
#229 = VECTOR ( 'NONE', #85, 39.37007874015748143 ) ;
#230 = ADVANCED_FACE ( 'NONE', ( #16 ), #231, .T. ) ;
#231 = CYLINDRICAL_SURFACE ( 'NONE', #87, 0.2500000000000000000 ) ;
#232 = AXIS2_PLACEMENT_3D ( 'NONE', #196, #64, #275 ) ;
#233 = DIRECTION ( 'NONE',  ( 0.000000000000000000, 0.000000000000000000, -1.000000000000000000 ) ) ;
#234 = LENGTH_MEASURE_WITH_UNIT ( LENGTH_MEASURE( 0.02539999999999999897 ), #176 );
#235 = LENGTH_MEASURE_WITH_UNIT ( LENGTH_MEASURE( 0.02539999999999999897 ), #162 );
#236 = CARTESIAN_POINT ( 'NONE',  ( 0.2499999999999999167, 5.000000000000000000, 3.061616997868383634E-17 ) ) ;
#237 = CARTESIAN_POINT ( 'NONE',  ( 0.000000000000000000, 0.000000000000000000, 0.000000000000000000 ) ) ;
#238 = VECTOR ( 'NONE', #257, 39.37007874015748143 ) ;
#239 = VERTEX_POINT ( 'NONE', #215 ) ;
#240 = PRODUCT_RELATED_PRODUCT_CATEGORY ( 'part', '', ( #204 ) ) ;
#241 =( NAMED_UNIT ( * ) PLANE_ANGLE_UNIT ( ) SI_UNIT ( $, .RADIAN. ) );
#242 = FACE_OUTER_BOUND ( 'NONE', #123, .T. ) ;
#243 = VERTEX_POINT ( 'NONE', #189 ) ;
#244 = ADVANCED_FACE ( 'NONE', ( #49 ), #50, .F. ) ;
#245 = MECHANICAL_DESIGN_GEOMETRIC_PRESENTATION_REPRESENTATION (  '', ( #146 ), #65 ) ;
#246 = EDGE_LOOP ( 'NONE', ( #188, #267 ) ) ;
#247 = LINE ( 'NONE', #103, #124 ) ;
#248 = DIMENSIONAL_EXPONENTS ( 1.000000000000000000, 0.000000000000000000, 0.000000000000000000, 0.000000000000000000, 0.000000000000000000, 0.000000000000000000, 0.000000000000000000 ) ;
#249 =( LENGTH_UNIT ( ) NAMED_UNIT ( * ) SI_UNIT ( $, .METRE. ) );
#250 = CARTESIAN_POINT ( 'NONE',  ( 0.2500000000000000555, 2.500000000000000000, 3.061616997868384251E-17 ) ) ;
#251 = SURFACE_SIDE_STYLE ('',( #82 ) ) ;
#252 = DIRECTION ( 'NONE',  ( -4.898587196589413075E-17, 1.000000000000000000, -0.000000000000000000 ) ) ;
#253 = AXIS2_PLACEMENT_3D ( 'NONE', #122, #221, #125 ) ;
#254 = CYLINDRICAL_SURFACE ( 'NONE', #8, 0.2500000000000000555 ) ;
#255 = APPLICATION_PROTOCOL_DEFINITION ( 'draft international standard', 'automotive_design', 1998, #96 ) ;
#256 = DIRECTION ( 'NONE',  ( -4.898587196589412459E-17, 1.000000000000000000, -0.000000000000000000 ) ) ;
#257 = DIRECTION ( 'NONE',  ( -0.000000000000000000, -1.000000000000000000, -0.000000000000000000 ) ) ;
#258 = FILL_AREA_STYLE_COLOUR ( '', #35 ) ;
#259 = AXIS2_PLACEMENT_3D ( 'NONE', #181, #184, #66 ) ;
#260 = DIRECTION ( 'NONE',  ( 0.000000000000000000, 0.000000000000000000, -1.000000000000000000 ) ) ;
#261 = CIRCLE ( 'NONE', #101, 0.2500000000000000000 ) ;
#262 = FACE_OUTER_BOUND ( 'NONE', #78, .T. ) ;
#263 = SURFACE_SIDE_STYLE ('',( #167 ) ) ;
#264 = MANIFOLD_SOLID_BREP ( 'Revolve - Cutting Edge', #80 ) ;
#265 = VERTEX_POINT ( 'NONE', #74 ) ;
#266 = UNCERTAINTY_MEASURE_WITH_UNIT (LENGTH_MEASURE( 1.000000000000000082E-05 ), #142, 'distance_accuracy_value', 'NONE');
#267 = ORIENTED_EDGE ( 'NONE', *, *, #18, .F. ) ;
#268 = CYLINDRICAL_SURFACE ( 'NONE', #81, 0.2500000000000000000 ) ;
#269 = VERTEX_POINT ( 'NONE', #192 ) ;
#270 = ORIENTED_EDGE ( 'NONE', *, *, #160, .F. ) ;
#271 = AXIS2_PLACEMENT_3D ( 'NONE', #154, #32, #7 ) ;
#272 = SURFACE_STYLE_USAGE ( .BOTH. , #251 ) ;
#273 = PRESENTATION_LAYER_ASSIGNMENT (  '', '', ( #92 ) ) ;
#274 = ADVANCED_FACE ( 'NONE', ( #55 ), #268, .T. ) ;
#275 = DIRECTION ( 'NONE',  ( -1.000000000000000000, 0.000000000000000000, 0.000000000000000000 ) ) ;
#276 = DIRECTION ( 'NONE',  ( 1.000000000000000000, 0.000000000000000000, 0.000000000000000000 ) ) ;
#277 =( GEOMETRIC_REPRESENTATION_CONTEXT ( 3 ) GLOBAL_UNCERTAINTY_ASSIGNED_CONTEXT ( ( #205 ) ) GLOBAL_UNIT_ASSIGNED_CONTEXT ( ( #45, #111, #48 ) ) REPRESENTATION_CONTEXT ( 'NONE', 'WORKASPACE' ) );
#278 = LINE ( 'NONE', #177, #238 ) ;
#279 = PRODUCT_DEFINITION ( 'UNKNOWN', '', #297, #309 ) ;
#280 = CARTESIAN_POINT ( 'NONE',  ( 0.000000000000000000, 2.500000000000000000, 0.000000000000000000 ) ) ;
#281 = PRESENTATION_LAYER_ASSIGNMENT (  '', '', ( #209 ) ) ;
#282 = DIRECTION ( 'NONE',  ( -4.898587196589412459E-17, 1.000000000000000000, 0.000000000000000000 ) ) ;
#283 = DIRECTION ( 'NONE',  ( 0.000000000000000000, 0.000000000000000000, -1.000000000000000000 ) ) ;
#284 = CIRCLE ( 'NONE', #232, 0.2500000000000001110 ) ;
#285 = CIRCLE ( 'NONE', #105, 0.2500000000000000000 ) ;
#286 =( CONVERSION_BASED_UNIT ( 'INCH', #218 ) LENGTH_UNIT ( ) NAMED_UNIT ( #127 ) );
#287 = ORIENTED_EDGE ( 'NONE', *, *, #18, .T. ) ;
#288 = ORIENTED_EDGE ( 'NONE', *, *, #185, .T. ) ;
#289 =( NAMED_UNIT ( * ) SI_UNIT ( $, .STERADIAN. ) SOLID_ANGLE_UNIT ( ) );
#290 = CIRCLE ( 'NONE', #300, 0.2500000000000000000 ) ;
#291 = SURFACE_STYLE_USAGE ( .BOTH. , #129 ) ;
#292 = SURFACE_STYLE_FILL_AREA ( #131 ) ;
#293 = EDGE_CURVE ( 'NONE', #243, #269, #304, .T. ) ;
#294 = EDGE_CURVE ( 'NONE', #98, #265, #261, .T. ) ;
#295 = CARTESIAN_POINT ( 'NONE',  ( 3.061616997868383018E-17, 0.000000000000000000, 0.2500000000000000000 ) ) ;
#296 = MECHANICAL_DESIGN_GEOMETRIC_PRESENTATION_REPRESENTATION (  '', ( #209 ), #277 ) ;
#297 = PRODUCT_DEFINITION_FORMATION_WITH_SPECIFIED_SOURCE ( 'ANY', '', #204, .NOT_KNOWN. ) ;
#298 = FILL_AREA_STYLE_COLOUR ( '', #172 ) ;
#299 = SURFACE_STYLE_USAGE ( .BOTH. , #141 ) ;
#300 = AXIS2_PLACEMENT_3D ( 'NONE', #156, #252, #161 ) ;
#301 = CARTESIAN_POINT ( 'NONE',  ( 0.000000000000000000, 0.000000000000000000, 0.000000000000000000 ) ) ;
#302 =( NAMED_UNIT ( * ) PLANE_ANGLE_UNIT ( ) SI_UNIT ( $, .RADIAN. ) );
#303 = CARTESIAN_POINT ( 'NONE',  ( 1.516480271171051896E-32, 2.500000000000000000, 0.000000000000000000 ) ) ;
#304 = LINE ( 'NONE', #110, #229 ) ;
#305 = DIRECTION ( 'NONE',  ( -0.000000000000000000, -1.000000000000000000, -0.000000000000000000 ) ) ;
#306 = EDGE_CURVE ( 'NONE', #24, #265, #278, .T. ) ;
#307 = CARTESIAN_POINT ( 'NONE',  ( 0.000000000000000000, 0.000000000000000000, 0.000000000000000000 ) ) ;
#308 = ORIENTED_EDGE ( 'NONE', *, *, #294, .F. ) ;
#309 = PRODUCT_DEFINITION_CONTEXT ( 'detailed design', #190, 'design' ) ;
ENDSEC;
END-ISO-10303-21;
