ISO-10303-21;
HEADER;
FILE_DESCRIPTION (( 'STEP AP214' ),
    '1' );
FILE_NAME ('Micro_SEM-078-03.STEP',
    '2021-09-02T00:58:35',
    ( '' ),
    ( '' ),
    'SwSTEP 2.0',
    'SolidWorks 2020',
    '' );
FILE_SCHEMA (( 'AUTOMOTIVE_DESIGN' ));
ENDSEC;

DATA;
#1 = CIRCLE ( 'NONE', #122, 0.04750000000000064587 ) ;
#2 = CARTESIAN_POINT ( 'NONE',  ( 0.06250000000000000000, 7.654042494670956004E-18, 1.485000000000000764 ) ) ;
#3 = VERTEX_POINT ( 'NONE', #204 ) ;
#4 = CARTESIAN_POINT ( 'NONE',  ( 0.0000000000000000000, 0.0000000000000000000, 1.500000000000000222 ) ) ;
#5 = CARTESIAN_POINT ( 'NONE',  ( 3.541838019396895887E-17, 0.0000000000000000000, 0.2892130222250905436 ) ) ;
#6 = CARTESIAN_POINT ( 'NONE',  ( 1.910449006669871395E-17, 0.0000000000000000000, 0.1559999999999999998 ) ) ;
#7 =( GEOMETRIC_REPRESENTATION_CONTEXT ( 3 ) GLOBAL_UNCERTAINTY_ASSIGNED_CONTEXT ( ( #195 ) ) GLOBAL_UNIT_ASSIGNED_CONTEXT ( ( #149, #81, #37 ) ) REPRESENTATION_CONTEXT ( 'NONE', 'WORKASPACE' ) );
#8 = DIRECTION ( 'NONE',  ( 1.000000000000000000, 0.0000000000000000000, 0.0000000000000000000 ) ) ;
#9 = ORIENTED_EDGE ( 'NONE', *, *, #91, .T. ) ;
#10 = DIRECTION ( 'NONE',  ( -1.000000000000000000, 0.0000000000000000000, 0.0000000000000000000 ) ) ;
#11 = ADVANCED_FACE ( 'NONE', ( #202 ), #226, .T. ) ;
#12 = AXIS2_PLACEMENT_3D ( 'NONE', #76, #48, #141 ) ;
#13 = ORIENTED_EDGE ( 'NONE', *, *, #229, .F. ) ;
#14 = CARTESIAN_POINT ( 'NONE',  ( -0.03901094999999998869, 4.777463504919744426E-18, 0.1559999999999999998 ) ) ;
#15 = LINE ( 'NONE', #104, #118 ) ;
#16 = AXIS2_PLACEMENT_3D ( 'NONE', #4, #234, #92 ) ;
#17 = DIRECTION ( 'NONE',  ( -1.224646799147353454E-16, -0.0000000000000000000, -1.000000000000000000 ) ) ;
#18 = ORIENTED_EDGE ( 'NONE', *, *, #123, .T. ) ;
#19 = ORIENTED_EDGE ( 'NONE', *, *, #107, .T. ) ;
#20 = AXIS2_PLACEMENT_3D ( 'NONE', #156, #299, #88 ) ;
#21 = CIRCLE ( 'NONE', #39, 0.03901095000000000257 ) ;
#22 = DIRECTION ( 'NONE',  ( 0.0000000000000000000, 0.0000000000000000000, 1.000000000000000000 ) ) ;
#23 = DIRECTION ( 'NONE',  ( 1.000000000000000000, 0.0000000000000000000, 0.0000000000000000000 ) ) ;
#24 = CARTESIAN_POINT ( 'NONE',  ( -0.04750000000000064587, 0.0000000000000000000, 1.500000000000000222 ) ) ;
#25 = ORIENTED_EDGE ( 'NONE', *, *, #281, .F. ) ;
#26 = AXIS2_PLACEMENT_3D ( 'NONE', #28, #115, #72 ) ;
#27 = CARTESIAN_POINT ( 'NONE',  ( 0.0000000000000000000, 0.0000000000000000000, 1.500000000000000222 ) ) ;
#28 = CARTESIAN_POINT ( 'NONE',  ( 0.0000000000000000000, 0.0000000000000000000, 0.0000000000000000000 ) ) ;
#29 = DIRECTION ( 'NONE',  ( -1.224646799147353454E-16, -0.0000000000000000000, -1.000000000000000000 ) ) ;
#30 = CARTESIAN_POINT ( 'NONE',  ( 0.03901095000000000257, 4.777463504919744426E-18, -4.777463504919745966E-18 ) ) ;
#31 = ORIENTED_EDGE ( 'NONE', *, *, #175, .F. ) ;
#32 = PRODUCT ( 'Micro_SEM-078-03', 'Micro_SEM-078-03', '', ( #105 ) ) ;
#33 = LINE ( 'NONE', #140, #176 ) ;
#34 = ORIENTED_EDGE ( 'NONE', *, *, #203, .T. ) ;
#35 = APPLICATION_PROTOCOL_DEFINITION ( 'draft international standard', 'automotive_design', 1998, #206 ) ;
#36 =( GEOMETRIC_REPRESENTATION_CONTEXT ( 3 ) GLOBAL_UNCERTAINTY_ASSIGNED_CONTEXT ( ( #54 ) ) GLOBAL_UNIT_ASSIGNED_CONTEXT ( ( #179, #201, #199 ) ) REPRESENTATION_CONTEXT ( 'NONE', 'WORKASPACE' ) );
#37 =( NAMED_UNIT ( * ) SI_UNIT ( $, .STERADIAN. ) SOLID_ANGLE_UNIT ( ) );
#38 = SURFACE_SIDE_STYLE ('',( #243 ) ) ;
#39 = AXIS2_PLACEMENT_3D ( 'NONE', #119, #29, #193 ) ;
#40 =( LENGTH_UNIT ( ) NAMED_UNIT ( * ) SI_UNIT ( $, .METRE. ) );
#41 = VERTEX_POINT ( 'NONE', #2 ) ;
#42 = ORIENTED_EDGE ( 'NONE', *, *, #256, .T. ) ;
#43 = ORIENTED_EDGE ( 'NONE', *, *, #175, .T. ) ;
#44 = CARTESIAN_POINT ( 'NONE',  ( -0.06250000000000000000, 0.0000000000000000000, 1.500000000000000222 ) ) ;
#45 = VECTOR ( 'NONE', #260, 39.37007874015747433 ) ;
#46 = CARTESIAN_POINT ( 'NONE',  ( -0.04750000000000064587, 0.0000000000000000000, 1.500000000000000222 ) ) ;
#47 = DIRECTION ( 'NONE',  ( -0.0000000000000000000, -0.0000000000000000000, -1.000000000000000000 ) ) ;
#48 = DIRECTION ( 'NONE',  ( 0.0000000000000000000, 0.0000000000000000000, -1.000000000000000000 ) ) ;
#49 = CARTESIAN_POINT ( 'NONE',  ( 5.850705389343263536E-34, 0.0000000000000000000, 4.777463504919745966E-18 ) ) ;
#50 = DIRECTION ( 'NONE',  ( 0.0000000000000000000, 0.0000000000000000000, -1.000000000000000000 ) ) ;
#51 = DIRECTION ( 'NONE',  ( 1.224646799147353454E-16, 0.0000000000000000000, 1.000000000000000000 ) ) ;
#52 = AXIS2_PLACEMENT_3D ( 'NONE', #49, #78, #286 ) ;
#53 = FACE_OUTER_BOUND ( 'NONE', #155, .T. ) ;
#54 = UNCERTAINTY_MEASURE_WITH_UNIT (LENGTH_MEASURE( 1.000000000000000082E-05 ), #179, 'distance_accuracy_value', 'NONE');
#55 =( LENGTH_UNIT ( ) NAMED_UNIT ( * ) SI_UNIT ( $, .METRE. ) );
#56 = CARTESIAN_POINT ( 'NONE',  ( 0.0000000000000000000, 0.0000000000000000000, 1.500000000000000222 ) ) ;
#57 = AXIS2_PLACEMENT_3D ( 'NONE', #65, #205, #154 ) ;
#58 = FILL_AREA_STYLE ('',( #217 ) ) ;
#59 = EDGE_CURVE ( 'NONE', #250, #108, #185, .T. ) ;
#60 = DIRECTION ( 'NONE',  ( 1.000000000000000000, 0.0000000000000000000, 0.0000000000000000000 ) ) ;
#61 = VECTOR ( 'NONE', #192, 39.37007874015748143 ) ;
#62 = EDGE_LOOP ( 'NONE', ( #86, #42, #25, #285 ) ) ;
#63 = EDGE_CURVE ( 'NONE', #183, #272, #246, .T. ) ;
#64 = DIRECTION ( 'NONE',  ( -1.000000000000000000, 0.0000000000000000000, 0.0000000000000000000 ) ) ;
#65 = CARTESIAN_POINT ( 'NONE',  ( 1.910449006669871395E-17, 0.0000000000000000000, 0.1559999999999999998 ) ) ;
#66 = ORIENTED_EDGE ( 'NONE', *, *, #288, .T. ) ;
#67 = DIRECTION ( 'NONE',  ( -0.7071067811865456854, 0.0000000000000000000, -0.7071067811865493491 ) ) ;
#68 = DIRECTION ( 'NONE',  ( -1.224646799147353454E-16, -0.0000000000000000000, -1.000000000000000000 ) ) ;
#69 = EDGE_CURVE ( 'NONE', #85, #183, #129, .T. ) ;
#70 = PLANE ( 'NONE',  #26 ) ;
#71 = AXIS2_PLACEMENT_3D ( 'NONE', #120, #142, #94 ) ;
#72 = DIRECTION ( 'NONE',  ( 1.000000000000000000, 0.0000000000000000000, -0.0000000000000000000 ) ) ;
#73 = DIRECTION ( 'NONE',  ( -1.224646799147353454E-16, -0.0000000000000000000, -1.000000000000000000 ) ) ;
#74 = EDGE_CURVE ( 'NONE', #183, #41, #77, .T. ) ;
#75 = ORIENTED_EDGE ( 'NONE', *, *, #148, .T. ) ;
#76 = CARTESIAN_POINT ( 'NONE',  ( 0.0000000000000000000, 0.0000000000000000000, 1.485000000000000764 ) ) ;
#77 = CIRCLE ( 'NONE', #262, 0.06250000000000000000 ) ;
#78 = DIRECTION ( 'NONE',  ( -1.224646799147353454E-16, -0.0000000000000000000, -1.000000000000000000 ) ) ;
#79 = COLOUR_RGB ( '',0.7921568627450980005, 0.8196078431372548767, 0.9333333333333333481 ) ;
#80 = CARTESIAN_POINT ( 'NONE',  ( -0.06249999999999996531, 0.0000000000000000000, 0.2892130222250905436 ) ) ;
#81 =( NAMED_UNIT ( * ) PLANE_ANGLE_UNIT ( ) SI_UNIT ( $, .RADIAN. ) );
#82 = AXIS2_PLACEMENT_3D ( 'NONE', #6, #51, #8 ) ;
#83 = CYLINDRICAL_SURFACE ( 'NONE', #232, 0.06250000000000000000 ) ;
#84 = ADVANCED_FACE ( 'NONE', ( #273 ), #102, .T. ) ;
#85 = VERTEX_POINT ( 'NONE', #46 ) ;
#86 = ORIENTED_EDGE ( 'NONE', *, *, #229, .T. ) ;
#87 = ORIENTED_EDGE ( 'NONE', *, *, #111, .F. ) ;
#88 = DIRECTION ( 'NONE',  ( 1.000000000000000000, 0.0000000000000000000, 0.0000000000000000000 ) ) ;
#89 = PRESENTATION_LAYER_ASSIGNMENT (  '', '', ( #147 ) ) ;
#90 = ORIENTED_EDGE ( 'NONE', *, *, #265, .F. ) ;
#91 = EDGE_CURVE ( 'NONE', #3, #85, #244, .T. ) ;
#92 = DIRECTION ( 'NONE',  ( 1.000000000000000000, 0.0000000000000000000, -0.0000000000000000000 ) ) ;
#93 = DIMENSIONAL_EXPONENTS ( 1.000000000000000000, 0.0000000000000000000, 0.0000000000000000000, 0.0000000000000000000, 0.0000000000000000000, 0.0000000000000000000, 0.0000000000000000000 ) ;
#94 = DIRECTION ( 'NONE',  ( 1.000000000000000000, 0.0000000000000000000, 0.0000000000000000000 ) ) ;
#95 = ADVANCED_FACE ( 'NONE', ( #184 ), #112, .T. ) ;
#96 = DIRECTION ( 'NONE',  ( -1.224646799147353454E-16, -0.0000000000000000000, -1.000000000000000000 ) ) ;
#97 = CARTESIAN_POINT ( 'NONE',  ( -0.03901095000000000257, 0.0000000000000000000, 9.554927009839491933E-18 ) ) ;
#98 = FACE_OUTER_BOUND ( 'NONE', #297, .T. ) ;
#99 = PRODUCT_RELATED_PRODUCT_CATEGORY ( 'part', '', ( #32 ) ) ;
#100 = AXIS2_PLACEMENT_3D ( 'NONE', #27, #50, #214 ) ;
#101 = DIRECTION ( 'NONE',  ( -1.224646799147353454E-16, -0.0000000000000000000, -1.000000000000000000 ) ) ;
#102 = CONICAL_SURFACE ( 'NONE', #57, 0.03901095000000000257, 0.1745329251994338915 ) ;
#103 = CIRCLE ( 'NONE', #131, 0.03901095000000000257 ) ;
#104 = CARTESIAN_POINT ( 'NONE',  ( -0.03901095000000000257, 0.0000000000000000000, 4.777463504919745966E-18 ) ) ;
#105 = PRODUCT_CONTEXT ( 'NONE', #206, 'mechanical' ) ;
#106 = ORIENTED_EDGE ( 'NONE', *, *, #107, .F. ) ;
#107 = EDGE_CURVE ( 'NONE', #200, #249, #261, .T. ) ;
#108 = VERTEX_POINT ( 'NONE', #162 ) ;
#109 = EDGE_LOOP ( 'NONE', ( #133, #198, #66, #106 ) ) ;
#110 = CARTESIAN_POINT ( 'NONE',  ( 0.0000000000000000000, 0.0000000000000000000, 1.485000000000000764 ) ) ;
#111 = EDGE_CURVE ( 'NONE', #3, #41, #161, .T. ) ;
#112 = CYLINDRICAL_SURFACE ( 'NONE', #190, 0.03901095000000000257 ) ;
#113 = PRODUCT_DEFINITION_FORMATION_WITH_SPECIFIED_SOURCE ( 'ANY', '', #32, .NOT_KNOWN. ) ;
#114 = FACE_OUTER_BOUND ( 'NONE', #222, .T. ) ;
#115 = DIRECTION ( 'NONE',  ( 0.0000000000000000000, 0.0000000000000000000, 1.000000000000000000 ) ) ;
#116 = ADVANCED_FACE ( 'NONE', ( #284 ), #231, .T. ) ;
#117 = DIRECTION ( 'NONE',  ( -0.0000000000000000000, -0.0000000000000000000, -1.000000000000000000 ) ) ;
#118 = VECTOR ( 'NONE', #101, 39.37007874015748143 ) ;
#119 = CARTESIAN_POINT ( 'NONE',  ( 1.910449006669871395E-17, 0.0000000000000000000, 0.1559999999999999998 ) ) ;
#120 = CARTESIAN_POINT ( 'NONE',  ( 3.541838019396895887E-17, 0.0000000000000000000, 0.2892130222250905436 ) ) ;
#121 = ADVANCED_FACE ( 'NONE', ( #253 ), #209, .T. ) ;
#122 = AXIS2_PLACEMENT_3D ( 'NONE', #136, #258, #213 ) ;
#123 = EDGE_CURVE ( 'NONE', #41, #183, #275, .T. ) ;
#124 = FACE_OUTER_BOUND ( 'NONE', #251, .T. ) ;
#125 = ADVANCED_BREP_SHAPE_REPRESENTATION ( 'Micro_SEM-078-03', ( #293, #138 ), #7 ) ;
#126 = SURFACE_STYLE_USAGE ( .BOTH. , #38 ) ;
#127 = EDGE_LOOP ( 'NONE', ( #245, #221, #227, #295 ) ) ;
#128 = CARTESIAN_POINT ( 'NONE',  ( 0.0000000000000000000, 0.0000000000000000000, 0.0000000000000000000 ) ) ;
#129 = LINE ( 'NONE', #24, #171 ) ;
#130 = EDGE_LOOP ( 'NONE', ( #13, #267, #152, #31 ) ) ;
#131 = AXIS2_PLACEMENT_3D ( 'NONE', #166, #17, #220 ) ;
#132 = ORIENTED_EDGE ( 'NONE', *, *, #281, .T. ) ;
#133 = ORIENTED_EDGE ( 'NONE', *, *, #256, .F. ) ;
#134 = EDGE_CURVE ( 'NONE', #41, #269, #33, .T. ) ;
#135 = ORIENTED_EDGE ( 'NONE', *, *, #134, .F. ) ;
#136 = CARTESIAN_POINT ( 'NONE',  ( 0.0000000000000000000, 0.0000000000000000000, 1.500000000000000222 ) ) ;
#137 = ORIENTED_EDGE ( 'NONE', *, *, #203, .F. ) ;
#138 = AXIS2_PLACEMENT_3D ( 'NONE', #181, #22, #60 ) ;
#139 = DIMENSIONAL_EXPONENTS ( 1.000000000000000000, 0.0000000000000000000, 0.0000000000000000000, 0.0000000000000000000, 0.0000000000000000000, 0.0000000000000000000, 0.0000000000000000000 ) ;
#140 = CARTESIAN_POINT ( 'NONE',  ( 0.06250000000000000000, 7.654042494670956004E-18, 1.500000000000000222 ) ) ;
#141 = DIRECTION ( 'NONE',  ( 1.000000000000000000, 0.0000000000000000000, 0.0000000000000000000 ) ) ;
#142 = DIRECTION ( 'NONE',  ( -1.224646799147353454E-16, -0.0000000000000000000, -1.000000000000000000 ) ) ;
#143 = UNCERTAINTY_MEASURE_WITH_UNIT (LENGTH_MEASURE( 1.000000000000000082E-05 ), #173, 'distance_accuracy_value', 'NONE');
#144 = CARTESIAN_POINT ( 'NONE',  ( 0.03901095000000002339, 0.0000000000000000000, 0.1559999999999999998 ) ) ;
#145 = PRESENTATION_STYLE_ASSIGNMENT (( #240 ) ) ;
#146 = DIRECTION ( 'NONE',  ( -0.0000000000000000000, -0.0000000000000000000, -1.000000000000000000 ) ) ;
#147 = STYLED_ITEM ( 'NONE', ( #145 ), #293 ) ;
#148 = EDGE_CURVE ( 'NONE', #85, #3, #1, .T. ) ;
#149 =( CONVERSION_BASED_UNIT ( 'INCH', #266 ) LENGTH_UNIT ( ) NAMED_UNIT ( #139 ) );
#150 = PRODUCT_DEFINITION ( 'UNKNOWN', '', #113, #165 ) ;
#151 = ORIENTED_EDGE ( 'NONE', *, *, #123, .F. ) ;
#152 = ORIENTED_EDGE ( 'NONE', *, *, #215, .T. ) ;
#153 = ORIENTED_EDGE ( 'NONE', *, *, #215, .F. ) ;
#154 = DIRECTION ( 'NONE',  ( 1.000000000000000000, 0.0000000000000000000, 0.0000000000000000000 ) ) ;
#155 = EDGE_LOOP ( 'NONE', ( #90, #228, #43, #34 ) ) ;
#156 = CARTESIAN_POINT ( 'NONE',  ( 0.0000000000000000000, 0.0000000000000000000, 1.500000000000000222 ) ) ;
#157 = CARTESIAN_POINT ( 'NONE',  ( 1.910449006669871395E-17, 0.0000000000000000000, 0.1559999999999999998 ) ) ;
#158 = DIRECTION ( 'NONE',  ( 0.7071067811865456854, 8.659560562354911904E-17, -0.7071067811865493491 ) ) ;
#159 = DIMENSIONAL_EXPONENTS ( 1.000000000000000000, 0.0000000000000000000, 0.0000000000000000000, 0.0000000000000000000, 0.0000000000000000000, 0.0000000000000000000, 0.0000000000000000000 ) ;
#160 = DIRECTION ( 'NONE',  ( 0.0000000000000000000, 0.0000000000000000000, -1.000000000000000000 ) ) ;
#161 = LINE ( 'NONE', #230, #247 ) ;
#162 = CARTESIAN_POINT ( 'NONE',  ( -0.03901094999999998869, 6.215752999795350985E-18, 0.1559999999999999998 ) ) ;
#163 = AXIS2_PLACEMENT_3D ( 'NONE', #128, #68, #180 ) ;
#164 = CIRCLE ( 'NONE', #225, 0.06250000000000000000 ) ;
#165 = PRODUCT_DEFINITION_CONTEXT ( 'detailed design', #242, 'design' ) ;
#166 = CARTESIAN_POINT ( 'NONE',  ( 5.850705389343263536E-34, 0.0000000000000000000, 4.777463504919745966E-18 ) ) ;
#167 = ORIENTED_EDGE ( 'NONE', *, *, #74, .T. ) ;
#168 = SURFACE_STYLE_FILL_AREA ( #290 ) ;
#169 = ADVANCED_FACE ( 'NONE', ( #114 ), #191, .T. ) ;
#170 =( LENGTH_UNIT ( ) NAMED_UNIT ( * ) SI_UNIT ( $, .METRE. ) );
#171 = VECTOR ( 'NONE', #67, 39.37007874015748143 ) ;
#172 =( NAMED_UNIT ( * ) SI_UNIT ( $, .STERADIAN. ) SOLID_ANGLE_UNIT ( ) );
#173 =( CONVERSION_BASED_UNIT ( 'INCH', #259 ) LENGTH_UNIT ( ) NAMED_UNIT ( #93 ) );
#174 = APPLICATION_PROTOCOL_DEFINITION ( 'draft international standard', 'automotive_design', 1998, #242 ) ;
#175 = EDGE_CURVE ( 'NONE', #250, #269, #188, .T. ) ;
#176 = VECTOR ( 'NONE', #117, 39.37007874015748143 ) ;
#177 = ORIENTED_EDGE ( 'NONE', *, *, #63, .F. ) ;
#178 = CONICAL_SURFACE ( 'NONE', #82, 0.03901095000000000257, 0.1745329251994338915 ) ;
#179 =( CONVERSION_BASED_UNIT ( 'INCH', #298 ) LENGTH_UNIT ( ) NAMED_UNIT ( #159 ) );
#180 = DIRECTION ( 'NONE',  ( -1.000000000000000000, 0.0000000000000000000, 1.224646799147353700E-16 ) ) ;
#181 = CARTESIAN_POINT ( 'NONE',  ( 0.0000000000000000000, 0.0000000000000000000, 0.0000000000000000000 ) ) ;
#182 = ADVANCED_FACE ( 'NONE', ( #280 ), #70, .F. ) ;
#183 = VERTEX_POINT ( 'NONE', #189 ) ;
#184 = FACE_OUTER_BOUND ( 'NONE', #109, .T. ) ;
#185 = CIRCLE ( 'NONE', #218, 0.03901095000000000257 ) ;
#186 = MECHANICAL_DESIGN_GEOMETRIC_PRESENTATION_REPRESENTATION (  '', ( #147 ), #241 ) ;
#187 = ORIENTED_EDGE ( 'NONE', *, *, #63, .T. ) ;
#188 = LINE ( 'NONE', #144, #238 ) ;
#189 = CARTESIAN_POINT ( 'NONE',  ( -0.06250000000000000000, 0.0000000000000000000, 1.485000000000000764 ) ) ;
#190 = AXIS2_PLACEMENT_3D ( 'NONE', #277, #96, #254 ) ;
#191 = PLANE ( 'NONE',  #16 ) ;
#192 = DIRECTION ( 'NONE',  ( -1.224646799147353454E-16, -0.0000000000000000000, -1.000000000000000000 ) ) ;
#193 = DIRECTION ( 'NONE',  ( -1.000000000000000000, 0.0000000000000000000, 0.0000000000000000000 ) ) ;
#194 = PRESENTATION_LAYER_ASSIGNMENT (  '', '', ( #248 ) ) ;
#195 = UNCERTAINTY_MEASURE_WITH_UNIT (LENGTH_MEASURE( 1.000000000000000082E-05 ), #149, 'distance_accuracy_value', 'NONE');
#196 = FILL_AREA_STYLE_COLOUR ( '', #219 ) ;
#197 = LINE ( 'NONE', #14, #45 ) ;
#198 = ORIENTED_EDGE ( 'NONE', *, *, #59, .T. ) ;
#199 =( NAMED_UNIT ( * ) SI_UNIT ( $, .STERADIAN. ) SOLID_ANGLE_UNIT ( ) );
#200 = VERTEX_POINT ( 'NONE', #211 ) ;
#201 =( NAMED_UNIT ( * ) PLANE_ANGLE_UNIT ( ) SI_UNIT ( $, .RADIAN. ) );
#202 = FACE_OUTER_BOUND ( 'NONE', #62, .T. ) ;
#203 = EDGE_CURVE ( 'NONE', #269, #272, #164, .T. ) ;
#204 = CARTESIAN_POINT ( 'NONE',  ( 0.04750000000000064587, 6.735557395310482421E-18, 1.500000000000000222 ) ) ;
#205 = DIRECTION ( 'NONE',  ( 1.224646799147353454E-16, 0.0000000000000000000, 1.000000000000000000 ) ) ;
#206 = APPLICATION_CONTEXT ( 'automotive_design' ) ;
#207 = ORIENTED_EDGE ( 'NONE', *, *, #148, .F. ) ;
#208 = CONICAL_SURFACE ( 'NONE', #263, 0.04750000000000064587, 0.7853981633974457255 ) ;
#209 = CYLINDRICAL_SURFACE ( 'NONE', #268, 0.06250000000000000000 ) ;
#210 = ORIENTED_EDGE ( 'NONE', *, *, #69, .T. ) ;
#211 = CARTESIAN_POINT ( 'NONE',  ( 0.03901095000000000257, 4.777463504919744426E-18, 0.0000000000000000000 ) ) ;
#212 = CARTESIAN_POINT ( 'NONE',  ( 0.03901095000000002339, 0.0000000000000000000, 0.1559999999999999998 ) ) ;
#213 = DIRECTION ( 'NONE',  ( 1.000000000000000000, 0.0000000000000000000, 0.0000000000000000000 ) ) ;
#214 = DIRECTION ( 'NONE',  ( -1.000000000000000000, 0.0000000000000000000, 0.0000000000000000000 ) ) ;
#215 = EDGE_CURVE ( 'NONE', #272, #269, #289, .T. ) ;
#216 = DIRECTION ( 'NONE',  ( -1.000000000000000000, 0.0000000000000000000, 0.0000000000000000000 ) ) ;
#217 = FILL_AREA_STYLE_COLOUR ( '', #79 ) ;
#218 = AXIS2_PLACEMENT_3D ( 'NONE', #157, #271, #64 ) ;
#219 = COLOUR_RGB ( '',0.7921568627450980005, 0.8196078431372548767, 0.9333333333333333481 ) ;
#220 = DIRECTION ( 'NONE',  ( -1.000000000000000000, 0.0000000000000000000, 1.224646799147353700E-16 ) ) ;
#221 = ORIENTED_EDGE ( 'NONE', *, *, #111, .T. ) ;
#222 = EDGE_LOOP ( 'NONE', ( #75, #9 ) ) ;
#223 = ADVANCED_FACE ( 'NONE', ( #98 ), #208, .T. ) ;
#224 = DIRECTION ( 'NONE',  ( 0.0000000000000000000, 0.0000000000000000000, -1.000000000000000000 ) ) ;
#225 = AXIS2_PLACEMENT_3D ( 'NONE', #5, #73, #257 ) ;
#226 = CYLINDRICAL_SURFACE ( 'NONE', #163, 0.03901095000000000257 ) ;
#227 = ORIENTED_EDGE ( 'NONE', *, *, #74, .F. ) ;
#228 = ORIENTED_EDGE ( 'NONE', *, *, #59, .F. ) ;
#229 = EDGE_CURVE ( 'NONE', #108, #250, #21, .T. ) ;
#230 = CARTESIAN_POINT ( 'NONE',  ( 0.04750000000000064587, 5.817072295950006528E-18, 1.500000000000000222 ) ) ;
#231 = CONICAL_SURFACE ( 'NONE', #100, 0.04750000000000064587, 0.7853981633974457255 ) ;
#232 = AXIS2_PLACEMENT_3D ( 'NONE', #56, #146, #216 ) ;
#233 = PRODUCT_DEFINITION_SHAPE ( 'NONE', 'NONE',  #150 ) ;
#234 = DIRECTION ( 'NONE',  ( 0.0000000000000000000, 0.0000000000000000000, 1.000000000000000000 ) ) ;
#235 = CLOSED_SHELL ( 'NONE', ( #11, #84, #116, #278, #121, #169, #223, #252, #95, #182 ) ) ;
#236 = DIRECTION ( 'NONE',  ( 0.1736481776669313859, 0.0000000000000000000, 0.9848077530122077983 ) ) ;
#237 = LINE ( 'NONE', #30, #61 ) ;
#238 = VECTOR ( 'NONE', #236, 39.37007874015748143 ) ;
#239 = DIRECTION ( 'NONE',  ( -0.0000000000000000000, -0.0000000000000000000, -1.000000000000000000 ) ) ;
#240 = SURFACE_STYLE_USAGE ( .BOTH. , #264 ) ;
#241 =( GEOMETRIC_REPRESENTATION_CONTEXT ( 3 ) GLOBAL_UNCERTAINTY_ASSIGNED_CONTEXT ( ( #143 ) ) GLOBAL_UNIT_ASSIGNED_CONTEXT ( ( #173, #291, #172 ) ) REPRESENTATION_CONTEXT ( 'NONE', 'WORKASPACE' ) );
#242 = APPLICATION_CONTEXT ( 'automotive_design' ) ;
#243 = SURFACE_STYLE_FILL_AREA ( #58 ) ;
#244 = CIRCLE ( 'NONE', #20, 0.04750000000000064587 ) ;
#245 = ORIENTED_EDGE ( 'NONE', *, *, #91, .F. ) ;
#246 = LINE ( 'NONE', #44, #287 ) ;
#247 = VECTOR ( 'NONE', #158, 39.37007874015748143 ) ;
#248 = STYLED_ITEM ( 'NONE', ( #270 ), #125 ) ;
#249 = VERTEX_POINT ( 'NONE', #97 ) ;
#250 = VERTEX_POINT ( 'NONE', #212 ) ;
#251 = EDGE_LOOP ( 'NONE', ( #167, #296, #153, #177 ) ) ;
#252 = ADVANCED_FACE ( 'NONE', ( #53 ), #178, .T. ) ;
#253 = FACE_OUTER_BOUND ( 'NONE', #279, .T. ) ;
#254 = DIRECTION ( 'NONE',  ( -1.000000000000000000, 0.0000000000000000000, 1.224646799147353700E-16 ) ) ;
#255 = DIRECTION ( 'NONE',  ( -1.000000000000000000, 0.0000000000000000000, 0.0000000000000000000 ) ) ;
#256 = EDGE_CURVE ( 'NONE', #250, #200, #237, .T. ) ;
#257 = DIRECTION ( 'NONE',  ( 1.000000000000000000, 0.0000000000000000000, 0.0000000000000000000 ) ) ;
#258 = DIRECTION ( 'NONE',  ( 0.0000000000000000000, 0.0000000000000000000, 1.000000000000000000 ) ) ;
#259 = LENGTH_MEASURE_WITH_UNIT ( LENGTH_MEASURE( 0.02539999999999999897 ), #55 );
#260 = DIRECTION ( 'NONE',  ( -0.1736481776669311916, 2.126576849575783316E-17, 0.9848077530122080203 ) ) ;
#261 = CIRCLE ( 'NONE', #52, 0.03901095000000000257 ) ;
#262 = AXIS2_PLACEMENT_3D ( 'NONE', #110, #224, #23 ) ;
#263 = AXIS2_PLACEMENT_3D ( 'NONE', #282, #160, #255 ) ;
#264 = SURFACE_SIDE_STYLE ('',( #168 ) ) ;
#265 = EDGE_CURVE ( 'NONE', #108, #272, #197, .T. ) ;
#266 = LENGTH_MEASURE_WITH_UNIT ( LENGTH_MEASURE( 0.02539999999999999897 ), #170 );
#267 = ORIENTED_EDGE ( 'NONE', *, *, #265, .T. ) ;
#268 = AXIS2_PLACEMENT_3D ( 'NONE', #283, #239, #10 ) ;
#269 = VERTEX_POINT ( 'NONE', #292 ) ;
#270 = PRESENTATION_STYLE_ASSIGNMENT (( #126 ) ) ;
#271 = DIRECTION ( 'NONE',  ( -1.224646799147353454E-16, -0.0000000000000000000, -1.000000000000000000 ) ) ;
#272 = VERTEX_POINT ( 'NONE', #80 ) ;
#273 = FACE_OUTER_BOUND ( 'NONE', #130, .T. ) ;
#274 = EDGE_LOOP ( 'NONE', ( #132, #19 ) ) ;
#275 = CIRCLE ( 'NONE', #12, 0.06250000000000000000 ) ;
#276 = MECHANICAL_DESIGN_GEOMETRIC_PRESENTATION_REPRESENTATION (  '', ( #248 ), #36 ) ;
#277 = CARTESIAN_POINT ( 'NONE',  ( 0.0000000000000000000, 0.0000000000000000000, 0.0000000000000000000 ) ) ;
#278 = ADVANCED_FACE ( 'NONE', ( #124 ), #83, .T. ) ;
#279 = EDGE_LOOP ( 'NONE', ( #135, #18, #187, #137 ) ) ;
#280 = FACE_OUTER_BOUND ( 'NONE', #274, .T. ) ;
#281 = EDGE_CURVE ( 'NONE', #249, #200, #103, .T. ) ;
#282 = CARTESIAN_POINT ( 'NONE',  ( 0.0000000000000000000, 0.0000000000000000000, 1.500000000000000222 ) ) ;
#283 = CARTESIAN_POINT ( 'NONE',  ( 0.0000000000000000000, 0.0000000000000000000, 1.500000000000000222 ) ) ;
#284 = FACE_OUTER_BOUND ( 'NONE', #127, .T. ) ;
#285 = ORIENTED_EDGE ( 'NONE', *, *, #288, .F. ) ;
#286 = DIRECTION ( 'NONE',  ( -1.000000000000000000, 0.0000000000000000000, 1.224646799147353700E-16 ) ) ;
#287 = VECTOR ( 'NONE', #47, 39.37007874015748143 ) ;
#288 = EDGE_CURVE ( 'NONE', #108, #249, #15, .T. ) ;
#289 = CIRCLE ( 'NONE', #71, 0.06250000000000000000 ) ;
#290 = FILL_AREA_STYLE ('',( #196 ) ) ;
#291 =( NAMED_UNIT ( * ) PLANE_ANGLE_UNIT ( ) SI_UNIT ( $, .RADIAN. ) );
#292 = CARTESIAN_POINT ( 'NONE',  ( 0.06250000000000002776, 7.654042494670959086E-18, 0.2892130222250905436 ) ) ;
#293 = MANIFOLD_SOLID_BREP ( 'Cut-Revolve1', #235 ) ;
#294 = SHAPE_DEFINITION_REPRESENTATION ( #233, #125 ) ;
#295 = ORIENTED_EDGE ( 'NONE', *, *, #69, .F. ) ;
#296 = ORIENTED_EDGE ( 'NONE', *, *, #134, .T. ) ;
#297 = EDGE_LOOP ( 'NONE', ( #87, #207, #210, #151 ) ) ;
#298 = LENGTH_MEASURE_WITH_UNIT ( LENGTH_MEASURE( 0.02539999999999999897 ), #40 );
#299 = DIRECTION ( 'NONE',  ( 0.0000000000000000000, 0.0000000000000000000, 1.000000000000000000 ) ) ;
ENDSEC;
END-ISO-10303-21;
