ISO-10303-21;
HEADER;
FILE_DESCRIPTION (( 'STEP AP214' ),
    '1' );
FILE_NAME ('23090.STEP',
    '2023-06-22T16:32:54',
    ( '' ),
    ( '' ),
    'SwSTEP 2.0',
    'SolidWorks 2023',
    '' );
FILE_SCHEMA (( 'AUTOMOTIVE_DESIGN' ));
ENDSEC;

DATA;
#1 = PLANE ( 'NONE',  #108 ) ;
#2 =( NAMED_UNIT ( * ) PLANE_ANGLE_UNIT ( ) SI_UNIT ( $, .RADIAN. ) );
#3 =( NAMED_UNIT ( * ) SI_UNIT ( $, .STERADIAN. ) SOLID_ANGLE_UNIT ( ) );
#4 = CARTESIAN_POINT ( 'NONE',  ( -0.1250000000000001110, 2.500000000000000000, 0.000000000000000000 ) ) ;
#5 = DIRECTION ( 'NONE',  ( 0.000000000000000000, 0.000000000000000000, 1.000000000000000000 ) ) ;
#6 = COLOUR_RGB ( '',0.7921568627450980005, 0.8196078431372548767, 0.9333333333333333481 ) ;
#7 =( GEOMETRIC_REPRESENTATION_CONTEXT ( 3 ) GLOBAL_UNCERTAINTY_ASSIGNED_CONTEXT ( ( #223 ) ) GLOBAL_UNIT_ASSIGNED_CONTEXT ( ( #184, #2, #241 ) ) REPRESENTATION_CONTEXT ( 'NONE', 'WORKASPACE' ) );
#8 = SURFACE_STYLE_FILL_AREA ( #220 ) ;
#9 = CARTESIAN_POINT ( 'NONE',  ( 0.000000000000000000, 0.000000000000000000, 0.000000000000000000 ) ) ;
#10 = CARTESIAN_POINT ( 'NONE',  ( -0.1250000000000000278, 0.7499999999999998890, 0.000000000000000000 ) ) ;
#11 = PRODUCT_RELATED_PRODUCT_CATEGORY ( 'part', '', ( #93 ) ) ;
#12 = EDGE_LOOP ( 'NONE', ( #37, #294, #16, #83 ) ) ;
#13 = PRESENTATION_LAYER_ASSIGNMENT (  '', '', ( #278 ) ) ;
#14 = VERTEX_POINT ( 'NONE', #202 ) ;
#15 = DIMENSIONAL_EXPONENTS ( 1.000000000000000000, 0.000000000000000000, 0.000000000000000000, 0.000000000000000000, 0.000000000000000000, 0.000000000000000000, 0.000000000000000000 ) ;
#16 = ORIENTED_EDGE ( 'NONE', *, *, #232, .F. ) ;
#17 = EDGE_CURVE ( 'NONE', #139, #179, #263, .T. ) ;
#18 = SURFACE_SIDE_STYLE ('',( #225 ) ) ;
#19 = DIRECTION ( 'NONE',  ( -0.000000000000000000, -1.000000000000000000, -0.000000000000000000 ) ) ;
#20 = MECHANICAL_DESIGN_GEOMETRIC_PRESENTATION_REPRESENTATION (  '', ( #246 ), #174 ) ;
#21 = PRODUCT_DEFINITION_FORMATION_WITH_SPECIFIED_SOURCE ( 'ANY', '', #93, .NOT_KNOWN. ) ;
#22 =( NAMED_UNIT ( * ) PLANE_ANGLE_UNIT ( ) SI_UNIT ( $, .RADIAN. ) );
#23 = AXIS2_PLACEMENT_3D ( 'NONE', #288, #308, #265 ) ;
#24 =( CONVERSION_BASED_UNIT ( 'INCH', #142 ) LENGTH_UNIT ( ) NAMED_UNIT ( #303 ) );
#25 =( NAMED_UNIT ( * ) SI_UNIT ( $, .STERADIAN. ) SOLID_ANGLE_UNIT ( ) );
#26 = SURFACE_SIDE_STYLE ('',( #233 ) ) ;
#27 =( CONVERSION_BASED_UNIT ( 'INCH', #237 ) LENGTH_UNIT ( ) NAMED_UNIT ( #86 ) );
#28 = CARTESIAN_POINT ( 'NONE',  ( -6.123233995736766036E-17, 2.500000000000000000, 0.000000000000000000 ) ) ;
#29 = DIRECTION ( 'NONE',  ( -0.000000000000000000, -1.000000000000000000, -0.000000000000000000 ) ) ;
#30 = PRESENTATION_STYLE_ASSIGNMENT (( #261 ) ) ;
#31 = CARTESIAN_POINT ( 'NONE',  ( 0.000000000000000000, 0.7500000000000001110, 0.000000000000000000 ) ) ;
#32 = FACE_OUTER_BOUND ( 'NONE', #177, .T. ) ;
#33 =( GEOMETRIC_REPRESENTATION_CONTEXT ( 3 ) GLOBAL_UNCERTAINTY_ASSIGNED_CONTEXT ( ( #151 ) ) GLOBAL_UNIT_ASSIGNED_CONTEXT ( ( #69, #275, #49 ) ) REPRESENTATION_CONTEXT ( 'NONE', 'WORKASPACE' ) );
#34 = CIRCLE ( 'NONE', #74, 0.1250000000000000555 ) ;
#35 = VERTEX_POINT ( 'NONE', #10 ) ;
#36 = SHAPE_DEFINITION_REPRESENTATION ( #186, #242 ) ;
#37 = ORIENTED_EDGE ( 'NONE', *, *, #276, .T. ) ;
#38 = ORIENTED_EDGE ( 'NONE', *, *, #67, .T. ) ;
#39 = ORIENTED_EDGE ( 'NONE', *, *, #301, .T. ) ;
#40 = AXIS2_PLACEMENT_3D ( 'NONE', #274, #112, #154 ) ;
#41 = VECTOR ( 'NONE', #54, 39.37007874015748143 ) ;
#42 = DIMENSIONAL_EXPONENTS ( 1.000000000000000000, 0.000000000000000000, 0.000000000000000000, 0.000000000000000000, 0.000000000000000000, 0.000000000000000000, 0.000000000000000000 ) ;
#43 = SURFACE_SIDE_STYLE ('',( #8 ) ) ;
#44 = ADVANCED_FACE ( 'NONE', ( #200 ), #216, .T. ) ;
#45 =( NAMED_UNIT ( * ) PLANE_ANGLE_UNIT ( ) SI_UNIT ( $, .RADIAN. ) );
#46 = FILL_AREA_STYLE ('',( #255 ) ) ;
#47 = SURFACE_SIDE_STYLE ('',( #114 ) ) ;
#48 = DIRECTION ( 'NONE',  ( 0.000000000000000000, 0.000000000000000000, -1.000000000000000000 ) ) ;
#49 =( NAMED_UNIT ( * ) SI_UNIT ( $, .STERADIAN. ) SOLID_ANGLE_UNIT ( ) );
#50 = MECHANICAL_DESIGN_GEOMETRIC_PRESENTATION_REPRESENTATION (  '', ( #215 ), #87 ) ;
#51 = DIRECTION ( 'NONE',  ( -3.498990854706722745E-17, 1.000000000000000000, -0.000000000000000000 ) ) ;
#52 = FACE_OUTER_BOUND ( 'NONE', #217, .T. ) ;
#53 = CYLINDRICAL_SURFACE ( 'NONE', #111, 0.1250000000000000278 ) ;
#54 = DIRECTION ( 'NONE',  ( -0.000000000000000000, -1.000000000000000000, -0.000000000000000000 ) ) ;
#55 = CLOSED_SHELL ( 'NONE', ( #168, #109, #193, #153 ) ) ;
#56 = CIRCLE ( 'NONE', #269, 0.1250000000000000278 ) ;
#57 = LENGTH_MEASURE_WITH_UNIT ( LENGTH_MEASURE( 0.02539999999999999897 ), #171 );
#58 = CARTESIAN_POINT ( 'NONE',  ( 1.530808498934191509E-17, 0.000000000000000000, 0.1250000000000000000 ) ) ;
#59 =( NAMED_UNIT ( * ) SI_UNIT ( $, .STERADIAN. ) SOLID_ANGLE_UNIT ( ) );
#60 = PRODUCT_CONTEXT ( 'NONE', #199, 'mechanical' ) ;
#61 = CLOSED_SHELL ( 'NONE', ( #77, #131, #250, #44 ) ) ;
#62 =( GEOMETRIC_REPRESENTATION_CONTEXT ( 3 ) GLOBAL_UNCERTAINTY_ASSIGNED_CONTEXT ( ( #293 ) ) GLOBAL_UNIT_ASSIGNED_CONTEXT ( ( #27, #22, #25 ) ) REPRESENTATION_CONTEXT ( 'NONE', 'WORKASPACE' ) );
#63 = PRESENTATION_STYLE_ASSIGNMENT (( #268 ) ) ;
#64 = ORIENTED_EDGE ( 'NONE', *, *, #17, .T. ) ;
#65 = EDGE_LOOP ( 'NONE', ( #248, #137 ) ) ;
#66 = VERTEX_POINT ( 'NONE', #228 ) ;
#67 = EDGE_CURVE ( 'NONE', #270, #139, #119, .T. ) ;
#68 = PRESENTATION_STYLE_ASSIGNMENT (( #224 ) ) ;
#69 =( CONVERSION_BASED_UNIT ( 'INCH', #279 ) LENGTH_UNIT ( ) NAMED_UNIT ( #282 ) );
#70 = FILL_AREA_STYLE ('',( #164 ) ) ;
#71 = FACE_OUTER_BOUND ( 'NONE', #65, .T. ) ;
#72 = CARTESIAN_POINT ( 'NONE',  ( -7.582401355855259480E-33, 0.7499999999999998890, 0.000000000000000000 ) ) ;
#73 =( GEOMETRIC_REPRESENTATION_CONTEXT ( 3 ) GLOBAL_UNCERTAINTY_ASSIGNED_CONTEXT ( ( #124 ) ) GLOBAL_UNIT_ASSIGNED_CONTEXT ( ( #107, #130, #59 ) ) REPRESENTATION_CONTEXT ( 'NONE', 'WORKASPACE' ) );
#74 = AXIS2_PLACEMENT_3D ( 'NONE', #149, #192, #78 ) ;
#75 = DIRECTION ( 'NONE',  ( 3.498990854706722745E-17, -1.000000000000000000, 0.000000000000000000 ) ) ;
#76 = CARTESIAN_POINT ( 'NONE',  ( 0.1250000000000000000, 2.500000000000000000, 1.530808498934192125E-17 ) ) ;
#77 = ADVANCED_FACE ( 'NONE', ( #280 ), #182, .T. ) ;
#78 = DIRECTION ( 'NONE',  ( -1.000000000000000000, 0.000000000000000000, 0.000000000000000000 ) ) ;
#79 = PRESENTATION_LAYER_ASSIGNMENT (  '', '', ( #211 ) ) ;
#80 = CARTESIAN_POINT ( 'NONE',  ( -0.1250000000000001110, 2.500000000000000000, 0.000000000000000000 ) ) ;
#81 = ORIENTED_EDGE ( 'NONE', *, *, #117, .T. ) ;
#82 = EDGE_CURVE ( 'NONE', #66, #14, #92, .T. ) ;
#83 = ORIENTED_EDGE ( 'NONE', *, *, #82, .F. ) ;
#84 = VERTEX_POINT ( 'NONE', #161 ) ;
#85 = EDGE_LOOP ( 'NONE', ( #88, #253 ) ) ;
#86 = DIMENSIONAL_EXPONENTS ( 1.000000000000000000, 0.000000000000000000, 0.000000000000000000, 0.000000000000000000, 0.000000000000000000, 0.000000000000000000, 0.000000000000000000 ) ;
#87 =( GEOMETRIC_REPRESENTATION_CONTEXT ( 3 ) GLOBAL_UNCERTAINTY_ASSIGNED_CONTEXT ( ( #106 ) ) GLOBAL_UNIT_ASSIGNED_CONTEXT ( ( #24, #45, #91 ) ) REPRESENTATION_CONTEXT ( 'NONE', 'WORKASPACE' ) );
#88 = ORIENTED_EDGE ( 'NONE', *, *, #221, .F. ) ;
#89 = DIRECTION ( 'NONE',  ( 0.000000000000000000, 0.000000000000000000, -1.000000000000000000 ) ) ;
#90 = LINE ( 'NONE', #80, #251 ) ;
#91 =( NAMED_UNIT ( * ) SI_UNIT ( $, .STERADIAN. ) SOLID_ANGLE_UNIT ( ) );
#92 = LINE ( 'NONE', #203, #136 ) ;
#93 = PRODUCT ( '23090', '23090', '', ( #60 ) ) ;
#94 = DIRECTION ( 'NONE',  ( 0.000000000000000000, 0.000000000000000000, -1.000000000000000000 ) ) ;
#95 = CARTESIAN_POINT ( 'NONE',  ( 0.1249999999999999584, 2.500000000000000000, 1.530808498934191817E-17 ) ) ;
#96 = DIRECTION ( 'NONE',  ( -1.000000000000000000, 0.000000000000000000, 0.000000000000000000 ) ) ;
#97 =( CONVERSION_BASED_UNIT ( 'INCH', #57 ) LENGTH_UNIT ( ) NAMED_UNIT ( #42 ) );
#98 = VECTOR ( 'NONE', #227, 39.37007874015748143 ) ;
#99 = AXIS2_PLACEMENT_3D ( 'NONE', #307, #105, #123 ) ;
#100 = CYLINDRICAL_SURFACE ( 'NONE', #23, 0.1250000000000000000 ) ;
#101 = FACE_OUTER_BOUND ( 'NONE', #222, .T. ) ;
#102 = PRODUCT_DEFINITION ( 'UNKNOWN', '', #21, #183 ) ;
#103 = DIRECTION ( 'NONE',  ( 0.000000000000000000, 0.000000000000000000, -1.000000000000000000 ) ) ;
#104 = DIRECTION ( 'NONE',  ( 1.000000000000000000, 0.000000000000000000, 0.000000000000000000 ) ) ;
#105 = DIRECTION ( 'NONE',  ( -3.498990854706722745E-17, 1.000000000000000000, -0.000000000000000000 ) ) ;
#106 = UNCERTAINTY_MEASURE_WITH_UNIT (LENGTH_MEASURE( 1.000000000000000082E-05 ), #24, 'distance_accuracy_value', 'NONE');
#107 =( CONVERSION_BASED_UNIT ( 'INCH', #267 ) LENGTH_UNIT ( ) NAMED_UNIT ( #15 ) );
#108 = AXIS2_PLACEMENT_3D ( 'NONE', #129, #75, #189 ) ;
#109 = ADVANCED_FACE ( 'NONE', ( #185 ), #231, .F. ) ;
#110 = PRESENTATION_LAYER_ASSIGNMENT (  '', '', ( #215 ) ) ;
#111 = AXIS2_PLACEMENT_3D ( 'NONE', #28, #51, #214 ) ;
#112 = DIRECTION ( 'NONE',  ( -3.498990854706722745E-17, 1.000000000000000000, -0.000000000000000000 ) ) ;
#113 = MANIFOLD_SOLID_BREP ( 'Revolve - Cutting Edge', #61 ) ;
#114 = SURFACE_STYLE_FILL_AREA ( #70 ) ;
#115 = CIRCLE ( 'NONE', #132, 0.1250000000000000000 ) ;
#116 = MANIFOLD_SOLID_BREP ( 'Revolve - Tool Body (Straight Shanked)', #55 ) ;
#117 = EDGE_CURVE ( 'NONE', #35, #179, #90, .T. ) ;
#118 = LENGTH_MEASURE_WITH_UNIT ( LENGTH_MEASURE( 0.02539999999999999897 ), #172 );
#119 = LINE ( 'NONE', #95, #98 ) ;
#120 = COLOUR_RGB ( '',1.000000000000000000, 0.000000000000000000, 0.000000000000000000 ) ;
#121 = CARTESIAN_POINT ( 'NONE',  ( 0.1250000000000000278, 0.7499999999999998890, 1.530808498934192125E-17 ) ) ;
#122 = CARTESIAN_POINT ( 'NONE',  ( 7.651835625825803009E-35, 0.7500000000000001110, 0.000000000000000000 ) ) ;
#123 = DIRECTION ( 'NONE',  ( -1.000000000000000000, 0.000000000000000000, 0.000000000000000000 ) ) ;
#124 = UNCERTAINTY_MEASURE_WITH_UNIT (LENGTH_MEASURE( 1.000000000000000082E-05 ), #107, 'distance_accuracy_value', 'NONE');
#125 = SURFACE_STYLE_USAGE ( .BOTH. , #26 ) ;
#126 = CYLINDRICAL_SURFACE ( 'NONE', #247, 0.1250000000000000278 ) ;
#127 = SURFACE_STYLE_USAGE ( .BOTH. , #208 ) ;
#128 = SURFACE_SIDE_STYLE ('',( #281 ) ) ;
#129 = CARTESIAN_POINT ( 'NONE',  ( 0.1249999999999999861, 2.500000000000000000, 0.000000000000000000 ) ) ;
#130 =( NAMED_UNIT ( * ) PLANE_ANGLE_UNIT ( ) SI_UNIT ( $, .RADIAN. ) );
#131 = ADVANCED_FACE ( 'NONE', ( #71 ), #212, .T. ) ;
#132 = AXIS2_PLACEMENT_3D ( 'NONE', #167, #191, #146 ) ;
#133 = FILL_AREA_STYLE_COLOUR ( '', #162 ) ;
#134 = ORIENTED_EDGE ( 'NONE', *, *, #301, .F. ) ;
#135 = ORIENTED_EDGE ( 'NONE', *, *, #306, .F. ) ;
#136 = VECTOR ( 'NONE', #256, 39.37007874015748143 ) ;
#137 = ORIENTED_EDGE ( 'NONE', *, *, #155, .F. ) ;
#138 = APPLICATION_CONTEXT ( 'automotive_design' ) ;
#139 = VERTEX_POINT ( 'NONE', #76 ) ;
#140 = DIRECTION ( 'NONE',  ( -1.000000000000000000, -3.498990854706722745E-17, 0.000000000000000000 ) ) ;
#141 = AXIS2_PLACEMENT_3D ( 'NONE', #143, #19, #48 ) ;
#142 = LENGTH_MEASURE_WITH_UNIT ( LENGTH_MEASURE( 0.02539999999999999897 ), #163 );
#143 = CARTESIAN_POINT ( 'NONE',  ( 0.000000000000000000, 0.000000000000000000, 0.000000000000000000 ) ) ;
#144 = PRESENTATION_LAYER_ASSIGNMENT (  '', '', ( #273 ) ) ;
#145 = CIRCLE ( 'NONE', #292, 0.1250000000000000278 ) ;
#146 = DIRECTION ( 'NONE',  ( 0.000000000000000000, 0.000000000000000000, -1.000000000000000000 ) ) ;
#147 =( LENGTH_UNIT ( ) NAMED_UNIT ( * ) SI_UNIT ( $, .METRE. ) );
#148 = DIRECTION ( 'NONE',  ( -3.498990854706722745E-17, 1.000000000000000000, -0.000000000000000000 ) ) ;
#149 = CARTESIAN_POINT ( 'NONE',  ( -6.123233995736766036E-17, 2.500000000000000000, 0.000000000000000000 ) ) ;
#150 = FILL_AREA_STYLE_COLOUR ( '', #205 ) ;
#151 = UNCERTAINTY_MEASURE_WITH_UNIT (LENGTH_MEASURE( 1.000000000000000082E-05 ), #69, 'distance_accuracy_value', 'NONE');
#152 = FACE_OUTER_BOUND ( 'NONE', #173, .T. ) ;
#153 = ADVANCED_FACE ( 'NONE', ( #152 ), #1, .F. ) ;
#154 = DIRECTION ( 'NONE',  ( -1.000000000000000000, 0.000000000000000000, 0.000000000000000000 ) ) ;
#155 = EDGE_CURVE ( 'NONE', #84, #66, #56, .T. ) ;
#156 = ORIENTED_EDGE ( 'NONE', *, *, #82, .T. ) ;
#157 = MECHANICAL_DESIGN_GEOMETRIC_PRESENTATION_REPRESENTATION (  '', ( #278 ), #238 ) ;
#158 = PRESENTATION_LAYER_ASSIGNMENT (  '', '', ( #246 ) ) ;
#159 = AXIS2_PLACEMENT_3D ( 'NONE', #206, #190, #94 ) ;
#160 = ORIENTED_EDGE ( 'NONE', *, *, #221, .T. ) ;
#161 = CARTESIAN_POINT ( 'NONE',  ( 1.530808498934191817E-17, 0.7500000000000001110, 0.1250000000000000278 ) ) ;
#162 = COLOUR_RGB ( '',1.000000000000000000, 0.000000000000000000, 0.000000000000000000 ) ;
#163 =( LENGTH_UNIT ( ) NAMED_UNIT ( * ) SI_UNIT ( $, .METRE. ) );
#164 = FILL_AREA_STYLE_COLOUR ( '', #284 ) ;
#165 = MECHANICAL_DESIGN_GEOMETRIC_PRESENTATION_REPRESENTATION (  '', ( #257 ), #73 ) ;
#166 = DIRECTION ( 'NONE',  ( 0.000000000000000000, 0.000000000000000000, -1.000000000000000000 ) ) ;
#167 = CARTESIAN_POINT ( 'NONE',  ( 0.000000000000000000, 0.000000000000000000, 0.000000000000000000 ) ) ;
#168 = ADVANCED_FACE ( 'NONE', ( #101 ), #53, .T. ) ;
#169 = LINE ( 'NONE', #262, #41 ) ;
#170 = APPLICATION_PROTOCOL_DEFINITION ( 'draft international standard', 'automotive_design', 1998, #199 ) ;
#171 =( LENGTH_UNIT ( ) NAMED_UNIT ( * ) SI_UNIT ( $, .METRE. ) );
#172 =( LENGTH_UNIT ( ) NAMED_UNIT ( * ) SI_UNIT ( $, .METRE. ) );
#173 = EDGE_LOOP ( 'NONE', ( #39, #64 ) ) ;
#174 =( GEOMETRIC_REPRESENTATION_CONTEXT ( 3 ) GLOBAL_UNCERTAINTY_ASSIGNED_CONTEXT ( ( #300 ) ) GLOBAL_UNIT_ASSIGNED_CONTEXT ( ( #97, #260, #187 ) ) REPRESENTATION_CONTEXT ( 'NONE', 'WORKASPACE' ) );
#175 =( LENGTH_UNIT ( ) NAMED_UNIT ( * ) SI_UNIT ( $, .METRE. ) );
#176 = AXIS2_PLACEMENT_3D ( 'NONE', #72, #304, #96 ) ;
#177 = EDGE_LOOP ( 'NONE', ( #272, #249, #81, #218 ) ) ;
#178 = ORIENTED_EDGE ( 'NONE', *, *, #299, .T. ) ;
#179 = VERTEX_POINT ( 'NONE', #4 ) ;
#180 = DIMENSIONAL_EXPONENTS ( 1.000000000000000000, 0.000000000000000000, 0.000000000000000000, 0.000000000000000000, 0.000000000000000000, 0.000000000000000000, 0.000000000000000000 ) ;
#181 = EDGE_CURVE ( 'NONE', #270, #35, #219, .T. ) ;
#182 = CYLINDRICAL_SURFACE ( 'NONE', #141, 0.1250000000000000000 ) ;
#183 = PRODUCT_DEFINITION_CONTEXT ( 'detailed design', #138, 'design' ) ;
#184 =( CONVERSION_BASED_UNIT ( 'INCH', #118 ) LENGTH_UNIT ( ) NAMED_UNIT ( #180 ) );
#185 = FACE_OUTER_BOUND ( 'NONE', #85, .T. ) ;
#186 = PRODUCT_DEFINITION_SHAPE ( 'NONE', 'NONE',  #102 ) ;
#187 =( NAMED_UNIT ( * ) SI_UNIT ( $, .STERADIAN. ) SOLID_ANGLE_UNIT ( ) );
#188 = AXIS2_PLACEMENT_3D ( 'NONE', #122, #254, #140 ) ;
#189 = DIRECTION ( 'NONE',  ( 1.000000000000000000, 3.498990854706722745E-17, 0.000000000000000000 ) ) ;
#190 = DIRECTION ( 'NONE',  ( -0.000000000000000000, -1.000000000000000000, -0.000000000000000000 ) ) ;
#191 = DIRECTION ( 'NONE',  ( -0.000000000000000000, -1.000000000000000000, -0.000000000000000000 ) ) ;
#192 = DIRECTION ( 'NONE',  ( -3.498990854706722745E-17, 1.000000000000000000, -0.000000000000000000 ) ) ;
#193 = ADVANCED_FACE ( 'NONE', ( #32 ), #126, .T. ) ;
#194 = PRESENTATION_STYLE_ASSIGNMENT (( #229 ) ) ;
#195 = AXIS2_PLACEMENT_3D ( 'NONE', #204, #277, #89 ) ;
#196 = CARTESIAN_POINT ( 'NONE',  ( -6.123233995736766036E-17, 2.500000000000000000, 0.000000000000000000 ) ) ;
#197 = ORIENTED_EDGE ( 'NONE', *, *, #299, .F. ) ;
#198 = MECHANICAL_DESIGN_GEOMETRIC_PRESENTATION_REPRESENTATION (  '', ( #211 ), #62 ) ;
#199 = APPLICATION_CONTEXT ( 'automotive_design' ) ;
#200 = FACE_OUTER_BOUND ( 'NONE', #296, .T. ) ;
#201 = VERTEX_POINT ( 'NONE', #58 ) ;
#202 = CARTESIAN_POINT ( 'NONE',  ( 0.000000000000000000, 0.000000000000000000, -0.1250000000000000000 ) ) ;
#203 = CARTESIAN_POINT ( 'NONE',  ( 0.000000000000000000, 0.000000000000000000, -0.1250000000000000000 ) ) ;
#204 = CARTESIAN_POINT ( 'NONE',  ( 0.000000000000000000, 0.000000000000000000, 0.000000000000000000 ) ) ;
#205 = COLOUR_RGB ( '',1.000000000000000000, 0.000000000000000000, 0.000000000000000000 ) ;
#206 = CARTESIAN_POINT ( 'NONE',  ( 0.000000000000000000, 0.000000000000000000, 0.000000000000000000 ) ) ;
#207 =( LENGTH_UNIT ( ) NAMED_UNIT ( * ) SI_UNIT ( $, .METRE. ) );
#208 = SURFACE_SIDE_STYLE ('',( #264 ) ) ;
#209 = DIRECTION ( 'NONE',  ( 0.000000000000000000, -0.000000000000000000, 1.000000000000000000 ) ) ;
#210 = AXIS2_PLACEMENT_3D ( 'NONE', #283, #236, #209 ) ;
#211 = STYLED_ITEM ( 'NONE', ( #194 ), #250 ) ;
#212 = PLANE ( 'NONE',  #210 ) ;
#213 = CARTESIAN_POINT ( 'NONE',  ( 0.000000000000000000, 0.7500000000000001110, 0.000000000000000000 ) ) ;
#214 = DIRECTION ( 'NONE',  ( -1.000000000000000000, 0.000000000000000000, 0.000000000000000000 ) ) ;
#215 = STYLED_ITEM ( 'NONE', ( #68 ), #77 ) ;
#216 = PLANE ( 'NONE',  #195 ) ;
#217 = EDGE_LOOP ( 'NONE', ( #135, #297, #156, #197 ) ) ;
#218 = ORIENTED_EDGE ( 'NONE', *, *, #17, .F. ) ;
#219 = CIRCLE ( 'NONE', #99, 0.1250000000000000278 ) ;
#220 = FILL_AREA_STYLE ('',( #133 ) ) ;
#221 = EDGE_CURVE ( 'NONE', #35, #270, #252, .T. ) ;
#222 = EDGE_LOOP ( 'NONE', ( #160, #38, #134, #295 ) ) ;
#223 = UNCERTAINTY_MEASURE_WITH_UNIT (LENGTH_MEASURE( 1.000000000000000082E-05 ), #184, 'distance_accuracy_value', 'NONE');
#224 = SURFACE_STYLE_USAGE ( .BOTH. , #47 ) ;
#225 = SURFACE_STYLE_FILL_AREA ( #46 ) ;
#226 = UNCERTAINTY_MEASURE_WITH_UNIT (LENGTH_MEASURE( 1.000000000000000082E-05 ), #289, 'distance_accuracy_value', 'NONE');
#227 = DIRECTION ( 'NONE',  ( -3.498990854706722745E-17, 1.000000000000000000, -0.000000000000000000 ) ) ;
#228 = CARTESIAN_POINT ( 'NONE',  ( 0.000000000000000000, 0.7500000000000001110, -0.1250000000000000278 ) ) ;
#229 = SURFACE_STYLE_USAGE ( .BOTH. , #128 ) ;
#230 = COLOUR_RGB ( '',0.7921568627450980005, 0.8196078431372548767, 0.9333333333333333481 ) ;
#231 = PLANE ( 'NONE',  #188 ) ;
#232 = EDGE_CURVE ( 'NONE', #14, #201, #115, .T. ) ;
#233 = SURFACE_STYLE_FILL_AREA ( #243 ) ;
#234 = FILL_AREA_STYLE ('',( #287 ) ) ;
#235 =( NAMED_UNIT ( * ) PLANE_ANGLE_UNIT ( ) SI_UNIT ( $, .RADIAN. ) );
#236 = DIRECTION ( 'NONE',  ( 0.000000000000000000, 1.000000000000000000, 0.000000000000000000 ) ) ;
#237 = LENGTH_MEASURE_WITH_UNIT ( LENGTH_MEASURE( 0.02539999999999999897 ), #240 );
#238 =( GEOMETRIC_REPRESENTATION_CONTEXT ( 3 ) GLOBAL_UNCERTAINTY_ASSIGNED_CONTEXT ( ( #226 ) ) GLOBAL_UNIT_ASSIGNED_CONTEXT ( ( #289, #235, #3 ) ) REPRESENTATION_CONTEXT ( 'NONE', 'WORKASPACE' ) );
#239 = FILL_AREA_STYLE ('',( #150 ) ) ;
#240 =( LENGTH_UNIT ( ) NAMED_UNIT ( * ) SI_UNIT ( $, .METRE. ) );
#241 =( NAMED_UNIT ( * ) SI_UNIT ( $, .STERADIAN. ) SOLID_ANGLE_UNIT ( ) );
#242 = ADVANCED_BREP_SHAPE_REPRESENTATION ( '23090', ( #113, #116, #285 ), #7 ) ;
#243 = FILL_AREA_STYLE ('',( #258 ) ) ;
#244 = APPLICATION_PROTOCOL_DEFINITION ( 'draft international standard', 'automotive_design', 1998, #138 ) ;
#245 = ORIENTED_EDGE ( 'NONE', *, *, #232, .T. ) ;
#246 = STYLED_ITEM ( 'NONE', ( #305 ), #131 ) ;
#247 = AXIS2_PLACEMENT_3D ( 'NONE', #196, #259, #266 ) ;
#248 = ORIENTED_EDGE ( 'NONE', *, *, #276, .F. ) ;
#249 = ORIENTED_EDGE ( 'NONE', *, *, #181, .T. ) ;
#250 = ADVANCED_FACE ( 'NONE', ( #52 ), #100, .T. ) ;
#251 = VECTOR ( 'NONE', #148, 39.37007874015748143 ) ;
#252 = CIRCLE ( 'NONE', #176, 0.1250000000000000278 ) ;
#253 = ORIENTED_EDGE ( 'NONE', *, *, #181, .F. ) ;
#254 = DIRECTION ( 'NONE',  ( -3.498990854706722745E-17, 1.000000000000000000, 0.000000000000000000 ) ) ;
#255 = FILL_AREA_STYLE_COLOUR ( '', #230 ) ;
#256 = DIRECTION ( 'NONE',  ( -0.000000000000000000, -1.000000000000000000, -0.000000000000000000 ) ) ;
#257 = STYLED_ITEM ( 'NONE', ( #286 ), #116 ) ;
#258 = FILL_AREA_STYLE_COLOUR ( '', #6 ) ;
#259 = DIRECTION ( 'NONE',  ( -3.498990854706722745E-17, 1.000000000000000000, -0.000000000000000000 ) ) ;
#260 =( NAMED_UNIT ( * ) PLANE_ANGLE_UNIT ( ) SI_UNIT ( $, .RADIAN. ) );
#261 = SURFACE_STYLE_USAGE ( .BOTH. , #18 ) ;
#262 = CARTESIAN_POINT ( 'NONE',  ( 1.530808498934191509E-17, 0.000000000000000000, 0.1250000000000000000 ) ) ;
#263 = CIRCLE ( 'NONE', #40, 0.1250000000000000555 ) ;
#264 = SURFACE_STYLE_FILL_AREA ( #234 ) ;
#265 = DIRECTION ( 'NONE',  ( 0.000000000000000000, 0.000000000000000000, -1.000000000000000000 ) ) ;
#266 = DIRECTION ( 'NONE',  ( -1.000000000000000000, 0.000000000000000000, 0.000000000000000000 ) ) ;
#267 = LENGTH_MEASURE_WITH_UNIT ( LENGTH_MEASURE( 0.02539999999999999897 ), #175 );
#268 = SURFACE_STYLE_USAGE ( .BOTH. , #43 ) ;
#269 = AXIS2_PLACEMENT_3D ( 'NONE', #31, #290, #166 ) ;
#270 = VERTEX_POINT ( 'NONE', #121 ) ;
#271 = DIMENSIONAL_EXPONENTS ( 1.000000000000000000, 0.000000000000000000, 0.000000000000000000, 0.000000000000000000, 0.000000000000000000, 0.000000000000000000, 0.000000000000000000 ) ;
#272 = ORIENTED_EDGE ( 'NONE', *, *, #67, .F. ) ;
#273 = STYLED_ITEM ( 'NONE', ( #63 ), #44 ) ;
#274 = CARTESIAN_POINT ( 'NONE',  ( -6.123233995736766036E-17, 2.500000000000000000, 0.000000000000000000 ) ) ;
#275 =( NAMED_UNIT ( * ) PLANE_ANGLE_UNIT ( ) SI_UNIT ( $, .RADIAN. ) );
#276 = EDGE_CURVE ( 'NONE', #66, #84, #145, .T. ) ;
#277 = DIRECTION ( 'NONE',  ( 0.000000000000000000, -1.000000000000000000, -0.000000000000000000 ) ) ;
#278 = STYLED_ITEM ( 'NONE', ( #30 ), #113 ) ;
#279 = LENGTH_MEASURE_WITH_UNIT ( LENGTH_MEASURE( 0.02539999999999999897 ), #207 );
#280 = FACE_OUTER_BOUND ( 'NONE', #12, .T. ) ;
#281 = SURFACE_STYLE_FILL_AREA ( #239 ) ;
#282 = DIMENSIONAL_EXPONENTS ( 1.000000000000000000, 0.000000000000000000, 0.000000000000000000, 0.000000000000000000, 0.000000000000000000, 0.000000000000000000, 0.000000000000000000 ) ;
#283 = CARTESIAN_POINT ( 'NONE',  ( 0.000000000000000000, 0.7500000000000001110, 0.000000000000000000 ) ) ;
#284 = COLOUR_RGB ( '',1.000000000000000000, 0.000000000000000000, 0.000000000000000000 ) ;
#285 = AXIS2_PLACEMENT_3D ( 'NONE', #9, #5, #104 ) ;
#286 = PRESENTATION_STYLE_ASSIGNMENT (( #125 ) ) ;
#287 = FILL_AREA_STYLE_COLOUR ( '', #120 ) ;
#288 = CARTESIAN_POINT ( 'NONE',  ( 0.000000000000000000, 0.000000000000000000, 0.000000000000000000 ) ) ;
#289 =( CONVERSION_BASED_UNIT ( 'INCH', #309 ) LENGTH_UNIT ( ) NAMED_UNIT ( #271 ) );
#290 = DIRECTION ( 'NONE',  ( -0.000000000000000000, -1.000000000000000000, -0.000000000000000000 ) ) ;
#291 = MECHANICAL_DESIGN_GEOMETRIC_PRESENTATION_REPRESENTATION (  '', ( #273 ), #33 ) ;
#292 = AXIS2_PLACEMENT_3D ( 'NONE', #213, #29, #103 ) ;
#293 = UNCERTAINTY_MEASURE_WITH_UNIT (LENGTH_MEASURE( 1.000000000000000082E-05 ), #27, 'distance_accuracy_value', 'NONE');
#294 = ORIENTED_EDGE ( 'NONE', *, *, #306, .T. ) ;
#295 = ORIENTED_EDGE ( 'NONE', *, *, #117, .F. ) ;
#296 = EDGE_LOOP ( 'NONE', ( #245, #178 ) ) ;
#297 = ORIENTED_EDGE ( 'NONE', *, *, #155, .T. ) ;
#298 = PRESENTATION_LAYER_ASSIGNMENT (  '', '', ( #257 ) ) ;
#299 = EDGE_CURVE ( 'NONE', #201, #14, #302, .T. ) ;
#300 = UNCERTAINTY_MEASURE_WITH_UNIT (LENGTH_MEASURE( 1.000000000000000082E-05 ), #97, 'distance_accuracy_value', 'NONE');
#301 = EDGE_CURVE ( 'NONE', #179, #139, #34, .T. ) ;
#302 = CIRCLE ( 'NONE', #159, 0.1250000000000000000 ) ;
#303 = DIMENSIONAL_EXPONENTS ( 1.000000000000000000, 0.000000000000000000, 0.000000000000000000, 0.000000000000000000, 0.000000000000000000, 0.000000000000000000, 0.000000000000000000 ) ;
#304 = DIRECTION ( 'NONE',  ( -3.498990854706722745E-17, 1.000000000000000000, -0.000000000000000000 ) ) ;
#305 = PRESENTATION_STYLE_ASSIGNMENT (( #127 ) ) ;
#306 = EDGE_CURVE ( 'NONE', #84, #201, #169, .T. ) ;
#307 = CARTESIAN_POINT ( 'NONE',  ( -7.582401355855259480E-33, 0.7499999999999998890, 0.000000000000000000 ) ) ;
#308 = DIRECTION ( 'NONE',  ( -0.000000000000000000, -1.000000000000000000, -0.000000000000000000 ) ) ;
#309 = LENGTH_MEASURE_WITH_UNIT ( LENGTH_MEASURE( 0.02539999999999999897 ), #147 );
ENDSEC;
END-ISO-10303-21;
