ISO-10303-21;
HEADER;
FILE_DESCRIPTION (( 'STEP AP214' ),
    '1' );
FILE_NAME ('Micro_RNC-375-2.STEP',
    '2021-09-03T17:38:07',
    ( '' ),
    ( '' ),
    'SwSTEP 2.0',
    'SolidWorks 2020',
    '' );
FILE_SCHEMA (( 'AUTOMOTIVE_DESIGN' ));
ENDSEC;

DATA;
#1 = DIRECTION ( 'NONE',  ( -1.000000000000000000, 0.0000000000000000000, 0.0000000000000000000 ) ) ;
#2 = VECTOR ( 'NONE', #244, 39.37007874015748854 ) ;
#3 = AXIS2_PLACEMENT_3D ( 'NONE', #229, #96, #151 ) ;
#4 = DIRECTION ( 'NONE',  ( 0.0000000000000000000, 0.0000000000000000000, -1.000000000000000000 ) ) ;
#5 = PRODUCT_CONTEXT ( 'NONE', #120, 'mechanical' ) ;
#6 = LINE ( 'NONE', #204, #150 ) ;
#7 = STYLED_ITEM ( 'NONE', ( #43 ), #112 ) ;
#8 = EDGE_CURVE ( 'NONE', #89, #177, #18, .T. ) ;
#9 = CIRCLE ( 'NONE', #64, 0.003999999999999999216 ) ;
#10 = FILL_AREA_STYLE_COLOUR ( '', #102 ) ;
#11 = ADVANCED_FACE ( 'NONE', ( #76 ), #205, .T. ) ;
#12 = CYLINDRICAL_SURFACE ( 'NONE', #176, 0.1875000000000000278 ) ;
#13 = DIRECTION ( 'NONE',  ( -0.0000000000000000000, -0.0000000000000000000, -1.000000000000000000 ) ) ;
#14 = ADVANCED_FACE ( 'NONE', ( #191 ), #114, .T. ) ;
#15 = VERTEX_POINT ( 'NONE', #92 ) ;
#16 =( NAMED_UNIT ( * ) SI_UNIT ( $, .STERADIAN. ) SOLID_ANGLE_UNIT ( ) );
#17 =( LENGTH_UNIT ( ) NAMED_UNIT ( * ) SI_UNIT ( $, .METRE. ) );
#18 = LINE ( 'NONE', #238, #165 ) ;
#19 = DIRECTION ( 'NONE',  ( 0.0000000000000000000, 0.0000000000000000000, 1.000000000000000000 ) ) ;
#20 = DIRECTION ( 'NONE',  ( -0.0000000000000000000, -0.0000000000000000000, -1.000000000000000000 ) ) ;
#21 =( NAMED_UNIT ( * ) SI_UNIT ( $, .STERADIAN. ) SOLID_ANGLE_UNIT ( ) );
#22 = PLANE ( 'NONE',  #107 ) ;
#23 = AXIS2_PLACEMENT_3D ( 'NONE', #97, #206, #39 ) ;
#24 = CONICAL_SURFACE ( 'NONE', #23, 0.003999999999999999216, 0.7853981633974504994 ) ;
#25 = DIRECTION ( 'NONE',  ( 1.000000000000000000, 0.0000000000000000000, -0.0000000000000000000 ) ) ;
#26 = CARTESIAN_POINT ( 'NONE',  ( -0.003999999999999999216, 1.172599310183590719E-17, 0.0000000000000000000 ) ) ;
#27 = ORIENTED_EDGE ( 'NONE', *, *, #54, .T. ) ;
#28 = ORIENTED_EDGE ( 'NONE', *, *, #8, .F. ) ;
#29 = DIRECTION ( 'NONE',  ( -0.0000000000000000000, -0.0000000000000000000, -1.000000000000000000 ) ) ;
#30 = CONICAL_SURFACE ( 'NONE', #221, 0.003999999999999999216, 0.7853981633974504994 ) ;
#31 = EDGE_CURVE ( 'NONE', #223, #89, #124, .T. ) ;
#32 = DIRECTION ( 'NONE',  ( -1.000000000000000000, 0.0000000000000000000, 0.0000000000000000000 ) ) ;
#33 = CARTESIAN_POINT ( 'NONE',  ( 0.0000000000000000000, 0.0000000000000000000, 2.500000000000000000 ) ) ;
#34 = LINE ( 'NONE', #185, #227 ) ;
#35 = CARTESIAN_POINT ( 'NONE',  ( 0.003999999999999999216, 0.0000000000000000000, 2.500000000000000000 ) ) ;
#36 = DIRECTION ( 'NONE',  ( -1.000000000000000000, 0.0000000000000000000, 0.0000000000000000000 ) ) ;
#37 = CARTESIAN_POINT ( 'NONE',  ( 0.003999999999999999216, 0.0000000000000000000, 0.0000000000000000000 ) ) ;
#38 = CARTESIAN_POINT ( 'NONE',  ( 0.0000000000000000000, 0.0000000000000000000, 0.0000000000000000000 ) ) ;
#39 = DIRECTION ( 'NONE',  ( 1.000000000000000000, 0.0000000000000000000, 0.0000000000000000000 ) ) ;
#40 = CIRCLE ( 'NONE', #90, 0.1875000000000000278 ) ;
#41 = EDGE_LOOP ( 'NONE', ( #47, #98 ) ) ;
#42 = ORIENTED_EDGE ( 'NONE', *, *, #167, .T. ) ;
#43 = PRESENTATION_STYLE_ASSIGNMENT (( #237 ) ) ;
#44 = AXIS2_PLACEMENT_3D ( 'NONE', #33, #216, #197 ) ;
#45 = VERTEX_POINT ( 'NONE', #26 ) ;
#46 = CARTESIAN_POINT ( 'NONE',  ( 0.0000000000000000000, 0.0000000000000000000, 2.500000000000000000 ) ) ;
#47 = ORIENTED_EDGE ( 'NONE', *, *, #239, .F. ) ;
#48 = PRESENTATION_LAYER_ASSIGNMENT (  '', '', ( #193 ) ) ;
#49 = PRODUCT_DEFINITION_SHAPE ( 'NONE', 'NONE',  #153 ) ;
#50 = ORIENTED_EDGE ( 'NONE', *, *, #203, .F. ) ;
#51 = CARTESIAN_POINT ( 'NONE',  ( -0.003999999999999999216, -4.898587196589411612E-19, 2.500000000000000000 ) ) ;
#52 = AXIS2_PLACEMENT_3D ( 'NONE', #225, #19, #144 ) ;
#53 = DIRECTION ( 'NONE',  ( -0.0000000000000000000, -0.0000000000000000000, -1.000000000000000000 ) ) ;
#54 = EDGE_CURVE ( 'NONE', #210, #89, #6, .T. ) ;
#55 = DIRECTION ( 'NONE',  ( 0.7071067811865490160, 0.0000000000000000000, -0.7071067811865459074 ) ) ;
#56 = ORIENTED_EDGE ( 'NONE', *, *, #211, .F. ) ;
#57 = APPLICATION_PROTOCOL_DEFINITION ( 'draft international standard', 'automotive_design', 1998, #120 ) ;
#58 = LENGTH_MEASURE_WITH_UNIT ( LENGTH_MEASURE( 0.02539999999999999897 ), #178 );
#59 = LENGTH_MEASURE_WITH_UNIT ( LENGTH_MEASURE( 0.02539999999999999897 ), #17 );
#60 = CARTESIAN_POINT ( 'NONE',  ( 0.0000000000000000000, 0.0000000000000000000, 0.0000000000000000000 ) ) ;
#61 = CARTESIAN_POINT ( 'NONE',  ( 0.0000000000000000000, 0.0000000000000000000, 0.0000000000000000000 ) ) ;
#62 = DIMENSIONAL_EXPONENTS ( 1.000000000000000000, 0.0000000000000000000, 0.0000000000000000000, 0.0000000000000000000, 0.0000000000000000000, 0.0000000000000000000, 0.0000000000000000000 ) ;
#63 = EDGE_LOOP ( 'NONE', ( #28, #42, #201, #195 ) ) ;
#64 = AXIS2_PLACEMENT_3D ( 'NONE', #60, #218, #104 ) ;
#65 = DIRECTION ( 'NONE',  ( -0.7071067811865490160, 8.659560562354951347E-17, 0.7071067811865459074 ) ) ;
#66 =( GEOMETRIC_REPRESENTATION_CONTEXT ( 3 ) GLOBAL_UNCERTAINTY_ASSIGNED_CONTEXT ( ( #119 ) ) GLOBAL_UNIT_ASSIGNED_CONTEXT ( ( #101, #108, #182 ) ) REPRESENTATION_CONTEXT ( 'NONE', 'WORKASPACE' ) );
#67 = ORIENTED_EDGE ( 'NONE', *, *, #233, .F. ) ;
#68 = DIRECTION ( 'NONE',  ( 0.0000000000000000000, 0.0000000000000000000, -1.000000000000000000 ) ) ;
#69 = DIRECTION ( 'NONE',  ( -0.0000000000000000000, -0.0000000000000000000, -1.000000000000000000 ) ) ;
#70 = AXIS2_PLACEMENT_3D ( 'NONE', #87, #13, #85 ) ;
#71 = LENGTH_MEASURE_WITH_UNIT ( LENGTH_MEASURE( 0.02539999999999999897 ), #142 );
#72 = PRODUCT_DEFINITION_CONTEXT ( 'detailed design', #163, 'design' ) ;
#73 = ADVANCED_FACE ( 'NONE', ( #188 ), #22, .T. ) ;
#74 = FACE_OUTER_BOUND ( 'NONE', #219, .T. ) ;
#75 =( CONVERSION_BASED_UNIT ( 'INCH', #71 ) LENGTH_UNIT ( ) NAMED_UNIT ( #189 ) );
#76 = FACE_OUTER_BOUND ( 'NONE', #243, .T. ) ;
#77 = DIRECTION ( 'NONE',  ( 0.0000000000000000000, 0.0000000000000000000, 1.000000000000000000 ) ) ;
#78 = ADVANCED_FACE ( 'NONE', ( #232 ), #24, .T. ) ;
#79 =( GEOMETRIC_REPRESENTATION_CONTEXT ( 3 ) GLOBAL_UNCERTAINTY_ASSIGNED_CONTEXT ( ( #228 ) ) GLOBAL_UNIT_ASSIGNED_CONTEXT ( ( #110, #123, #16 ) ) REPRESENTATION_CONTEXT ( 'NONE', 'WORKASPACE' ) );
#80 = PRODUCT_RELATED_PRODUCT_CATEGORY ( 'part', '', ( #133 ) ) ;
#81 = FILL_AREA_STYLE ('',( #10 ) ) ;
#82 = ORIENTED_EDGE ( 'NONE', *, *, #88, .F. ) ;
#83 = ORIENTED_EDGE ( 'NONE', *, *, #239, .T. ) ;
#84 = CIRCLE ( 'NONE', #70, 0.003999999999999999216 ) ;
#85 = DIRECTION ( 'NONE',  ( -1.000000000000000000, 0.0000000000000000000, 0.0000000000000000000 ) ) ;
#86 = EDGE_LOOP ( 'NONE', ( #83, #194, #155, #212 ) ) ;
#87 = CARTESIAN_POINT ( 'NONE',  ( 0.0000000000000000000, 0.0000000000000000000, 0.0000000000000000000 ) ) ;
#88 = EDGE_CURVE ( 'NONE', #15, #177, #40, .T. ) ;
#89 = VERTEX_POINT ( 'NONE', #93 ) ;
#90 = AXIS2_PLACEMENT_3D ( 'NONE', #174, #113, #1 ) ;
#91 = PRESENTATION_LAYER_ASSIGNMENT (  '', '', ( #7 ) ) ;
#92 = CARTESIAN_POINT ( 'NONE',  ( -0.1875000000000000278, 0.0000000000000000000, 0.1834999999999992193 ) ) ;
#93 = CARTESIAN_POINT ( 'NONE',  ( 0.1875000000000000278, 2.296212748401287726E-17, 2.316500000000000892 ) ) ;
#94 = VECTOR ( 'NONE', #65, 39.37007874015748854 ) ;
#95 = CONICAL_SURFACE ( 'NONE', #3, 0.003999999999999999216, 0.7853981633974504994 ) ;
#96 = DIRECTION ( 'NONE',  ( 0.0000000000000000000, 0.0000000000000000000, -1.000000000000000000 ) ) ;
#97 = CARTESIAN_POINT ( 'NONE',  ( 0.0000000000000000000, 0.0000000000000000000, 2.500000000000000000 ) ) ;
#98 = ORIENTED_EDGE ( 'NONE', *, *, #143, .F. ) ;
#99 = ADVANCED_FACE ( 'NONE', ( #74 ), #95, .T. ) ;
#100 = AXIS2_PLACEMENT_3D ( 'NONE', #186, #68, #36 ) ;
#101 =( CONVERSION_BASED_UNIT ( 'INCH', #58 ) LENGTH_UNIT ( ) NAMED_UNIT ( #247 ) );
#102 = COLOUR_RGB ( '',0.7921568627450980005, 0.8196078431372548767, 0.9333333333333333481 ) ;
#103 = ORIENTED_EDGE ( 'NONE', *, *, #173, .T. ) ;
#104 = DIRECTION ( 'NONE',  ( -1.000000000000000000, 0.0000000000000000000, 0.0000000000000000000 ) ) ;
#105 = CARTESIAN_POINT ( 'NONE',  ( 0.003999999999999999216, 0.0000000000000000000, 0.0000000000000000000 ) ) ;
#106 = AXIS2_PLACEMENT_3D ( 'NONE', #199, #217, #248 ) ;
#107 = AXIS2_PLACEMENT_3D ( 'NONE', #169, #77, #25 ) ;
#108 =( NAMED_UNIT ( * ) PLANE_ANGLE_UNIT ( ) SI_UNIT ( $, .RADIAN. ) );
#109 = ORIENTED_EDGE ( 'NONE', *, *, #31, .F. ) ;
#110 =( CONVERSION_BASED_UNIT ( 'INCH', #59 ) LENGTH_UNIT ( ) NAMED_UNIT ( #62 ) );
#111 = SURFACE_STYLE_FILL_AREA ( #222 ) ;
#112 = ADVANCED_BREP_SHAPE_REPRESENTATION ( 'Micro_RNC-375-2', ( #140, #181 ), #66 ) ;
#113 = DIRECTION ( 'NONE',  ( -0.0000000000000000000, -0.0000000000000000000, -1.000000000000000000 ) ) ;
#114 = CYLINDRICAL_SURFACE ( 'NONE', #117, 0.1875000000000000278 ) ;
#115 = CARTESIAN_POINT ( 'NONE',  ( 0.0000000000000000000, 0.0000000000000000000, 0.0000000000000000000 ) ) ;
#116 = ORIENTED_EDGE ( 'NONE', *, *, #173, .F. ) ;
#117 = AXIS2_PLACEMENT_3D ( 'NONE', #187, #20, #230 ) ;
#118 = ADVANCED_FACE ( 'NONE', ( #220 ), #200, .F. ) ;
#119 = UNCERTAINTY_MEASURE_WITH_UNIT (LENGTH_MEASURE( 1.000000000000000082E-05 ), #101, 'distance_accuracy_value', 'NONE');
#120 = APPLICATION_CONTEXT ( 'automotive_design' ) ;
#121 = MECHANICAL_DESIGN_GEOMETRIC_PRESENTATION_REPRESENTATION (  '', ( #7 ), #190 ) ;
#122 = ORIENTED_EDGE ( 'NONE', *, *, #134, .F. ) ;
#123 =( NAMED_UNIT ( * ) PLANE_ANGLE_UNIT ( ) SI_UNIT ( $, .RADIAN. ) );
#124 = CIRCLE ( 'NONE', #156, 0.1875000000000000278 ) ;
#125 = ORIENTED_EDGE ( 'NONE', *, *, #143, .T. ) ;
#126 = CIRCLE ( 'NONE', #234, 0.1875000000000000278 ) ;
#127 = PRESENTATION_STYLE_ASSIGNMENT (( #166 ) ) ;
#128 = ORIENTED_EDGE ( 'NONE', *, *, #31, .T. ) ;
#129 = CARTESIAN_POINT ( 'NONE',  ( -0.003999999999999999216, -1.172599310183590719E-17, 2.500000000000000000 ) ) ;
#130 = ORIENTED_EDGE ( 'NONE', *, *, #159, .F. ) ;
#131 = DIRECTION ( 'NONE',  ( -0.7071067811865490160, -8.659560562354951347E-17, -0.7071067811865459074 ) ) ;
#132 = DIRECTION ( 'NONE',  ( -1.000000000000000000, 0.0000000000000000000, 0.0000000000000000000 ) ) ;
#133 = PRODUCT ( 'Micro_RNC-375-2', 'Micro_RNC-375-2', '', ( #5 ) ) ;
#134 = EDGE_CURVE ( 'NONE', #45, #15, #241, .T. ) ;
#135 = DIRECTION ( 'NONE',  ( 0.0000000000000000000, 0.0000000000000000000, 1.000000000000000000 ) ) ;
#136 = EDGE_LOOP ( 'NONE', ( #215, #139 ) ) ;
#137 = VECTOR ( 'NONE', #131, 39.37007874015748854 ) ;
#138 = AXIS2_PLACEMENT_3D ( 'NONE', #115, #192, #154 ) ;
#139 = ORIENTED_EDGE ( 'NONE', *, *, #159, .T. ) ;
#140 = MANIFOLD_SOLID_BREP ( 'Mirror1', #180 ) ;
#141 = PRODUCT_DEFINITION_FORMATION_WITH_SPECIFIED_SOURCE ( 'ANY', '', #133, .NOT_KNOWN. ) ;
#142 =( LENGTH_UNIT ( ) NAMED_UNIT ( * ) SI_UNIT ( $, .METRE. ) );
#143 = EDGE_CURVE ( 'NONE', #196, #210, #145, .T. ) ;
#144 = DIRECTION ( 'NONE',  ( 1.000000000000000000, 0.0000000000000000000, -0.0000000000000000000 ) ) ;
#145 = CIRCLE ( 'NONE', #100, 0.003999999999999999216 ) ;
#146 = ORIENTED_EDGE ( 'NONE', *, *, #134, .T. ) ;
#147 = UNCERTAINTY_MEASURE_WITH_UNIT (LENGTH_MEASURE( 1.000000000000000082E-05 ), #75, 'distance_accuracy_value', 'NONE');
#148 = DIRECTION ( 'NONE',  ( 1.000000000000000000, 0.0000000000000000000, 0.0000000000000000000 ) ) ;
#149 = CARTESIAN_POINT ( 'NONE',  ( -0.003999999999999999216, 4.898587196589411612E-19, 0.0000000000000000000 ) ) ;
#150 = VECTOR ( 'NONE', #55, 39.37007874015748854 ) ;
#151 = DIRECTION ( 'NONE',  ( 1.000000000000000000, 0.0000000000000000000, 0.0000000000000000000 ) ) ;
#152 = SHAPE_DEFINITION_REPRESENTATION ( #49, #112 ) ;
#153 = PRODUCT_DEFINITION ( 'UNKNOWN', '', #141, #72 ) ;
#154 = DIRECTION ( 'NONE',  ( 1.000000000000000000, 0.0000000000000000000, 0.0000000000000000000 ) ) ;
#155 = ORIENTED_EDGE ( 'NONE', *, *, #167, .F. ) ;
#156 = AXIS2_PLACEMENT_3D ( 'NONE', #171, #4, #132 ) ;
#157 = SURFACE_STYLE_FILL_AREA ( #81 ) ;
#158 = EDGE_CURVE ( 'NONE', #177, #15, #126, .T. ) ;
#159 = EDGE_CURVE ( 'NONE', #45, #235, #84, .T. ) ;
#160 = EDGE_LOOP ( 'NONE', ( #130, #146, #175, #116 ) ) ;
#161 = SURFACE_SIDE_STYLE ('',( #111 ) ) ;
#162 = ORIENTED_EDGE ( 'NONE', *, *, #158, .T. ) ;
#163 = APPLICATION_CONTEXT ( 'automotive_design' ) ;
#164 = CARTESIAN_POINT ( 'NONE',  ( 0.1875000000000000278, 2.296212748401287726E-17, 0.1834999999999992193 ) ) ;
#165 = VECTOR ( 'NONE', #53, 39.37007874015748143 ) ;
#166 = SURFACE_STYLE_USAGE ( .BOTH. , #161 ) ;
#167 = EDGE_CURVE ( 'NONE', #89, #223, #209, .T. ) ;
#168 = DIRECTION ( 'NONE',  ( -0.0000000000000000000, -0.0000000000000000000, -1.000000000000000000 ) ) ;
#169 = CARTESIAN_POINT ( 'NONE',  ( 0.0000000000000000000, 0.0000000000000000000, 2.500000000000000000 ) ) ;
#170 = APPLICATION_PROTOCOL_DEFINITION ( 'draft international standard', 'automotive_design', 1998, #163 ) ;
#171 = CARTESIAN_POINT ( 'NONE',  ( 0.0000000000000000000, 0.0000000000000000000, 2.316500000000000892 ) ) ;
#172 =( NAMED_UNIT ( * ) PLANE_ANGLE_UNIT ( ) SI_UNIT ( $, .RADIAN. ) );
#173 = EDGE_CURVE ( 'NONE', #235, #177, #184, .T. ) ;
#174 = CARTESIAN_POINT ( 'NONE',  ( 0.0000000000000000000, 0.0000000000000000000, 0.1834999999999992193 ) ) ;
#175 = ORIENTED_EDGE ( 'NONE', *, *, #88, .T. ) ;
#176 = AXIS2_PLACEMENT_3D ( 'NONE', #46, #29, #242 ) ;
#177 = VERTEX_POINT ( 'NONE', #164 ) ;
#178 =( LENGTH_UNIT ( ) NAMED_UNIT ( * ) SI_UNIT ( $, .METRE. ) );
#179 = DIRECTION ( 'NONE',  ( 0.0000000000000000000, 0.0000000000000000000, 1.000000000000000000 ) ) ;
#180 = CLOSED_SHELL ( 'NONE', ( #78, #208, #14, #213, #11, #118, #99, #73 ) ) ;
#181 = AXIS2_PLACEMENT_3D ( 'NONE', #38, #135, #207 ) ;
#182 =( NAMED_UNIT ( * ) SI_UNIT ( $, .STERADIAN. ) SOLID_ANGLE_UNIT ( ) );
#183 = FILL_AREA_STYLE_COLOUR ( '', #198 ) ;
#184 = LINE ( 'NONE', #37, #2 ) ;
#185 = CARTESIAN_POINT ( 'NONE',  ( -0.1875000000000000278, 0.0000000000000000000, 2.500000000000000000 ) ) ;
#186 = CARTESIAN_POINT ( 'NONE',  ( 0.0000000000000000000, 0.0000000000000000000, 2.500000000000000000 ) ) ;
#187 = CARTESIAN_POINT ( 'NONE',  ( 0.0000000000000000000, 0.0000000000000000000, 2.500000000000000000 ) ) ;
#188 = FACE_OUTER_BOUND ( 'NONE', #41, .T. ) ;
#189 = DIMENSIONAL_EXPONENTS ( 1.000000000000000000, 0.0000000000000000000, 0.0000000000000000000, 0.0000000000000000000, 0.0000000000000000000, 0.0000000000000000000, 0.0000000000000000000 ) ;
#190 =( GEOMETRIC_REPRESENTATION_CONTEXT ( 3 ) GLOBAL_UNCERTAINTY_ASSIGNED_CONTEXT ( ( #147 ) ) GLOBAL_UNIT_ASSIGNED_CONTEXT ( ( #75, #172, #21 ) ) REPRESENTATION_CONTEXT ( 'NONE', 'WORKASPACE' ) );
#191 = FACE_OUTER_BOUND ( 'NONE', #236, .T. ) ;
#192 = DIRECTION ( 'NONE',  ( 0.0000000000000000000, 0.0000000000000000000, 1.000000000000000000 ) ) ;
#193 = STYLED_ITEM ( 'NONE', ( #127 ), #140 ) ;
#194 = ORIENTED_EDGE ( 'NONE', *, *, #211, .T. ) ;
#195 = ORIENTED_EDGE ( 'NONE', *, *, #158, .F. ) ;
#196 = VERTEX_POINT ( 'NONE', #129 ) ;
#197 = DIRECTION ( 'NONE',  ( -1.000000000000000000, 0.0000000000000000000, 0.0000000000000000000 ) ) ;
#198 = COLOUR_RGB ( '',0.7921568627450980005, 0.8196078431372548767, 0.9333333333333333481 ) ;
#199 = CARTESIAN_POINT ( 'NONE',  ( 0.0000000000000000000, 0.0000000000000000000, 2.316500000000000892 ) ) ;
#200 = PLANE ( 'NONE',  #52 ) ;
#201 = ORIENTED_EDGE ( 'NONE', *, *, #203, .T. ) ;
#202 = FACE_OUTER_BOUND ( 'NONE', #63, .T. ) ;
#203 = EDGE_CURVE ( 'NONE', #223, #15, #34, .T. ) ;
#204 = CARTESIAN_POINT ( 'NONE',  ( 0.003999999999999999216, 0.0000000000000000000, 2.500000000000000000 ) ) ;
#205 = CONICAL_SURFACE ( 'NONE', #138, 0.003999999999999999216, 0.7853981633974504994 ) ;
#206 = DIRECTION ( 'NONE',  ( 0.0000000000000000000, 0.0000000000000000000, -1.000000000000000000 ) ) ;
#207 = DIRECTION ( 'NONE',  ( 1.000000000000000000, 0.0000000000000000000, 0.0000000000000000000 ) ) ;
#208 = ADVANCED_FACE ( 'NONE', ( #246 ), #30, .T. ) ;
#209 = CIRCLE ( 'NONE', #106, 0.1875000000000000278 ) ;
#210 = VERTEX_POINT ( 'NONE', #35 ) ;
#211 = EDGE_CURVE ( 'NONE', #196, #223, #224, .T. ) ;
#212 = ORIENTED_EDGE ( 'NONE', *, *, #54, .F. ) ;
#213 = ADVANCED_FACE ( 'NONE', ( #202 ), #12, .T. ) ;
#214 = SURFACE_SIDE_STYLE ('',( #157 ) ) ;
#215 = ORIENTED_EDGE ( 'NONE', *, *, #233, .T. ) ;
#216 = DIRECTION ( 'NONE',  ( 0.0000000000000000000, 0.0000000000000000000, -1.000000000000000000 ) ) ;
#217 = DIRECTION ( 'NONE',  ( 0.0000000000000000000, 0.0000000000000000000, -1.000000000000000000 ) ) ;
#218 = DIRECTION ( 'NONE',  ( -0.0000000000000000000, -0.0000000000000000000, -1.000000000000000000 ) ) ;
#219 = EDGE_LOOP ( 'NONE', ( #56, #125, #27, #109 ) ) ;
#220 = FACE_OUTER_BOUND ( 'NONE', #136, .T. ) ;
#221 = AXIS2_PLACEMENT_3D ( 'NONE', #61, #179, #148 ) ;
#222 = FILL_AREA_STYLE ('',( #183 ) ) ;
#223 = VERTEX_POINT ( 'NONE', #240 ) ;
#224 = LINE ( 'NONE', #51, #137 ) ;
#225 = CARTESIAN_POINT ( 'NONE',  ( 0.0000000000000000000, 0.0000000000000000000, 0.0000000000000000000 ) ) ;
#226 = CIRCLE ( 'NONE', #44, 0.003999999999999999216 ) ;
#227 = VECTOR ( 'NONE', #69, 39.37007874015748143 ) ;
#228 = UNCERTAINTY_MEASURE_WITH_UNIT (LENGTH_MEASURE( 1.000000000000000082E-05 ), #110, 'distance_accuracy_value', 'NONE');
#229 = CARTESIAN_POINT ( 'NONE',  ( 0.0000000000000000000, 0.0000000000000000000, 2.500000000000000000 ) ) ;
#230 = DIRECTION ( 'NONE',  ( -1.000000000000000000, 0.0000000000000000000, 0.0000000000000000000 ) ) ;
#231 = MECHANICAL_DESIGN_GEOMETRIC_PRESENTATION_REPRESENTATION (  '', ( #193 ), #79 ) ;
#232 = FACE_OUTER_BOUND ( 'NONE', #86, .T. ) ;
#233 = EDGE_CURVE ( 'NONE', #235, #45, #9, .T. ) ;
#234 = AXIS2_PLACEMENT_3D ( 'NONE', #249, #168, #32 ) ;
#235 = VERTEX_POINT ( 'NONE', #105 ) ;
#236 = EDGE_LOOP ( 'NONE', ( #128, #245, #82, #50 ) ) ;
#237 = SURFACE_STYLE_USAGE ( .BOTH. , #214 ) ;
#238 = CARTESIAN_POINT ( 'NONE',  ( 0.1875000000000000278, 2.296212748401287726E-17, 2.500000000000000000 ) ) ;
#239 = EDGE_CURVE ( 'NONE', #210, #196, #226, .T. ) ;
#240 = CARTESIAN_POINT ( 'NONE',  ( -0.1875000000000000278, 0.0000000000000000000, 2.316500000000000892 ) ) ;
#241 = LINE ( 'NONE', #149, #94 ) ;
#242 = DIRECTION ( 'NONE',  ( -1.000000000000000000, 0.0000000000000000000, 0.0000000000000000000 ) ) ;
#243 = EDGE_LOOP ( 'NONE', ( #122, #67, #103, #162 ) ) ;
#244 = DIRECTION ( 'NONE',  ( 0.7071067811865490160, 0.0000000000000000000, 0.7071067811865459074 ) ) ;
#245 = ORIENTED_EDGE ( 'NONE', *, *, #8, .T. ) ;
#246 = FACE_OUTER_BOUND ( 'NONE', #160, .T. ) ;
#247 = DIMENSIONAL_EXPONENTS ( 1.000000000000000000, 0.0000000000000000000, 0.0000000000000000000, 0.0000000000000000000, 0.0000000000000000000, 0.0000000000000000000, 0.0000000000000000000 ) ;
#248 = DIRECTION ( 'NONE',  ( -1.000000000000000000, 0.0000000000000000000, 0.0000000000000000000 ) ) ;
#249 = CARTESIAN_POINT ( 'NONE',  ( 0.0000000000000000000, 0.0000000000000000000, 0.1834999999999992193 ) ) ;
ENDSEC;
END-ISO-10303-21;
