ISO-10303-21;
HEADER;
FILE_DESCRIPTION (( 'STEP AP214' ),
    '1' );
FILE_NAME ('81945.STEP',
    '2023-06-23T04:09:55',
    ( '' ),
    ( '' ),
    'SwSTEP 2.0',
    'SolidWorks 2023',
    '' );
FILE_SCHEMA (( 'AUTOMOTIVE_DESIGN' ));
ENDSEC;

DATA;
#1 = APPLICATION_PROTOCOL_DEFINITION ( 'draft international standard', 'automotive_design', 1998, #277 ) ;
#2 = STYLED_ITEM ( 'NONE', ( #80 ), #73 ) ;
#3 = CARTESIAN_POINT ( 'NONE',  ( 0.000000000000000000, 0.000000000000000000, 0.000000000000000000 ) ) ;
#4 = UNCERTAINTY_MEASURE_WITH_UNIT (LENGTH_MEASURE( 1.000000000000000082E-05 ), #30, 'distance_accuracy_value', 'NONE');
#5 =( NAMED_UNIT ( * ) PLANE_ANGLE_UNIT ( ) SI_UNIT ( $, .RADIAN. ) );
#6 = DIMENSIONAL_EXPONENTS ( 1.000000000000000000, 0.000000000000000000, 0.000000000000000000, 0.000000000000000000, 0.000000000000000000, 0.000000000000000000, 0.000000000000000000 ) ;
#7 = AXIS2_PLACEMENT_3D ( 'NONE', #57, #238, #287 ) ;
#8 = ADVANCED_FACE ( 'NONE', ( #167 ), #138, .T. ) ;
#9 = SURFACE_SIDE_STYLE ('',( #69 ) ) ;
#10 = LENGTH_MEASURE_WITH_UNIT ( LENGTH_MEASURE( 0.02539999999999999897 ), #232 );
#11 =( CONVERSION_BASED_UNIT ( 'INCH', #131 ) LENGTH_UNIT ( ) NAMED_UNIT ( #6 ) );
#12 = AXIS2_PLACEMENT_3D ( 'NONE', #36, #27, #145 ) ;
#13 =( NAMED_UNIT ( * ) SI_UNIT ( $, .STERADIAN. ) SOLID_ANGLE_UNIT ( ) );
#14 = EDGE_LOOP ( 'NONE', ( #75, #188 ) ) ;
#15 = DIRECTION ( 'NONE',  ( 0.000000000000000000, 0.000000000000000000, -1.000000000000000000 ) ) ;
#16 = FACE_OUTER_BOUND ( 'NONE', #144, .T. ) ;
#17 = ORIENTED_EDGE ( 'NONE', *, *, #160, .T. ) ;
#18 = EDGE_CURVE ( 'NONE', #256, #94, #182, .T. ) ;
#19 = VERTEX_POINT ( 'NONE', #150 ) ;
#20 = SURFACE_STYLE_FILL_AREA ( #274 ) ;
#21 = ORIENTED_EDGE ( 'NONE', *, *, #189, .F. ) ;
#22 = MECHANICAL_DESIGN_GEOMETRIC_PRESENTATION_REPRESENTATION (  '', ( #106 ), #45 ) ;
#23 = SHAPE_DEFINITION_REPRESENTATION ( #130, #272 ) ;
#24 = ORIENTED_EDGE ( 'NONE', *, *, #61, .F. ) ;
#25 = DIRECTION ( 'NONE',  ( -0.000000000000000000, -1.000000000000000000, -0.000000000000000000 ) ) ;
#26 = ORIENTED_EDGE ( 'NONE', *, *, #160, .F. ) ;
#27 = DIRECTION ( 'NONE',  ( -4.453261087808557677E-17, 1.000000000000000000, 0.000000000000000000 ) ) ;
#28 = COLOUR_RGB ( '',1.000000000000000000, 0.000000000000000000, 0.000000000000000000 ) ;
#29 = MECHANICAL_DESIGN_GEOMETRIC_PRESENTATION_REPRESENTATION (  '', ( #120 ), #215 ) ;
#30 =( CONVERSION_BASED_UNIT ( 'INCH', #51 ) LENGTH_UNIT ( ) NAMED_UNIT ( #294 ) );
#31 = CARTESIAN_POINT ( 'NONE',  ( 0.3749999999999999445, 5.000000000000000000, 4.592425496802576068E-17 ) ) ;
#32 = LENGTH_MEASURE_WITH_UNIT ( LENGTH_MEASURE( 0.02539999999999999897 ), #284 );
#33 = DIRECTION ( 'NONE',  ( -0.000000000000000000, -1.000000000000000000, -0.000000000000000000 ) ) ;
#34 = CARTESIAN_POINT ( 'NONE',  ( 0.000000000000000000, 0.000000000000000000, -0.3750000000000000555 ) ) ;
#35 = CIRCLE ( 'NONE', #257, 0.3750000000000000555 ) ;
#36 = CARTESIAN_POINT ( 'NONE',  ( 3.718412684285598933E-34, 2.250000000000000000, 0.000000000000000000 ) ) ;
#37 = ADVANCED_FACE ( 'NONE', ( #176 ), #174, .F. ) ;
#38 = AXIS2_PLACEMENT_3D ( 'NONE', #90, #269, #180 ) ;
#39 = CARTESIAN_POINT ( 'NONE',  ( 0.000000000000000000, 2.250000000000000000, 0.000000000000000000 ) ) ;
#40 = CIRCLE ( 'NONE', #296, 0.3750000000000000555 ) ;
#41 = FILL_AREA_STYLE ('',( #231 ) ) ;
#42 =( LENGTH_UNIT ( ) NAMED_UNIT ( * ) SI_UNIT ( $, .METRE. ) );
#43 = DIRECTION ( 'NONE',  ( -1.000000000000000000, 0.000000000000000000, 0.000000000000000000 ) ) ;
#44 = SURFACE_STYLE_USAGE ( .BOTH. , #110 ) ;
#45 =( GEOMETRIC_REPRESENTATION_CONTEXT ( 3 ) GLOBAL_UNCERTAINTY_ASSIGNED_CONTEXT ( ( #258 ) ) GLOBAL_UNIT_ASSIGNED_CONTEXT ( ( #11, #236, #197 ) ) REPRESENTATION_CONTEXT ( 'NONE', 'WORKASPACE' ) );
#46 = FACE_OUTER_BOUND ( 'NONE', #164, .T. ) ;
#47 = ORIENTED_EDGE ( 'NONE', *, *, #286, .F. ) ;
#48 = CARTESIAN_POINT ( 'NONE',  ( 1.516480271171051896E-32, 2.250000000000000444, 0.000000000000000000 ) ) ;
#49 = SURFACE_STYLE_FILL_AREA ( #253 ) ;
#50 = ORIENTED_EDGE ( 'NONE', *, *, #18, .F. ) ;
#51 = LENGTH_MEASURE_WITH_UNIT ( LENGTH_MEASURE( 0.02539999999999999897 ), #308 );
#52 =( GEOMETRIC_REPRESENTATION_CONTEXT ( 3 ) GLOBAL_UNCERTAINTY_ASSIGNED_CONTEXT ( ( #154 ) ) GLOBAL_UNIT_ASSIGNED_CONTEXT ( ( #221, #162, #136 ) ) REPRESENTATION_CONTEXT ( 'NONE', 'WORKASPACE' ) );
#53 = DIRECTION ( 'NONE',  ( -4.453261087808557677E-17, 1.000000000000000000, -0.000000000000000000 ) ) ;
#54 = CARTESIAN_POINT ( 'NONE',  ( 0.000000000000000000, 0.000000000000000000, 0.000000000000000000 ) ) ;
#55 = AXIS2_PLACEMENT_3D ( 'NONE', #48, #99, #133 ) ;
#56 = FILL_AREA_STYLE_COLOUR ( '', #97 ) ;
#57 = CARTESIAN_POINT ( 'NONE',  ( 0.000000000000000000, 0.000000000000000000, 0.000000000000000000 ) ) ;
#58 = EDGE_CURVE ( 'NONE', #19, #74, #233, .T. ) ;
#59 = ORIENTED_EDGE ( 'NONE', *, *, #266, .F. ) ;
#60 = DIRECTION ( 'NONE',  ( 0.000000000000000000, 0.000000000000000000, -1.000000000000000000 ) ) ;
#61 = EDGE_CURVE ( 'NONE', #205, #94, #264, .T. ) ;
#62 = AXIS2_PLACEMENT_3D ( 'NONE', #209, #243, #78 ) ;
#63 =( NAMED_UNIT ( * ) SI_UNIT ( $, .STERADIAN. ) SOLID_ANGLE_UNIT ( ) );
#64 = CARTESIAN_POINT ( 'NONE',  ( -1.224646799147353207E-16, 5.000000000000000000, 0.000000000000000000 ) ) ;
#65 = SURFACE_STYLE_USAGE ( .BOTH. , #293 ) ;
#66 =( NAMED_UNIT ( * ) PLANE_ANGLE_UNIT ( ) SI_UNIT ( $, .RADIAN. ) );
#67 =( GEOMETRIC_REPRESENTATION_CONTEXT ( 3 ) GLOBAL_UNCERTAINTY_ASSIGNED_CONTEXT ( ( #126 ) ) GLOBAL_UNIT_ASSIGNED_CONTEXT ( ( #122, #5, #211 ) ) REPRESENTATION_CONTEXT ( 'NONE', 'WORKASPACE' ) );
#68 = ORIENTED_EDGE ( 'NONE', *, *, #119, .T. ) ;
#69 = SURFACE_STYLE_FILL_AREA ( #249 ) ;
#70 = FILL_AREA_STYLE_COLOUR ( '', #28 ) ;
#71 =( LENGTH_UNIT ( ) NAMED_UNIT ( * ) SI_UNIT ( $, .METRE. ) );
#72 = CARTESIAN_POINT ( 'NONE',  ( 4.592425496802575451E-17, 0.000000000000000000, 0.3750000000000000555 ) ) ;
#73 = ADVANCED_FACE ( 'NONE', ( #213 ), #194, .T. ) ;
#74 = VERTEX_POINT ( 'NONE', #147 ) ;
#75 = ORIENTED_EDGE ( 'NONE', *, *, #149, .F. ) ;
#76 = STYLED_ITEM ( 'NONE', ( #187 ), #8 ) ;
#77 = APPLICATION_PROTOCOL_DEFINITION ( 'draft international standard', 'automotive_design', 1998, #157 ) ;
#78 = DIRECTION ( 'NONE',  ( -1.000000000000000000, 0.000000000000000000, 0.000000000000000000 ) ) ;
#79 = AXIS2_PLACEMENT_3D ( 'NONE', #245, #229, #15 ) ;
#80 = PRESENTATION_STYLE_ASSIGNMENT (( #83 ) ) ;
#81 = CARTESIAN_POINT ( 'NONE',  ( -0.3750000000000002220, 5.000000000000000000, 0.000000000000000000 ) ) ;
#82 = PRODUCT_RELATED_PRODUCT_CATEGORY ( 'part', '', ( #222 ) ) ;
#83 = SURFACE_STYLE_USAGE ( .BOTH. , #241 ) ;
#84 = AXIS2_PLACEMENT_3D ( 'NONE', #135, #159, #279 ) ;
#85 = UNCERTAINTY_MEASURE_WITH_UNIT (LENGTH_MEASURE( 1.000000000000000082E-05 ), #282, 'distance_accuracy_value', 'NONE');
#86 = PRESENTATION_STYLE_ASSIGNMENT (( #65 ) ) ;
#87 = CIRCLE ( 'NONE', #206, 0.3750000000000000555 ) ;
#88 = SURFACE_SIDE_STYLE ('',( #49 ) ) ;
#89 = PRODUCT_DEFINITION_FORMATION_WITH_SPECIFIED_SOURCE ( 'ANY', '', #222, .NOT_KNOWN. ) ;
#90 = CARTESIAN_POINT ( 'NONE',  ( -1.224646799147353207E-16, 5.000000000000000000, 0.000000000000000000 ) ) ;
#91 = CARTESIAN_POINT ( 'NONE',  ( 0.3750000000000000555, 5.000000000000000000, 4.592425496802576684E-17 ) ) ;
#92 = EDGE_CURVE ( 'NONE', #300, #256, #240, .T. ) ;
#93 = PLANE ( 'NONE',  #134 ) ;
#94 = VERTEX_POINT ( 'NONE', #178 ) ;
#95 = PRESENTATION_STYLE_ASSIGNMENT (( #297 ) ) ;
#96 = CLOSED_SHELL ( 'NONE', ( #8, #227, #123, #73 ) ) ;
#97 = COLOUR_RGB ( '',1.000000000000000000, 0.000000000000000000, 0.000000000000000000 ) ;
#98 = SURFACE_STYLE_USAGE ( .BOTH. , #230 ) ;
#99 = DIRECTION ( 'NONE',  ( -4.453261087808557677E-17, 1.000000000000000000, -0.000000000000000000 ) ) ;
#100 = PRODUCT_DEFINITION ( 'UNKNOWN', '', #89, #146 ) ;
#101 = EDGE_LOOP ( 'NONE', ( #17, #208, #21, #207 ) ) ;
#102 = FILL_AREA_STYLE ('',( #252 ) ) ;
#103 =( NAMED_UNIT ( * ) PLANE_ANGLE_UNIT ( ) SI_UNIT ( $, .RADIAN. ) );
#104 = DIRECTION ( 'NONE',  ( -0.000000000000000000, -1.000000000000000000, -0.000000000000000000 ) ) ;
#105 = VECTOR ( 'NONE', #127, 39.37007874015748143 ) ;
#106 = STYLED_ITEM ( 'NONE', ( #86 ), #156 ) ;
#107 = CYLINDRICAL_SURFACE ( 'NONE', #79, 0.3750000000000000555 ) ;
#108 = DIRECTION ( 'NONE',  ( 0.000000000000000000, -0.000000000000000000, 1.000000000000000000 ) ) ;
#109 = PRESENTATION_LAYER_ASSIGNMENT (  '', '', ( #271 ) ) ;
#110 = SURFACE_SIDE_STYLE ('',( #20 ) ) ;
#111 = ORIENTED_EDGE ( 'NONE', *, *, #189, .T. ) ;
#112 = FACE_OUTER_BOUND ( 'NONE', #235, .T. ) ;
#113 = ORIENTED_EDGE ( 'NONE', *, *, #92, .T. ) ;
#114 =( CONVERSION_BASED_UNIT ( 'INCH', #168 ) LENGTH_UNIT ( ) NAMED_UNIT ( #224 ) );
#115 = MECHANICAL_DESIGN_GEOMETRIC_PRESENTATION_REPRESENTATION (  '', ( #2 ), #67 ) ;
#116 = VERTEX_POINT ( 'NONE', #265 ) ;
#117 = DIRECTION ( 'NONE',  ( 0.000000000000000000, 0.000000000000000000, 1.000000000000000000 ) ) ;
#118 = ORIENTED_EDGE ( 'NONE', *, *, #58, .T. ) ;
#119 = EDGE_CURVE ( 'NONE', #74, #116, #242, .T. ) ;
#120 = STYLED_ITEM ( 'NONE', ( #304 ), #251 ) ;
#121 = DIRECTION ( 'NONE',  ( -4.453261087808557677E-17, 1.000000000000000000, -0.000000000000000000 ) ) ;
#122 =( CONVERSION_BASED_UNIT ( 'INCH', #32 ) LENGTH_UNIT ( ) NAMED_UNIT ( #151 ) );
#123 = ADVANCED_FACE ( 'NONE', ( #196 ), #107, .T. ) ;
#124 = DIRECTION ( 'NONE',  ( 0.000000000000000000, 0.000000000000000000, -1.000000000000000000 ) ) ;
#125 = DIRECTION ( 'NONE',  ( -0.000000000000000000, -1.000000000000000000, -0.000000000000000000 ) ) ;
#126 = UNCERTAINTY_MEASURE_WITH_UNIT (LENGTH_MEASURE( 1.000000000000000082E-05 ), #122, 'distance_accuracy_value', 'NONE');
#127 = DIRECTION ( 'NONE',  ( -4.453261087808557677E-17, 1.000000000000000000, -0.000000000000000000 ) ) ;
#128 =( GEOMETRIC_REPRESENTATION_CONTEXT ( 3 ) GLOBAL_UNCERTAINTY_ASSIGNED_CONTEXT ( ( #4 ) ) GLOBAL_UNIT_ASSIGNED_CONTEXT ( ( #30, #190, #234 ) ) REPRESENTATION_CONTEXT ( 'NONE', 'WORKASPACE' ) );
#129 = DIRECTION ( 'NONE',  ( -0.000000000000000000, -1.000000000000000000, -0.000000000000000000 ) ) ;
#130 = PRODUCT_DEFINITION_SHAPE ( 'NONE', 'NONE',  #100 ) ;
#131 = LENGTH_MEASURE_WITH_UNIT ( LENGTH_MEASURE( 0.02539999999999999897 ), #273 );
#132 = CARTESIAN_POINT ( 'NONE',  ( 0.000000000000000000, 0.000000000000000000, 0.000000000000000000 ) ) ;
#133 = DIRECTION ( 'NONE',  ( -1.000000000000000000, 0.000000000000000000, 0.000000000000000000 ) ) ;
#134 = AXIS2_PLACEMENT_3D ( 'NONE', #140, #163, #108 ) ;
#135 = CARTESIAN_POINT ( 'NONE',  ( 0.3750000000000000555, 5.000000000000000000, 0.000000000000000000 ) ) ;
#136 =( NAMED_UNIT ( * ) SI_UNIT ( $, .STERADIAN. ) SOLID_ANGLE_UNIT ( ) );
#137 = PLANE ( 'NONE',  #84 ) ;
#138 = CYLINDRICAL_SURFACE ( 'NONE', #275, 0.3750000000000000555 ) ;
#139 =( LENGTH_UNIT ( ) NAMED_UNIT ( * ) SI_UNIT ( $, .METRE. ) );
#140 = CARTESIAN_POINT ( 'NONE',  ( 0.000000000000000000, 2.250000000000000000, 0.000000000000000000 ) ) ;
#141 = VERTEX_POINT ( 'NONE', #186 ) ;
#142 = LINE ( 'NONE', #72, #172 ) ;
#143 = PRESENTATION_LAYER_ASSIGNMENT (  '', '', ( #76 ) ) ;
#144 = EDGE_LOOP ( 'NONE', ( #185, #113, #305, #24 ) ) ;
#145 = DIRECTION ( 'NONE',  ( -1.000000000000000000, -4.453261087808557677E-17, 0.000000000000000000 ) ) ;
#146 = PRODUCT_DEFINITION_CONTEXT ( 'detailed design', #277, 'design' ) ;
#147 = CARTESIAN_POINT ( 'NONE',  ( 0.000000000000000000, 2.250000000000000000, -0.3750000000000000555 ) ) ;
#148 = FILL_AREA_STYLE ('',( #56 ) ) ;
#149 = EDGE_CURVE ( 'NONE', #205, #300, #247, .T. ) ;
#150 = CARTESIAN_POINT ( 'NONE',  ( 4.592425496802575451E-17, 2.250000000000000000, 0.3750000000000000555 ) ) ;
#151 = DIMENSIONAL_EXPONENTS ( 1.000000000000000000, 0.000000000000000000, 0.000000000000000000, 0.000000000000000000, 0.000000000000000000, 0.000000000000000000, 0.000000000000000000 ) ;
#152 = FACE_OUTER_BOUND ( 'NONE', #259, .T. ) ;
#153 = DIRECTION ( 'NONE',  ( -0.000000000000000000, -1.000000000000000000, -0.000000000000000000 ) ) ;
#154 = UNCERTAINTY_MEASURE_WITH_UNIT (LENGTH_MEASURE( 1.000000000000000082E-05 ), #221, 'distance_accuracy_value', 'NONE');
#155 = LENGTH_MEASURE_WITH_UNIT ( LENGTH_MEASURE( 0.02539999999999999897 ), #139 );
#156 = MANIFOLD_SOLID_BREP ( 'Revolve - Tool Body (Straight Shanked)', #225 ) ;
#157 = APPLICATION_CONTEXT ( 'automotive_design' ) ;
#158 = EDGE_CURVE ( 'NONE', #94, #256, #195, .T. ) ;
#159 = DIRECTION ( 'NONE',  ( 4.453261087808557677E-17, -1.000000000000000000, 0.000000000000000000 ) ) ;
#160 = EDGE_CURVE ( 'NONE', #74, #19, #301, .T. ) ;
#161 = DIRECTION ( 'NONE',  ( -4.453261087808557677E-17, 1.000000000000000000, -0.000000000000000000 ) ) ;
#162 =( NAMED_UNIT ( * ) PLANE_ANGLE_UNIT ( ) SI_UNIT ( $, .RADIAN. ) );
#163 = DIRECTION ( 'NONE',  ( 0.000000000000000000, 1.000000000000000000, 0.000000000000000000 ) ) ;
#164 = EDGE_LOOP ( 'NONE', ( #276, #280 ) ) ;
#165 = MECHANICAL_DESIGN_GEOMETRIC_PRESENTATION_REPRESENTATION (  '', ( #271 ), #52 ) ;
#166 = PRESENTATION_STYLE_ASSIGNMENT (( #44 ) ) ;
#167 = FACE_OUTER_BOUND ( 'NONE', #101, .T. ) ;
#168 = LENGTH_MEASURE_WITH_UNIT ( LENGTH_MEASURE( 0.02539999999999999897 ), #42 );
#169 = LENGTH_MEASURE_WITH_UNIT ( LENGTH_MEASURE( 0.02539999999999999897 ), #71 );
#170 = CARTESIAN_POINT ( 'NONE',  ( 0.3750000000000000555, 2.250000000000000444, 4.592425496802576684E-17 ) ) ;
#171 = COLOUR_RGB ( '',1.000000000000000000, 0.000000000000000000, 0.000000000000000000 ) ;
#172 = VECTOR ( 'NONE', #25, 39.37007874015748143 ) ;
#173 = DIRECTION ( 'NONE',  ( -1.000000000000000000, 0.000000000000000000, 0.000000000000000000 ) ) ;
#174 = PLANE ( 'NONE',  #12 ) ;
#175 = DIRECTION ( 'NONE',  ( 1.000000000000000000, 0.000000000000000000, 0.000000000000000000 ) ) ;
#176 = FACE_OUTER_BOUND ( 'NONE', #14, .T. ) ;
#177 = COLOUR_RGB ( '',0.7921568627450980005, 0.8196078431372548767, 0.9333333333333333481 ) ;
#178 = CARTESIAN_POINT ( 'NONE',  ( -0.3750000000000002776, 5.000000000000000000, 0.000000000000000000 ) ) ;
#179 =( NAMED_UNIT ( * ) SI_UNIT ( $, .STERADIAN. ) SOLID_ANGLE_UNIT ( ) );
#180 = DIRECTION ( 'NONE',  ( -1.000000000000000000, 0.000000000000000000, 0.000000000000000000 ) ) ;
#181 = CARTESIAN_POINT ( 'NONE',  ( 1.516480271171051896E-32, 2.250000000000000444, 0.000000000000000000 ) ) ;
#182 = CIRCLE ( 'NONE', #62, 0.3750000000000001665 ) ;
#183 = FILL_AREA_STYLE_COLOUR ( '', #250 ) ;
#184 = DIRECTION ( 'NONE',  ( 0.000000000000000000, 0.000000000000000000, -1.000000000000000000 ) ) ;
#185 = ORIENTED_EDGE ( 'NONE', *, *, #149, .T. ) ;
#186 = CARTESIAN_POINT ( 'NONE',  ( 4.592425496802575451E-17, 0.000000000000000000, 0.3750000000000000555 ) ) ;
#187 = PRESENTATION_STYLE_ASSIGNMENT (( #98 ) ) ;
#188 = ORIENTED_EDGE ( 'NONE', *, *, #203, .F. ) ;
#189 = EDGE_CURVE ( 'NONE', #116, #141, #87, .T. ) ;
#190 =( NAMED_UNIT ( * ) PLANE_ANGLE_UNIT ( ) SI_UNIT ( $, .RADIAN. ) );
#191 = VECTOR ( 'NONE', #121, 39.37007874015748143 ) ;
#192 = CARTESIAN_POINT ( 'NONE',  ( 0.000000000000000000, 2.250000000000000000, 0.000000000000000000 ) ) ;
#193 = UNCERTAINTY_MEASURE_WITH_UNIT (LENGTH_MEASURE( 1.000000000000000082E-05 ), #201, 'distance_accuracy_value', 'NONE');
#194 = PLANE ( 'NONE',  #7 ) ;
#195 = CIRCLE ( 'NONE', #38, 0.3750000000000001665 ) ;
#196 = FACE_OUTER_BOUND ( 'NONE', #292, .T. ) ;
#197 =( NAMED_UNIT ( * ) SI_UNIT ( $, .STERADIAN. ) SOLID_ANGLE_UNIT ( ) );
#198 = COLOUR_RGB ( '',1.000000000000000000, 0.000000000000000000, 0.000000000000000000 ) ;
#199 = STYLED_ITEM ( 'NONE', ( #166 ), #227 ) ;
#200 = DIMENSIONAL_EXPONENTS ( 1.000000000000000000, 0.000000000000000000, 0.000000000000000000, 0.000000000000000000, 0.000000000000000000, 0.000000000000000000, 0.000000000000000000 ) ;
#201 =( CONVERSION_BASED_UNIT ( 'INCH', #10 ) LENGTH_UNIT ( ) NAMED_UNIT ( #200 ) );
#202 = ORIENTED_EDGE ( 'NONE', *, *, #203, .T. ) ;
#203 = EDGE_CURVE ( 'NONE', #300, #205, #35, .T. ) ;
#204 = CYLINDRICAL_SURFACE ( 'NONE', #263, 0.3750000000000001110 ) ;
#205 = VERTEX_POINT ( 'NONE', #288 ) ;
#206 = AXIS2_PLACEMENT_3D ( 'NONE', #217, #129, #60 ) ;
#207 = ORIENTED_EDGE ( 'NONE', *, *, #119, .F. ) ;
#208 = ORIENTED_EDGE ( 'NONE', *, *, #286, .T. ) ;
#209 = CARTESIAN_POINT ( 'NONE',  ( -1.224646799147353207E-16, 5.000000000000000000, 0.000000000000000000 ) ) ;
#210 = CARTESIAN_POINT ( 'NONE',  ( -1.224646799147353207E-16, 5.000000000000000000, 0.000000000000000000 ) ) ;
#211 =( NAMED_UNIT ( * ) SI_UNIT ( $, .STERADIAN. ) SOLID_ANGLE_UNIT ( ) );
#212 = DIRECTION ( 'NONE',  ( -4.453261087808557677E-17, 1.000000000000000000, -0.000000000000000000 ) ) ;
#213 = FACE_OUTER_BOUND ( 'NONE', #228, .T. ) ;
#214 = AXIS2_PLACEMENT_3D ( 'NONE', #192, #104, #309 ) ;
#215 =( GEOMETRIC_REPRESENTATION_CONTEXT ( 3 ) GLOBAL_UNCERTAINTY_ASSIGNED_CONTEXT ( ( #193 ) ) GLOBAL_UNIT_ASSIGNED_CONTEXT ( ( #201, #66, #63 ) ) REPRESENTATION_CONTEXT ( 'NONE', 'WORKASPACE' ) );
#216 = SURFACE_STYLE_FILL_AREA ( #148 ) ;
#217 = CARTESIAN_POINT ( 'NONE',  ( 0.000000000000000000, 0.000000000000000000, 0.000000000000000000 ) ) ;
#218 = DIMENSIONAL_EXPONENTS ( 1.000000000000000000, 0.000000000000000000, 0.000000000000000000, 0.000000000000000000, 0.000000000000000000, 0.000000000000000000, 0.000000000000000000 ) ;
#219 = PRESENTATION_LAYER_ASSIGNMENT (  '', '', ( #106 ) ) ;
#220 = DIRECTION ( 'NONE',  ( -1.000000000000000000, 0.000000000000000000, 0.000000000000000000 ) ) ;
#221 =( CONVERSION_BASED_UNIT ( 'INCH', #155 ) LENGTH_UNIT ( ) NAMED_UNIT ( #268 ) );
#222 = PRODUCT ( '81945', '81945', '', ( #260 ) ) ;
#223 = DIRECTION ( 'NONE',  ( -0.000000000000000000, -1.000000000000000000, -0.000000000000000000 ) ) ;
#224 = DIMENSIONAL_EXPONENTS ( 1.000000000000000000, 0.000000000000000000, 0.000000000000000000, 0.000000000000000000, 0.000000000000000000, 0.000000000000000000, 0.000000000000000000 ) ;
#225 = CLOSED_SHELL ( 'NONE', ( #254, #37, #278, #246 ) ) ;
#226 = AXIS2_PLACEMENT_3D ( 'NONE', #64, #161, #43 ) ;
#227 = ADVANCED_FACE ( 'NONE', ( #152 ), #93, .T. ) ;
#228 = EDGE_LOOP ( 'NONE', ( #111, #255 ) ) ;
#229 = DIRECTION ( 'NONE',  ( -0.000000000000000000, -1.000000000000000000, -0.000000000000000000 ) ) ;
#230 = SURFACE_SIDE_STYLE ('',( #306 ) ) ;
#231 = FILL_AREA_STYLE_COLOUR ( '', #177 ) ;
#232 =( LENGTH_UNIT ( ) NAMED_UNIT ( * ) SI_UNIT ( $, .METRE. ) );
#233 = CIRCLE ( 'NONE', #214, 0.3750000000000000555 ) ;
#234 =( NAMED_UNIT ( * ) SI_UNIT ( $, .STERADIAN. ) SOLID_ANGLE_UNIT ( ) );
#235 = EDGE_LOOP ( 'NONE', ( #299, #202, #237, #50 ) ) ;
#236 =( NAMED_UNIT ( * ) PLANE_ANGLE_UNIT ( ) SI_UNIT ( $, .RADIAN. ) );
#237 = ORIENTED_EDGE ( 'NONE', *, *, #61, .T. ) ;
#238 = DIRECTION ( 'NONE',  ( 0.000000000000000000, -1.000000000000000000, -0.000000000000000000 ) ) ;
#239 =( GEOMETRIC_REPRESENTATION_CONTEXT ( 3 ) GLOBAL_UNCERTAINTY_ASSIGNED_CONTEXT ( ( #85 ) ) GLOBAL_UNIT_ASSIGNED_CONTEXT ( ( #282, #103, #179 ) ) REPRESENTATION_CONTEXT ( 'NONE', 'WORKASPACE' ) );
#240 = LINE ( 'NONE', #31, #191 ) ;
#241 = SURFACE_SIDE_STYLE ('',( #216 ) ) ;
#242 = LINE ( 'NONE', #34, #262 ) ;
#243 = DIRECTION ( 'NONE',  ( -4.453261087808557677E-17, 1.000000000000000000, -0.000000000000000000 ) ) ;
#244 = PRESENTATION_LAYER_ASSIGNMENT (  '', '', ( #2 ) ) ;
#245 = CARTESIAN_POINT ( 'NONE',  ( 0.000000000000000000, 0.000000000000000000, 0.000000000000000000 ) ) ;
#246 = ADVANCED_FACE ( 'NONE', ( #46 ), #137, .F. ) ;
#247 = CIRCLE ( 'NONE', #55, 0.3750000000000000555 ) ;
#248 = SURFACE_STYLE_FILL_AREA ( #41 ) ;
#249 = FILL_AREA_STYLE ('',( #303 ) ) ;
#250 = COLOUR_RGB ( '',0.7921568627450980005, 0.8196078431372548767, 0.9333333333333333481 ) ;
#251 = MANIFOLD_SOLID_BREP ( 'Revolve - Cutting Edge', #96 ) ;
#252 = FILL_AREA_STYLE_COLOUR ( '', #198 ) ;
#253 = FILL_AREA_STYLE ('',( #183 ) ) ;
#254 = ADVANCED_FACE ( 'NONE', ( #16 ), #298, .T. ) ;
#255 = ORIENTED_EDGE ( 'NONE', *, *, #266, .T. ) ;
#256 = VERTEX_POINT ( 'NONE', #91 ) ;
#257 = AXIS2_PLACEMENT_3D ( 'NONE', #181, #212, #220 ) ;
#258 = UNCERTAINTY_MEASURE_WITH_UNIT (LENGTH_MEASURE( 1.000000000000000082E-05 ), #11, 'distance_accuracy_value', 'NONE');
#259 = EDGE_LOOP ( 'NONE', ( #26, #281 ) ) ;
#260 = PRODUCT_CONTEXT ( 'NONE', #157, 'mechanical' ) ;
#261 = MECHANICAL_DESIGN_GEOMETRIC_PRESENTATION_REPRESENTATION (  '', ( #76 ), #239 ) ;
#262 = VECTOR ( 'NONE', #125, 39.37007874015748143 ) ;
#263 = AXIS2_PLACEMENT_3D ( 'NONE', #210, #53, #173 ) ;
#264 = LINE ( 'NONE', #81, #105 ) ;
#265 = CARTESIAN_POINT ( 'NONE',  ( 0.000000000000000000, 0.000000000000000000, -0.3750000000000000555 ) ) ;
#266 = EDGE_CURVE ( 'NONE', #141, #116, #40, .T. ) ;
#267 = AXIS2_PLACEMENT_3D ( 'NONE', #39, #33, #124 ) ;
#268 = DIMENSIONAL_EXPONENTS ( 1.000000000000000000, 0.000000000000000000, 0.000000000000000000, 0.000000000000000000, 0.000000000000000000, 0.000000000000000000, 0.000000000000000000 ) ;
#269 = DIRECTION ( 'NONE',  ( -4.453261087808557677E-17, 1.000000000000000000, -0.000000000000000000 ) ) ;
#270 =( NAMED_UNIT ( * ) PLANE_ANGLE_UNIT ( ) SI_UNIT ( $, .RADIAN. ) );
#271 = STYLED_ITEM ( 'NONE', ( #95 ), #123 ) ;
#272 = ADVANCED_BREP_SHAPE_REPRESENTATION ( '81945', ( #251, #156, #302 ), #128 ) ;
#273 =( LENGTH_UNIT ( ) NAMED_UNIT ( * ) SI_UNIT ( $, .METRE. ) );
#274 = FILL_AREA_STYLE ('',( #70 ) ) ;
#275 = AXIS2_PLACEMENT_3D ( 'NONE', #3, #153, #290 ) ;
#276 = ORIENTED_EDGE ( 'NONE', *, *, #158, .T. ) ;
#277 = APPLICATION_CONTEXT ( 'automotive_design' ) ;
#278 = ADVANCED_FACE ( 'NONE', ( #112 ), #204, .T. ) ;
#279 = DIRECTION ( 'NONE',  ( 1.000000000000000000, 4.453261087808557677E-17, 0.000000000000000000 ) ) ;
#280 = ORIENTED_EDGE ( 'NONE', *, *, #18, .T. ) ;
#281 = ORIENTED_EDGE ( 'NONE', *, *, #58, .F. ) ;
#282 =( CONVERSION_BASED_UNIT ( 'INCH', #169 ) LENGTH_UNIT ( ) NAMED_UNIT ( #218 ) );
#283 = MECHANICAL_DESIGN_GEOMETRIC_PRESENTATION_REPRESENTATION (  '', ( #199 ), #307 ) ;
#284 =( LENGTH_UNIT ( ) NAMED_UNIT ( * ) SI_UNIT ( $, .METRE. ) );
#285 = PRESENTATION_LAYER_ASSIGNMENT (  '', '', ( #199 ) ) ;
#286 = EDGE_CURVE ( 'NONE', #19, #141, #142, .T. ) ;
#287 = DIRECTION ( 'NONE',  ( 0.000000000000000000, 0.000000000000000000, -1.000000000000000000 ) ) ;
#288 = CARTESIAN_POINT ( 'NONE',  ( -0.3750000000000000555, 2.250000000000000444, 0.000000000000000000 ) ) ;
#289 = UNCERTAINTY_MEASURE_WITH_UNIT (LENGTH_MEASURE( 1.000000000000000082E-05 ), #114, 'distance_accuracy_value', 'NONE');
#290 = DIRECTION ( 'NONE',  ( 0.000000000000000000, 0.000000000000000000, -1.000000000000000000 ) ) ;
#291 = PRESENTATION_LAYER_ASSIGNMENT (  '', '', ( #120 ) ) ;
#292 = EDGE_LOOP ( 'NONE', ( #47, #118, #68, #59 ) ) ;
#293 = SURFACE_SIDE_STYLE ('',( #248 ) ) ;
#294 = DIMENSIONAL_EXPONENTS ( 1.000000000000000000, 0.000000000000000000, 0.000000000000000000, 0.000000000000000000, 0.000000000000000000, 0.000000000000000000, 0.000000000000000000 ) ;
#295 = SURFACE_STYLE_USAGE ( .BOTH. , #88 ) ;
#296 = AXIS2_PLACEMENT_3D ( 'NONE', #132, #223, #184 ) ;
#297 = SURFACE_STYLE_USAGE ( .BOTH. , #9 ) ;
#298 = CYLINDRICAL_SURFACE ( 'NONE', #226, 0.3750000000000001110 ) ;
#299 = ORIENTED_EDGE ( 'NONE', *, *, #92, .F. ) ;
#300 = VERTEX_POINT ( 'NONE', #170 ) ;
#301 = CIRCLE ( 'NONE', #267, 0.3750000000000000555 ) ;
#302 = AXIS2_PLACEMENT_3D ( 'NONE', #54, #117, #175 ) ;
#303 = FILL_AREA_STYLE_COLOUR ( '', #171 ) ;
#304 = PRESENTATION_STYLE_ASSIGNMENT (( #295 ) ) ;
#305 = ORIENTED_EDGE ( 'NONE', *, *, #158, .F. ) ;
#306 = SURFACE_STYLE_FILL_AREA ( #102 ) ;
#307 =( GEOMETRIC_REPRESENTATION_CONTEXT ( 3 ) GLOBAL_UNCERTAINTY_ASSIGNED_CONTEXT ( ( #289 ) ) GLOBAL_UNIT_ASSIGNED_CONTEXT ( ( #114, #270, #13 ) ) REPRESENTATION_CONTEXT ( 'NONE', 'WORKASPACE' ) );
#308 =( LENGTH_UNIT ( ) NAMED_UNIT ( * ) SI_UNIT ( $, .METRE. ) );
#309 = DIRECTION ( 'NONE',  ( 0.000000000000000000, 0.000000000000000000, -1.000000000000000000 ) ) ;
ENDSEC;
END-ISO-10303-21;
