ISO-10303-21;
HEADER;
FILE_DESCRIPTION (( 'STEP AP214' ),
    '1' );
FILE_NAME ('83414.STEP',
    '2023-06-30T23:12:26',
    ( '' ),
    ( '' ),
    'SwSTEP 2.0',
    'SolidWorks 2023',
    '' );
FILE_SCHEMA (( 'AUTOMOTIVE_DESIGN' ));
ENDSEC;

DATA;
#1 = ORIENTED_EDGE ( 'NONE', *, *, #102, .F. ) ;
#2 = SURFACE_STYLE_USAGE ( .BOTH. , #179 ) ;
#3 = STYLED_ITEM ( 'NONE', ( #308 ), #251 ) ;
#4 = EDGE_CURVE ( 'NONE', #77, #216, #85, .T. ) ;
#5 = ORIENTED_EDGE ( 'NONE', *, *, #211, .T. ) ;
#6 = SURFACE_STYLE_FILL_AREA ( #148 ) ;
#7 = DIMENSIONAL_EXPONENTS ( 1.000000000000000000, 0.000000000000000000, 0.000000000000000000, 0.000000000000000000, 0.000000000000000000, 0.000000000000000000, 0.000000000000000000 ) ;
#8 = EDGE_CURVE ( 'NONE', #359, #104, #314, .T. ) ;
#9 = UNCERTAINTY_MEASURE_WITH_UNIT (LENGTH_MEASURE( 1.000000000000000082E-05 ), #220, 'distance_accuracy_value', 'NONE');
#10 = DIRECTION ( 'NONE',  ( 0.000000000000000000, 0.000000000000000000, -1.000000000000000000 ) ) ;
#11 = MECHANICAL_DESIGN_GEOMETRIC_PRESENTATION_REPRESENTATION (  '', ( #261 ), #214 ) ;
#12 = LENGTH_MEASURE_WITH_UNIT ( LENGTH_MEASURE( 0.02539999999999999897 ), #100 );
#13 = CARTESIAN_POINT ( 'NONE',  ( 0.000000000000000000, 0.4375000000000000000, 0.000000000000000000 ) ) ;
#14 = ORIENTED_EDGE ( 'NONE', *, *, #8, .F. ) ;
#15 = PRODUCT_DEFINITION_CONTEXT ( 'detailed design', #361, 'design' ) ;
#16 = EDGE_LOOP ( 'NONE', ( #14, #5, #180, #217, #1 ) ) ;
#17 = SURFACE_STYLE_USAGE ( .BOTH. , #65 ) ;
#18 = EDGE_CURVE ( 'NONE', #215, #359, #347, .T. ) ;
#19 = DIRECTION ( 'NONE',  ( -0.000000000000000000, -1.000000000000000000, -0.000000000000000000 ) ) ;
#20 = PRESENTATION_LAYER_ASSIGNMENT (  '', '', ( #3 ) ) ;
#21 =( GEOMETRIC_REPRESENTATION_CONTEXT ( 3 ) GLOBAL_UNCERTAINTY_ASSIGNED_CONTEXT ( ( #298 ) ) GLOBAL_UNIT_ASSIGNED_CONTEXT ( ( #300, #43, #38 ) ) REPRESENTATION_CONTEXT ( 'NONE', 'WORKASPACE' ) );
#22 = CARTESIAN_POINT ( 'NONE',  ( 0.000000000000000000, 0.000000000000000000, 0.000000000000000000 ) ) ;
#23 = DIRECTION ( 'NONE',  ( -0.000000000000000000, -1.000000000000000000, -0.000000000000000000 ) ) ;
#24 = SURFACE_SIDE_STYLE ('',( #55 ) ) ;
#25 = CARTESIAN_POINT ( 'NONE',  ( 6.123233995736766036E-17, 2.000000000000000000, 0.000000000000000000 ) ) ;
#26 = ADVANCED_FACE ( 'NONE', ( #336 ), #281, .T. ) ;
#27 = AXIS2_PLACEMENT_3D ( 'NONE', #160, #23, #325 ) ;
#28 = COLOUR_RGB ( '',1.000000000000000000, 0.000000000000000000, 0.000000000000000000 ) ;
#29 = CYLINDRICAL_SURFACE ( 'NONE', #169, 0.09374999999999995837 ) ;
#30 = DIRECTION ( 'NONE',  ( -1.000000000000000000, 0.000000000000000000, 0.000000000000000000 ) ) ;
#31 = DIRECTION ( 'NONE',  ( -0.000000000000000000, -1.000000000000000000, -0.000000000000000000 ) ) ;
#32 =( LENGTH_UNIT ( ) NAMED_UNIT ( * ) SI_UNIT ( $, .METRE. ) );
#33 = DIRECTION ( 'NONE',  ( 0.000000000000000000, 0.000000000000000000, -1.000000000000000000 ) ) ;
#34 = CIRCLE ( 'NONE', #271, 0.09374999999999998612 ) ;
#35 = DIRECTION ( 'NONE',  ( -1.214281582932884309E-16, 1.000000000000000000, -0.000000000000000000 ) ) ;
#36 = STYLED_ITEM ( 'NONE', ( #201 ), #354 ) ;
#37 = SURFACE_STYLE_USAGE ( .BOTH. , #81 ) ;
#38 =( NAMED_UNIT ( * ) SI_UNIT ( $, .STERADIAN. ) SOLID_ANGLE_UNIT ( ) );
#39 = CARTESIAN_POINT ( 'NONE',  ( 6.123233995736766036E-17, 2.000000000000000000, 0.000000000000000000 ) ) ;
#40 = PRODUCT_DEFINITION ( 'UNKNOWN', '', #209, #15 ) ;
#41 = PRESENTATION_LAYER_ASSIGNMENT (  '', '', ( #64 ) ) ;
#42 = ORIENTED_EDGE ( 'NONE', *, *, #87, .T. ) ;
#43 =( NAMED_UNIT ( * ) PLANE_ANGLE_UNIT ( ) SI_UNIT ( $, .RADIAN. ) );
#44 = PLANE ( 'NONE',  #176 ) ;
#45 = ORIENTED_EDGE ( 'NONE', *, *, #182, .T. ) ;
#46 = CIRCLE ( 'NONE', #183, 0.09374999999999987510 ) ;
#47 = DIRECTION ( 'NONE',  ( 0.000000000000000000, -0.000000000000000000, 1.000000000000000000 ) ) ;
#48 = ORIENTED_EDGE ( 'NONE', *, *, #8, .T. ) ;
#49 = PRODUCT_DEFINITION_SHAPE ( 'NONE', 'NONE',  #40 ) ;
#50 = FACE_OUTER_BOUND ( 'NONE', #360, .T. ) ;
#51 = MECHANICAL_DESIGN_GEOMETRIC_PRESENTATION_REPRESENTATION (  '', ( #229 ), #122 ) ;
#52 =( CONVERSION_BASED_UNIT ( 'INCH', #12 ) LENGTH_UNIT ( ) NAMED_UNIT ( #93 ) );
#53 = EDGE_LOOP ( 'NONE', ( #309, #247, #149, #326 ) ) ;
#54 = ADVANCED_FACE ( 'NONE', ( #50 ), #260, .T. ) ;
#55 = SURFACE_STYLE_FILL_AREA ( #238 ) ;
#56 = MECHANICAL_DESIGN_GEOMETRIC_PRESENTATION_REPRESENTATION (  '', ( #328 ), #128 ) ;
#57 =( NAMED_UNIT ( * ) PLANE_ANGLE_UNIT ( ) SI_UNIT ( $, .RADIAN. ) );
#58 = DIRECTION ( 'NONE',  ( 0.000000000000000000, 0.000000000000000000, -1.000000000000000000 ) ) ;
#59 = CARTESIAN_POINT ( 'NONE',  ( 0.09374999999999994449, 2.000000000000000000, 0.000000000000000000 ) ) ;
#60 = CIRCLE ( 'NONE', #198, 0.09374999999999998612 ) ;
#61 = DIRECTION ( 'NONE',  ( 0.000000000000000000, 0.000000000000000000, 1.000000000000000000 ) ) ;
#62 = EDGE_CURVE ( 'NONE', #362, #278, #106, .T. ) ;
#63 = UNCERTAINTY_MEASURE_WITH_UNIT (LENGTH_MEASURE( 1.000000000000000082E-05 ), #193, 'distance_accuracy_value', 'NONE');
#64 = STYLED_ITEM ( 'NONE', ( #221 ), #312 ) ;
#65 = SURFACE_SIDE_STYLE ('',( #153 ) ) ;
#66 = ORIENTED_EDGE ( 'NONE', *, *, #102, .T. ) ;
#67 = UNCERTAINTY_MEASURE_WITH_UNIT (LENGTH_MEASURE( 1.000000000000000082E-05 ), #113, 'distance_accuracy_value', 'NONE');
#68 = ORIENTED_EDGE ( 'NONE', *, *, #264, .T. ) ;
#69 = VECTOR ( 'NONE', #332, 39.37007874015748143 ) ;
#70 = ORIENTED_EDGE ( 'NONE', *, *, #76, .T. ) ;
#71 =( LENGTH_UNIT ( ) NAMED_UNIT ( * ) SI_UNIT ( $, .METRE. ) );
#72 = DIRECTION ( 'NONE',  ( 0.000000000000000000, 0.000000000000000000, -1.000000000000000000 ) ) ;
#73 = PRODUCT_CONTEXT ( 'NONE', #147, 'mechanical' ) ;
#74 = EDGE_LOOP ( 'NONE', ( #131, #48, #330, #240, #151 ) ) ;
#75 = FACE_OUTER_BOUND ( 'NONE', #315, .T. ) ;
#76 = EDGE_CURVE ( 'NONE', #362, #349, #370, .T. ) ;
#77 = VERTEX_POINT ( 'NONE', #343 ) ;
#78 = CARTESIAN_POINT ( 'NONE',  ( -0.09374999999999980571, 2.000000000000000000, 0.000000000000000000 ) ) ;
#79 = LENGTH_MEASURE_WITH_UNIT ( LENGTH_MEASURE( 0.02539999999999999897 ), #199 );
#80 = PRESENTATION_LAYER_ASSIGNMENT (  '', '', ( #279 ) ) ;
#81 = SURFACE_SIDE_STYLE ('',( #339 ) ) ;
#82 = CARTESIAN_POINT ( 'NONE',  ( 1.148106374200643555E-17, 0.09375000000000001388, 0.09374999999999998612 ) ) ;
#83 = CARTESIAN_POINT ( 'NONE',  ( -1.148106374200643401E-17, 0.09374999999999998612, 0.000000000000000000 ) ) ;
#84 = EDGE_CURVE ( 'NONE', #215, #216, #320, .T. ) ;
#85 = CIRCLE ( 'NONE', #303, 0.09374999999999998612 ) ;
#86 = DIRECTION ( 'NONE',  ( -1.000000000000000000, 0.000000000000000000, 0.000000000000000000 ) ) ;
#87 = EDGE_CURVE ( 'NONE', #77, #270, #34, .T. ) ;
#88 = ORIENTED_EDGE ( 'NONE', *, *, #139, .T. ) ;
#89 = LENGTH_MEASURE_WITH_UNIT ( LENGTH_MEASURE( 0.02539999999999999897 ), #146 );
#90 = AXIS2_PLACEMENT_3D ( 'NONE', #307, #124, #164 ) ;
#91 = ORIENTED_EDGE ( 'NONE', *, *, #211, .F. ) ;
#92 = DIRECTION ( 'NONE',  ( -1.214281582932884309E-16, 1.000000000000000000, -0.000000000000000000 ) ) ;
#93 = DIMENSIONAL_EXPONENTS ( 1.000000000000000000, 0.000000000000000000, 0.000000000000000000, 0.000000000000000000, 0.000000000000000000, 0.000000000000000000, 0.000000000000000000 ) ;
#94 = CARTESIAN_POINT ( 'NONE',  ( 0.000000000000000000, 0.4375000000000000000, -0.09374999999999994449 ) ) ;
#95 = FILL_AREA_STYLE ('',( #239 ) ) ;
#96 = DIMENSIONAL_EXPONENTS ( 1.000000000000000000, 0.000000000000000000, 0.000000000000000000, 0.000000000000000000, 0.000000000000000000, 0.000000000000000000, 0.000000000000000000 ) ;
#97 = VERTEX_POINT ( 'NONE', #142 ) ;
#98 = EDGE_CURVE ( 'NONE', #278, #362, #225, .T. ) ;
#99 = ORIENTED_EDGE ( 'NONE', *, *, #195, .F. ) ;
#100 =( LENGTH_UNIT ( ) NAMED_UNIT ( * ) SI_UNIT ( $, .METRE. ) );
#101 = ORIENTED_EDGE ( 'NONE', *, *, #87, .F. ) ;
#102 = EDGE_CURVE ( 'NONE', #104, #77, #318, .T. ) ;
#103 =( CONVERSION_BASED_UNIT ( 'INCH', #126 ) LENGTH_UNIT ( ) NAMED_UNIT ( #159 ) );
#104 = VERTEX_POINT ( 'NONE', #82 ) ;
#105 = AXIS2_PLACEMENT_3D ( 'NONE', #25, #188, #310 ) ;
#106 = CIRCLE ( 'NONE', #351, 0.09374999999999968081 ) ;
#107 = DIRECTION ( 'NONE',  ( -1.214281582932884309E-16, 1.000000000000000000, 0.000000000000000000 ) ) ;
#108 = LENGTH_MEASURE_WITH_UNIT ( LENGTH_MEASURE( 0.02539999999999999897 ), #32 );
#109 =( LENGTH_UNIT ( ) NAMED_UNIT ( * ) SI_UNIT ( $, .METRE. ) );
#110 = CARTESIAN_POINT ( 'NONE',  ( 0.000000000000000000, 0.09375000000000001388, 0.000000000000000000 ) ) ;
#111 = CIRCLE ( 'NONE', #369, 0.09374999999999987510 ) ;
#112 = FILL_AREA_STYLE ('',( #285 ) ) ;
#113 =( CONVERSION_BASED_UNIT ( 'INCH', #108 ) LENGTH_UNIT ( ) NAMED_UNIT ( #7 ) );
#114 = ADVANCED_FACE ( 'NONE', ( #172 ), #293, .T. ) ;
#115 = DIRECTION ( 'NONE',  ( -1.000000000000000000, 0.000000000000000000, 0.000000000000000000 ) ) ;
#116 = CARTESIAN_POINT ( 'NONE',  ( 6.123233995736766036E-17, 2.000000000000000000, 0.000000000000000000 ) ) ;
#117 = ORIENTED_EDGE ( 'NONE', *, *, #202, .T. ) ;
#118 = COLOUR_RGB ( '',1.000000000000000000, 0.000000000000000000, 0.000000000000000000 ) ;
#119 = LENGTH_MEASURE_WITH_UNIT ( LENGTH_MEASURE( 0.02539999999999999897 ), #234 );
#120 = LINE ( 'NONE', #373, #363 ) ;
#121 = CARTESIAN_POINT ( 'NONE',  ( -1.148106374200643401E-17, 0.09374999999999998612, 0.000000000000000000 ) ) ;
#122 =( GEOMETRIC_REPRESENTATION_CONTEXT ( 3 ) GLOBAL_UNCERTAINTY_ASSIGNED_CONTEXT ( ( #67 ) ) GLOBAL_UNIT_ASSIGNED_CONTEXT ( ( #113, #57, #258 ) ) REPRESENTATION_CONTEXT ( 'NONE', 'WORKASPACE' ) );
#123 = DIRECTION ( 'NONE',  ( 0.000000000000000000, 1.000000000000000000, 0.000000000000000000 ) ) ;
#124 = DIRECTION ( 'NONE',  ( -0.000000000000000000, -1.000000000000000000, -0.000000000000000000 ) ) ;
#125 = DIMENSIONAL_EXPONENTS ( 1.000000000000000000, 0.000000000000000000, 0.000000000000000000, 0.000000000000000000, 0.000000000000000000, 0.000000000000000000, 0.000000000000000000 ) ;
#126 = LENGTH_MEASURE_WITH_UNIT ( LENGTH_MEASURE( 0.02539999999999999897 ), #249 );
#127 = EDGE_LOOP ( 'NONE', ( #250, #187, #70, #99 ) ) ;
#128 =( GEOMETRIC_REPRESENTATION_CONTEXT ( 3 ) GLOBAL_UNCERTAINTY_ASSIGNED_CONTEXT ( ( #350 ) ) GLOBAL_UNIT_ASSIGNED_CONTEXT ( ( #103, #301, #242 ) ) REPRESENTATION_CONTEXT ( 'NONE', 'WORKASPACE' ) );
#129 = MANIFOLD_SOLID_BREP ( 'Revolve - Tool Body (Straight Shanked)', #254 ) ;
#130 = FACE_OUTER_BOUND ( 'NONE', #206, .T. ) ;
#131 = ORIENTED_EDGE ( 'NONE', *, *, #18, .T. ) ;
#132 = EDGE_LOOP ( 'NONE', ( #101, #302, #117, #68 ) ) ;
#133 = LENGTH_MEASURE_WITH_UNIT ( LENGTH_MEASURE( 0.02539999999999999897 ), #71 );
#134 =( NAMED_UNIT ( * ) PLANE_ANGLE_UNIT ( ) SI_UNIT ( $, .RADIAN. ) );
#135 = CIRCLE ( 'NONE', #324, 0.09374999999999998612 ) ;
#136 =( GEOMETRIC_REPRESENTATION_CONTEXT ( 3 ) GLOBAL_UNCERTAINTY_ASSIGNED_CONTEXT ( ( #233 ) ) GLOBAL_UNIT_ASSIGNED_CONTEXT ( ( #52, #161, #246 ) ) REPRESENTATION_CONTEXT ( 'NONE', 'WORKASPACE' ) );
#137 =( NAMED_UNIT ( * ) SI_UNIT ( $, .STERADIAN. ) SOLID_ANGLE_UNIT ( ) );
#138 = CARTESIAN_POINT ( 'NONE',  ( -1.148106374200643401E-17, 0.09374999999999998612, 0.000000000000000000 ) ) ;
#139 = EDGE_CURVE ( 'NONE', #213, #104, #60, .T. ) ;
#140 = DIRECTION ( 'NONE',  ( 1.224646799147353207E-16, -0.000000000000000000, 1.000000000000000000 ) ) ;
#141 =( NAMED_UNIT ( * ) PLANE_ANGLE_UNIT ( ) SI_UNIT ( $, .RADIAN. ) );
#142 = CARTESIAN_POINT ( 'NONE',  ( 0.09374999999999991673, 2.000000000000000000, 1.148106374200641552E-17 ) ) ;
#143 = PRESENTATION_LAYER_ASSIGNMENT (  '', '', ( #229 ) ) ;
#144 = CARTESIAN_POINT ( 'NONE',  ( 2.509638372906308320E-16, 0.4375000000000000000, 0.000000000000000000 ) ) ;
#145 = DIRECTION ( 'NONE',  ( 1.000000000000000000, 0.000000000000000000, 0.000000000000000000 ) ) ;
#146 =( LENGTH_UNIT ( ) NAMED_UNIT ( * ) SI_UNIT ( $, .METRE. ) );
#147 = APPLICATION_CONTEXT ( 'automotive_design' ) ;
#148 = FILL_AREA_STYLE ('',( #236 ) ) ;
#149 = ORIENTED_EDGE ( 'NONE', *, *, #182, .F. ) ;
#150 = CARTESIAN_POINT ( 'NONE',  ( 0.000000000000000000, 0.000000000000000000, 0.000000000000000000 ) ) ;
#151 = ORIENTED_EDGE ( 'NONE', *, *, #84, .F. ) ;
#152 = COLOUR_RGB ( '',1.000000000000000000, 0.000000000000000000, 0.000000000000000000 ) ;
#153 = SURFACE_STYLE_FILL_AREA ( #277 ) ;
#154 = AXIS2_PLACEMENT_3D ( 'NONE', #22, #237, #181 ) ;
#155 = EDGE_CURVE ( 'NONE', #278, #97, #120, .T. ) ;
#156 = APPLICATION_PROTOCOL_DEFINITION ( 'draft international standard', 'automotive_design', 1998, #361 ) ;
#157 = PLANE ( 'NONE',  #352 ) ;
#158 = ORIENTED_EDGE ( 'NONE', *, *, #195, .T. ) ;
#159 = DIMENSIONAL_EXPONENTS ( 1.000000000000000000, 0.000000000000000000, 0.000000000000000000, 0.000000000000000000, 0.000000000000000000, 0.000000000000000000, 0.000000000000000000 ) ;
#160 = CARTESIAN_POINT ( 'NONE',  ( 0.000000000000000000, 0.4375000000000000000, 0.000000000000000000 ) ) ;
#161 =( NAMED_UNIT ( * ) PLANE_ANGLE_UNIT ( ) SI_UNIT ( $, .RADIAN. ) );
#162 = CARTESIAN_POINT ( 'NONE',  ( 2.509638372906308320E-16, 0.4374999999999998890, 0.000000000000000000 ) ) ;
#163 = COLOUR_RGB ( '',0.7921568627450980005, 0.8196078431372548767, 0.9333333333333333481 ) ;
#164 = DIRECTION ( 'NONE',  ( 0.000000000000000000, 0.000000000000000000, -1.000000000000000000 ) ) ;
#165 = FACE_OUTER_BOUND ( 'NONE', #184, .T. ) ;
#166 = ADVANCED_FACE ( 'NONE', ( #353 ), #346, .T. ) ;
#167 = DIRECTION ( 'NONE',  ( -1.214281582932884309E-16, 1.000000000000000000, -0.000000000000000000 ) ) ;
#168 = PRESENTATION_LAYER_ASSIGNMENT (  '', '', ( #328 ) ) ;
#169 = AXIS2_PLACEMENT_3D ( 'NONE', #150, #296, #268 ) ;
#170 = SURFACE_SIDE_STYLE ('',( #196 ) ) ;
#171 =( CONVERSION_BASED_UNIT ( 'INCH', #79 ) LENGTH_UNIT ( ) NAMED_UNIT ( #327 ) );
#172 = FACE_OUTER_BOUND ( 'NONE', #132, .T. ) ;
#173 = COLOUR_RGB ( '',0.7921568627450980005, 0.8196078431372548767, 0.9333333333333333481 ) ;
#174 = DIRECTION ( 'NONE',  ( -1.000000000000000000, 0.000000000000000000, 0.000000000000000000 ) ) ;
#175 = AXIS2_PLACEMENT_3D ( 'NONE', #144, #107, #262 ) ;
#176 = AXIS2_PLACEMENT_3D ( 'NONE', #13, #123, #47 ) ;
#177 = DIRECTION ( 'NONE',  ( -1.214281582932884309E-16, 1.000000000000000000, -0.000000000000000000 ) ) ;
#178 =( CONVERSION_BASED_UNIT ( 'INCH', #89 ) LENGTH_UNIT ( ) NAMED_UNIT ( #125 ) );
#179 = SURFACE_SIDE_STYLE ('',( #6 ) ) ;
#180 = ORIENTED_EDGE ( 'NONE', *, *, #84, .T. ) ;
#181 = DIRECTION ( 'NONE',  ( 1.000000000000000000, 0.000000000000000000, 0.000000000000000000 ) ) ;
#182 = EDGE_CURVE ( 'NONE', #349, #97, #46, .T. ) ;
#183 = AXIS2_PLACEMENT_3D ( 'NONE', #212, #265, #174 ) ;
#184 = EDGE_LOOP ( 'NONE', ( #45, #158 ) ) ;
#185 = SURFACE_STYLE_USAGE ( .BOTH. , #331 ) ;
#186 = DIMENSIONAL_EXPONENTS ( 1.000000000000000000, 0.000000000000000000, 0.000000000000000000, 0.000000000000000000, 0.000000000000000000, 0.000000000000000000, 0.000000000000000000 ) ;
#187 = ORIENTED_EDGE ( 'NONE', *, *, #98, .T. ) ;
#188 = DIRECTION ( 'NONE',  ( -1.214281582932884309E-16, 1.000000000000000000, -0.000000000000000000 ) ) ;
#189 = DIRECTION ( 'NONE',  ( -0.000000000000000000, -1.000000000000000000, -0.000000000000000000 ) ) ;
#190 = ORIENTED_EDGE ( 'NONE', *, *, #98, .F. ) ;
#191 = VECTOR ( 'NONE', #366, 39.37007874015748143 ) ;
#192 = MECHANICAL_DESIGN_GEOMETRIC_PRESENTATION_REPRESENTATION (  '', ( #3 ), #295 ) ;
#193 =( CONVERSION_BASED_UNIT ( 'INCH', #316 ) LENGTH_UNIT ( ) NAMED_UNIT ( #96 ) );
#194 = FILL_AREA_STYLE_COLOUR ( '', #311 ) ;
#195 = EDGE_CURVE ( 'NONE', #97, #349, #111, .T. ) ;
#196 = SURFACE_STYLE_FILL_AREA ( #112 ) ;
#197 = FACE_OUTER_BOUND ( 'NONE', #74, .T. ) ;
#198 = AXIS2_PLACEMENT_3D ( 'NONE', #367, #269, #10 ) ;
#199 =( LENGTH_UNIT ( ) NAMED_UNIT ( * ) SI_UNIT ( $, .METRE. ) );
#200 = SURFACE_STYLE_FILL_AREA ( #224 ) ;
#201 = PRESENTATION_STYLE_ASSIGNMENT (( #37 ) ) ;
#202 = EDGE_CURVE ( 'NONE', #216, #213, #135, .T. ) ;
#203 = ADVANCED_BREP_SHAPE_REPRESENTATION ( '83414', ( #251, #129, #154 ), #136 ) ;
#204 = CLOSED_SHELL ( 'NONE', ( #54, #354, #248, #312, #114 ) ) ;
#205 = CARTESIAN_POINT ( 'NONE',  ( 0.000000000000000000, 0.09375000000000001388, 0.000000000000000000 ) ) ;
#206 = EDGE_LOOP ( 'NONE', ( #297, #91 ) ) ;
#207 =( NAMED_UNIT ( * ) SI_UNIT ( $, .STERADIAN. ) SOLID_ANGLE_UNIT ( ) );
#208 = DIRECTION ( 'NONE',  ( -1.000000000000000000, 0.000000000000000000, 0.000000000000000000 ) ) ;
#209 = PRODUCT_DEFINITION_FORMATION_WITH_SPECIFIED_SOURCE ( 'ANY', '', #218, .NOT_KNOWN. ) ;
#210 = PRESENTATION_STYLE_ASSIGNMENT (( #2 ) ) ;
#211 = EDGE_CURVE ( 'NONE', #359, #215, #255, .T. ) ;
#212 = CARTESIAN_POINT ( 'NONE',  ( 6.123233995736766036E-17, 2.000000000000000000, 0.000000000000000000 ) ) ;
#213 = VERTEX_POINT ( 'NONE', #355 ) ;
#214 =( GEOMETRIC_REPRESENTATION_CONTEXT ( 3 ) GLOBAL_UNCERTAINTY_ASSIGNED_CONTEXT ( ( #276 ) ) GLOBAL_UNIT_ASSIGNED_CONTEXT ( ( #171, #134, #364 ) ) REPRESENTATION_CONTEXT ( 'NONE', 'WORKASPACE' ) );
#215 = VERTEX_POINT ( 'NONE', #94 ) ;
#216 = VERTEX_POINT ( 'NONE', #306 ) ;
#217 = ORIENTED_EDGE ( 'NONE', *, *, #4, .F. ) ;
#218 = PRODUCT ( '83414', '83414', '', ( #73 ) ) ;
#219 = AXIS2_PLACEMENT_3D ( 'NONE', #110, #345, #58 ) ;
#220 =( CONVERSION_BASED_UNIT ( 'INCH', #133 ) LENGTH_UNIT ( ) NAMED_UNIT ( #186 ) );
#221 = PRESENTATION_STYLE_ASSIGNMENT (( #342 ) ) ;
#222 = FILL_AREA_STYLE ('',( #259 ) ) ;
#223 = PRESENTATION_LAYER_ASSIGNMENT (  '', '', ( #36 ) ) ;
#224 = FILL_AREA_STYLE ('',( #287 ) ) ;
#225 = CIRCLE ( 'NONE', #323, 0.09374999999999968081 ) ;
#226 = DIRECTION ( 'NONE',  ( -1.214281582932884309E-16, 1.000000000000000000, -0.000000000000000000 ) ) ;
#227 = PRESENTATION_STYLE_ASSIGNMENT (( #337 ) ) ;
#228 = DIRECTION ( 'NONE',  ( -1.214281582932884309E-16, 1.000000000000000000, -0.000000000000000000 ) ) ;
#229 = STYLED_ITEM ( 'NONE', ( #356 ), #54 ) ;
#230 = AXIS2_PLACEMENT_3D ( 'NONE', #289, #31, #33 ) ;
#231 = CARTESIAN_POINT ( 'NONE',  ( 1.148106374200642938E-17, 0.4375000000000000000, 0.09374999999999994449 ) ) ;
#232 = DIRECTION ( 'NONE',  ( 1.000000000000000000, 0.000000000000000000, 0.000000000000000000 ) ) ;
#233 = UNCERTAINTY_MEASURE_WITH_UNIT (LENGTH_MEASURE( 1.000000000000000082E-05 ), #52, 'distance_accuracy_value', 'NONE');
#234 =( LENGTH_UNIT ( ) NAMED_UNIT ( * ) SI_UNIT ( $, .METRE. ) );
#235 =( GEOMETRIC_REPRESENTATION_CONTEXT ( 3 ) GLOBAL_UNCERTAINTY_ASSIGNED_CONTEXT ( ( #304 ) ) GLOBAL_UNIT_ASSIGNED_CONTEXT ( ( #178, #299, #207 ) ) REPRESENTATION_CONTEXT ( 'NONE', 'WORKASPACE' ) );
#236 = FILL_AREA_STYLE_COLOUR ( '', #173 ) ;
#237 = DIRECTION ( 'NONE',  ( 0.000000000000000000, 0.000000000000000000, 1.000000000000000000 ) ) ;
#238 = FILL_AREA_STYLE ('',( #194 ) ) ;
#239 = FILL_AREA_STYLE_COLOUR ( '', #163 ) ;
#240 = ORIENTED_EDGE ( 'NONE', *, *, #202, .F. ) ;
#241 = AXIS2_PLACEMENT_3D ( 'NONE', #121, #61, #232 ) ;
#242 =( NAMED_UNIT ( * ) SI_UNIT ( $, .STERADIAN. ) SOLID_ANGLE_UNIT ( ) );
#243 = MECHANICAL_DESIGN_GEOMETRIC_PRESENTATION_REPRESENTATION (  '', ( #64 ), #313 ) ;
#244 = CARTESIAN_POINT ( 'NONE',  ( 1.148106374200643092E-17, 0.000000000000000000, 0.09374999999999995837 ) ) ;
#245 = PRODUCT_RELATED_PRODUCT_CATEGORY ( 'part', '', ( #218 ) ) ;
#246 =( NAMED_UNIT ( * ) SI_UNIT ( $, .STERADIAN. ) SOLID_ANGLE_UNIT ( ) );
#247 = ORIENTED_EDGE ( 'NONE', *, *, #155, .T. ) ;
#248 = ADVANCED_FACE ( 'NONE', ( #130 ), #44, .T. ) ;
#249 =( LENGTH_UNIT ( ) NAMED_UNIT ( * ) SI_UNIT ( $, .METRE. ) );
#250 = ORIENTED_EDGE ( 'NONE', *, *, #155, .F. ) ;
#251 = MANIFOLD_SOLID_BREP ( 'Revolve - Cutting Edge', #204 ) ;
#252 = ADVANCED_FACE ( 'NONE', ( #165 ), #157, .F. ) ;
#253 = CARTESIAN_POINT ( 'NONE',  ( 0.09374999999999991673, 0.4374999999999998890, 1.148106374200641552E-17 ) ) ;
#254 = CLOSED_SHELL ( 'NONE', ( #166, #344, #26, #252 ) ) ;
#255 = CIRCLE ( 'NONE', #27, 0.09374999999999994449 ) ;
#256 = MECHANICAL_DESIGN_GEOMETRIC_PRESENTATION_REPRESENTATION (  '', ( #36 ), #235 ) ;
#257 = DIRECTION ( 'NONE',  ( 1.214281582932884309E-16, -1.000000000000000000, 0.000000000000000000 ) ) ;
#258 =( NAMED_UNIT ( * ) SI_UNIT ( $, .STERADIAN. ) SOLID_ANGLE_UNIT ( ) );
#259 = FILL_AREA_STYLE_COLOUR ( '', #118 ) ;
#260 = SPHERICAL_SURFACE ( 'NONE', #272, 0.09374999999999998612 ) ;
#261 = STYLED_ITEM ( 'NONE', ( #227 ), #114 ) ;
#262 = DIRECTION ( 'NONE',  ( -1.000000000000000000, -1.214281582932884309E-16, 0.000000000000000000 ) ) ;
#263 = CARTESIAN_POINT ( 'NONE',  ( -1.148106374200643401E-17, 0.09374999999999998612, 0.000000000000000000 ) ) ;
#264 = EDGE_CURVE ( 'NONE', #213, #270, #288, .T. ) ;
#265 = DIRECTION ( 'NONE',  ( -1.214281582932884309E-16, 1.000000000000000000, -0.000000000000000000 ) ) ;
#266 = AXIS2_PLACEMENT_3D ( 'NONE', #138, #368, #291 ) ;
#267 = ORIENTED_EDGE ( 'NONE', *, *, #62, .F. ) ;
#268 = DIRECTION ( 'NONE',  ( 0.000000000000000000, 0.000000000000000000, -1.000000000000000000 ) ) ;
#269 = DIRECTION ( 'NONE',  ( -0.000000000000000000, -1.000000000000000000, -0.000000000000000000 ) ) ;
#270 = VERTEX_POINT ( 'NONE', #371 ) ;
#271 = AXIS2_PLACEMENT_3D ( 'NONE', #83, #140, #372 ) ;
#272 = AXIS2_PLACEMENT_3D ( 'NONE', #263, #284, #145 ) ;
#273 = SURFACE_STYLE_USAGE ( .BOTH. , #24 ) ;
#274 = SHAPE_DEFINITION_REPRESENTATION ( #49, #203 ) ;
#275 = PRESENTATION_STYLE_ASSIGNMENT (( #17 ) ) ;
#276 = UNCERTAINTY_MEASURE_WITH_UNIT (LENGTH_MEASURE( 1.000000000000000082E-05 ), #171, 'distance_accuracy_value', 'NONE');
#277 = FILL_AREA_STYLE ('',( #358 ) ) ;
#278 = VERTEX_POINT ( 'NONE', #253 ) ;
#279 = STYLED_ITEM ( 'NONE', ( #210 ), #129 ) ;
#280 = DIRECTION ( 'NONE',  ( 0.000000000000000000, 0.000000000000000000, -1.000000000000000000 ) ) ;
#281 = CYLINDRICAL_SURFACE ( 'NONE', #105, 0.09374999999999979183 ) ;
#282 = ORIENTED_EDGE ( 'NONE', *, *, #264, .F. ) ;
#283 = DIRECTION ( 'NONE',  ( 1.000000000000000000, 1.214281582932884309E-16, 0.000000000000000000 ) ) ;
#284 = DIRECTION ( 'NONE',  ( 0.000000000000000000, 0.000000000000000000, 1.000000000000000000 ) ) ;
#285 = FILL_AREA_STYLE_COLOUR ( '', #28 ) ;
#286 = COLOUR_RGB ( '',1.000000000000000000, 0.000000000000000000, 0.000000000000000000 ) ;
#287 = FILL_AREA_STYLE_COLOUR ( '', #152 ) ;
#288 = CIRCLE ( 'NONE', #266, 0.09374999999999998612 ) ;
#289 = CARTESIAN_POINT ( 'NONE',  ( 0.000000000000000000, 0.000000000000000000, 0.000000000000000000 ) ) ;
#290 = CARTESIAN_POINT ( 'NONE',  ( -0.09374999999999972244, 2.000000000000000000, 0.000000000000000000 ) ) ;
#291 = DIRECTION ( 'NONE',  ( -1.000000000000000000, 0.000000000000000000, 0.000000000000000000 ) ) ;
#292 = CARTESIAN_POINT ( 'NONE',  ( 2.509638372906308320E-16, 0.4374999999999998890, 0.000000000000000000 ) ) ;
#293 = SPHERICAL_SURFACE ( 'NONE', #241, 0.09374999999999998612 ) ;
#294 = MECHANICAL_DESIGN_GEOMETRIC_PRESENTATION_REPRESENTATION (  '', ( #279 ), #21 ) ;
#295 =( GEOMETRIC_REPRESENTATION_CONTEXT ( 3 ) GLOBAL_UNCERTAINTY_ASSIGNED_CONTEXT ( ( #9 ) ) GLOBAL_UNIT_ASSIGNED_CONTEXT ( ( #220, #141, #317 ) ) REPRESENTATION_CONTEXT ( 'NONE', 'WORKASPACE' ) );
#296 = DIRECTION ( 'NONE',  ( -0.000000000000000000, -1.000000000000000000, -0.000000000000000000 ) ) ;
#297 = ORIENTED_EDGE ( 'NONE', *, *, #18, .F. ) ;
#298 = UNCERTAINTY_MEASURE_WITH_UNIT (LENGTH_MEASURE( 1.000000000000000082E-05 ), #300, 'distance_accuracy_value', 'NONE');
#299 =( NAMED_UNIT ( * ) PLANE_ANGLE_UNIT ( ) SI_UNIT ( $, .RADIAN. ) );
#300 =( CONVERSION_BASED_UNIT ( 'INCH', #119 ) LENGTH_UNIT ( ) NAMED_UNIT ( #357 ) );
#301 =( NAMED_UNIT ( * ) PLANE_ANGLE_UNIT ( ) SI_UNIT ( $, .RADIAN. ) );
#302 = ORIENTED_EDGE ( 'NONE', *, *, #4, .T. ) ;
#303 = AXIS2_PLACEMENT_3D ( 'NONE', #334, #19, #72 ) ;
#304 = UNCERTAINTY_MEASURE_WITH_UNIT (LENGTH_MEASURE( 1.000000000000000082E-05 ), #178, 'distance_accuracy_value', 'NONE');
#305 = AXIS2_PLACEMENT_3D ( 'NONE', #39, #92, #208 ) ;
#306 = CARTESIAN_POINT ( 'NONE',  ( 0.000000000000000000, 0.09375000000000001388, -0.09374999999999998612 ) ) ;
#307 = CARTESIAN_POINT ( 'NONE',  ( 0.000000000000000000, 0.4375000000000000000, 0.000000000000000000 ) ) ;
#308 = PRESENTATION_STYLE_ASSIGNMENT (( #185 ) ) ;
#309 = ORIENTED_EDGE ( 'NONE', *, *, #62, .T. ) ;
#310 = DIRECTION ( 'NONE',  ( -1.000000000000000000, 0.000000000000000000, 0.000000000000000000 ) ) ;
#311 = COLOUR_RGB ( '',1.000000000000000000, 0.000000000000000000, 0.000000000000000000 ) ;
#312 = ADVANCED_FACE ( 'NONE', ( #338 ), #365, .T. ) ;
#313 =( GEOMETRIC_REPRESENTATION_CONTEXT ( 3 ) GLOBAL_UNCERTAINTY_ASSIGNED_CONTEXT ( ( #63 ) ) GLOBAL_UNIT_ASSIGNED_CONTEXT ( ( #193, #321, #137 ) ) REPRESENTATION_CONTEXT ( 'NONE', 'WORKASPACE' ) );
#314 = LINE ( 'NONE', #244, #69 ) ;
#315 = EDGE_LOOP ( 'NONE', ( #267, #190 ) ) ;
#316 = LENGTH_MEASURE_WITH_UNIT ( LENGTH_MEASURE( 0.02539999999999999897 ), #109 );
#317 =( NAMED_UNIT ( * ) SI_UNIT ( $, .STERADIAN. ) SOLID_ANGLE_UNIT ( ) );
#318 = CIRCLE ( 'NONE', #219, 0.09374999999999998612 ) ;
#319 = PLANE ( 'NONE',  #175 ) ;
#320 = LINE ( 'NONE', #341, #191 ) ;
#321 =( NAMED_UNIT ( * ) PLANE_ANGLE_UNIT ( ) SI_UNIT ( $, .RADIAN. ) );
#322 = SURFACE_SIDE_STYLE ('',( #200 ) ) ;
#323 = AXIS2_PLACEMENT_3D ( 'NONE', #292, #167, #115 ) ;
#324 = AXIS2_PLACEMENT_3D ( 'NONE', #205, #189, #280 ) ;
#325 = DIRECTION ( 'NONE',  ( 0.000000000000000000, 0.000000000000000000, -1.000000000000000000 ) ) ;
#326 = ORIENTED_EDGE ( 'NONE', *, *, #76, .F. ) ;
#327 = DIMENSIONAL_EXPONENTS ( 1.000000000000000000, 0.000000000000000000, 0.000000000000000000, 0.000000000000000000, 0.000000000000000000, 0.000000000000000000, 0.000000000000000000 ) ;
#328 = STYLED_ITEM ( 'NONE', ( #275 ), #248 ) ;
#329 = SURFACE_STYLE_FILL_AREA ( #95 ) ;
#330 = ORIENTED_EDGE ( 'NONE', *, *, #139, .F. ) ;
#331 = SURFACE_SIDE_STYLE ('',( #329 ) ) ;
#332 = DIRECTION ( 'NONE',  ( -0.000000000000000000, -1.000000000000000000, -0.000000000000000000 ) ) ;
#333 = APPLICATION_PROTOCOL_DEFINITION ( 'draft international standard', 'automotive_design', 1998, #147 ) ;
#334 = CARTESIAN_POINT ( 'NONE',  ( 0.000000000000000000, 0.09375000000000001388, 0.000000000000000000 ) ) ;
#335 = PRESENTATION_LAYER_ASSIGNMENT (  '', '', ( #261 ) ) ;
#336 = FACE_OUTER_BOUND ( 'NONE', #127, .T. ) ;
#337 = SURFACE_STYLE_USAGE ( .BOTH. , #322 ) ;
#338 = FACE_OUTER_BOUND ( 'NONE', #16, .T. ) ;
#339 = SURFACE_STYLE_FILL_AREA ( #222 ) ;
#340 = VECTOR ( 'NONE', #226, 39.37007874015748143 ) ;
#341 = CARTESIAN_POINT ( 'NONE',  ( 0.000000000000000000, 0.000000000000000000, -0.09374999999999995837 ) ) ;
#342 = SURFACE_STYLE_USAGE ( .BOTH. , #170 ) ;
#343 = CARTESIAN_POINT ( 'NONE',  ( -0.09374999999999998612, 0.09375000000000001388, 1.148106374200643247E-17 ) ) ;
#344 = ADVANCED_FACE ( 'NONE', ( #75 ), #319, .F. ) ;
#345 = DIRECTION ( 'NONE',  ( -0.000000000000000000, -1.000000000000000000, -0.000000000000000000 ) ) ;
#346 = CYLINDRICAL_SURFACE ( 'NONE', #305, 0.09374999999999979183 ) ;
#347 = CIRCLE ( 'NONE', #90, 0.09374999999999994449 ) ;
#348 = CARTESIAN_POINT ( 'NONE',  ( -0.09374999999999943101, 0.4374999999999998890, 0.000000000000000000 ) ) ;
#349 = VERTEX_POINT ( 'NONE', #78 ) ;
#350 = UNCERTAINTY_MEASURE_WITH_UNIT (LENGTH_MEASURE( 1.000000000000000082E-05 ), #103, 'distance_accuracy_value', 'NONE');
#351 = AXIS2_PLACEMENT_3D ( 'NONE', #162, #35, #30 ) ;
#352 = AXIS2_PLACEMENT_3D ( 'NONE', #59, #257, #283 ) ;
#353 = FACE_OUTER_BOUND ( 'NONE', #53, .T. ) ;
#354 = ADVANCED_FACE ( 'NONE', ( #197 ), #29, .T. ) ;
#355 = CARTESIAN_POINT ( 'NONE',  ( 0.09374999999999998612, 0.09375000000000001388, 0.000000000000000000 ) ) ;
#356 = PRESENTATION_STYLE_ASSIGNMENT (( #273 ) ) ;
#357 = DIMENSIONAL_EXPONENTS ( 1.000000000000000000, 0.000000000000000000, 0.000000000000000000, 0.000000000000000000, 0.000000000000000000, 0.000000000000000000, 0.000000000000000000 ) ;
#358 = FILL_AREA_STYLE_COLOUR ( '', #286 ) ;
#359 = VERTEX_POINT ( 'NONE', #231 ) ;
#360 = EDGE_LOOP ( 'NONE', ( #66, #42, #282, #88 ) ) ;
#361 = APPLICATION_CONTEXT ( 'automotive_design' ) ;
#362 = VERTEX_POINT ( 'NONE', #348 ) ;
#363 = VECTOR ( 'NONE', #177, 39.37007874015748143 ) ;
#364 =( NAMED_UNIT ( * ) SI_UNIT ( $, .STERADIAN. ) SOLID_ANGLE_UNIT ( ) );
#365 = CYLINDRICAL_SURFACE ( 'NONE', #230, 0.09374999999999995837 ) ;
#366 = DIRECTION ( 'NONE',  ( -0.000000000000000000, -1.000000000000000000, -0.000000000000000000 ) ) ;
#367 = CARTESIAN_POINT ( 'NONE',  ( 0.000000000000000000, 0.09375000000000001388, 0.000000000000000000 ) ) ;
#368 = DIRECTION ( 'NONE',  ( 0.000000000000000000, 0.000000000000000000, -1.000000000000000000 ) ) ;
#369 = AXIS2_PLACEMENT_3D ( 'NONE', #116, #228, #86 ) ;
#370 = LINE ( 'NONE', #290, #340 ) ;
#371 = CARTESIAN_POINT ( 'NONE',  ( -5.740531871003217003E-18, 0.000000000000000000, 0.000000000000000000 ) ) ;
#372 = DIRECTION ( 'NONE',  ( 1.000000000000000000, 0.000000000000000000, -1.224646799147353207E-16 ) ) ;
#373 = CARTESIAN_POINT ( 'NONE',  ( 0.09374999999999984734, 2.000000000000000000, 1.148106374200640935E-17 ) ) ;
ENDSEC;
END-ISO-10303-21;
