ISO-10303-21;
HEADER;
FILE_DESCRIPTION (( 'STEP AP214' ),
    '1' );
FILE_NAME ('05307.STEP',
    '2023-06-22T16:01:37',
    ( '' ),
    ( '' ),
    'SwSTEP 2.0',
    'SolidWorks 2023',
    '' );
FILE_SCHEMA (( 'AUTOMOTIVE_DESIGN' ));
ENDSEC;

DATA;
#1 = DIRECTION ( 'NONE',  ( -0.000000000000000000, -1.000000000000000000, -0.000000000000000000 ) ) ;
#2 = DIRECTION ( 'NONE',  ( -0.000000000000000000, -1.000000000000000000, -0.000000000000000000 ) ) ;
#3 = VECTOR ( 'NONE', #36, 39.37007874015748143 ) ;
#4 = AXIS2_PLACEMENT_3D ( 'NONE', #216, #168, #123 ) ;
#5 = EDGE_CURVE ( 'NONE', #238, #188, #89, .T. ) ;
#6 = CIRCLE ( 'NONE', #214, 0.1875000000000000278 ) ;
#7 = DIRECTION ( 'NONE',  ( 0.000000000000000000, 0.000000000000000000, -1.000000000000000000 ) ) ;
#8 = FACE_OUTER_BOUND ( 'NONE', #67, .T. ) ;
#9 = ADVANCED_FACE ( 'NONE', ( #53 ), #266, .F. ) ;
#10 =( CONVERSION_BASED_UNIT ( 'INCH', #34 ) LENGTH_UNIT ( ) NAMED_UNIT ( #223 ) );
#11 = COLOUR_RGB ( '',0.7921568627450980005, 0.8196078431372548767, 0.9333333333333333481 ) ;
#12 =( NAMED_UNIT ( * ) SI_UNIT ( $, .STERADIAN. ) SOLID_ANGLE_UNIT ( ) );
#13 = DIRECTION ( 'NONE',  ( 0.000000000000000000, 0.000000000000000000, -1.000000000000000000 ) ) ;
#14 = SURFACE_STYLE_FILL_AREA ( #125 ) ;
#15 = CIRCLE ( 'NONE', #124, 0.1875000000000000278 ) ;
#16 = CARTESIAN_POINT ( 'NONE',  ( 2.296212748401287726E-17, 1.000000000000000000, 0.1875000000000000278 ) ) ;
#17 = MECHANICAL_DESIGN_GEOMETRIC_PRESENTATION_REPRESENTATION (  '', ( #254 ), #40 ) ;
#18 = CARTESIAN_POINT ( 'NONE',  ( 0.000000000000000000, 1.000000000000000000, -0.1875000000000000278 ) ) ;
#19 = SURFACE_SIDE_STYLE ('',( #21 ) ) ;
#20 = LENGTH_MEASURE_WITH_UNIT ( LENGTH_MEASURE( 0.02539999999999999897 ), #205 );
#21 = SURFACE_STYLE_FILL_AREA ( #80 ) ;
#22 = AXIS2_PLACEMENT_3D ( 'NONE', #225, #226, #147 ) ;
#23 = LENGTH_MEASURE_WITH_UNIT ( LENGTH_MEASURE( 0.02539999999999999897 ), #279 );
#24 = ORIENTED_EDGE ( 'NONE', *, *, #81, .T. ) ;
#25 = SURFACE_STYLE_USAGE ( .BOTH. , #176 ) ;
#26 = EDGE_LOOP ( 'NONE', ( #207, #87 ) ) ;
#27 = ADVANCED_FACE ( 'NONE', ( #247 ), #32, .T. ) ;
#28 = ORIENTED_EDGE ( 'NONE', *, *, #252, .T. ) ;
#29 = SURFACE_SIDE_STYLE ('',( #164 ) ) ;
#30 = CIRCLE ( 'NONE', #22, 0.1875000000000000278 ) ;
#31 = CARTESIAN_POINT ( 'NONE',  ( 0.000000000000000000, 0.000000000000000000, -0.1875000000000000278 ) ) ;
#32 = CYLINDRICAL_SURFACE ( 'NONE', #4, 0.1875000000000000833 ) ;
#33 = EDGE_CURVE ( 'NONE', #188, #238, #263, .T. ) ;
#34 = LENGTH_MEASURE_WITH_UNIT ( LENGTH_MEASURE( 0.02539999999999999897 ), #273 );
#35 = COLOUR_RGB ( '',1.000000000000000000, 0.000000000000000000, 0.000000000000000000 ) ;
#36 = DIRECTION ( 'NONE',  ( -6.123233995736769734E-17, 1.000000000000000000, -0.000000000000000000 ) ) ;
#37 = EDGE_CURVE ( 'NONE', #119, #235, #15, .T. ) ;
#38 = PRESENTATION_STYLE_ASSIGNMENT (( #100 ) ) ;
#39 = PRESENTATION_STYLE_ASSIGNMENT (( #126 ) ) ;
#40 =( GEOMETRIC_REPRESENTATION_CONTEXT ( 3 ) GLOBAL_UNCERTAINTY_ASSIGNED_CONTEXT ( ( #41 ) ) GLOBAL_UNIT_ASSIGNED_CONTEXT ( ( #141, #187, #244 ) ) REPRESENTATION_CONTEXT ( 'NONE', 'WORKASPACE' ) );
#41 = UNCERTAINTY_MEASURE_WITH_UNIT (LENGTH_MEASURE( 1.000000000000000082E-05 ), #141, 'distance_accuracy_value', 'NONE');
#42 = FILL_AREA_STYLE ('',( #231 ) ) ;
#43 = VECTOR ( 'NONE', #287, 39.37007874015748143 ) ;
#44 = DIRECTION ( 'NONE',  ( -1.000000000000000000, 0.000000000000000000, 0.000000000000000000 ) ) ;
#45 = EDGE_CURVE ( 'NONE', #48, #302, #148, .T. ) ;
#46 = ORIENTED_EDGE ( 'NONE', *, *, #5, .T. ) ;
#47 = PRESENTATION_LAYER_ASSIGNMENT (  '', '', ( #152 ) ) ;
#48 = VERTEX_POINT ( 'NONE', #59 ) ;
#49 = APPLICATION_CONTEXT ( 'automotive_design' ) ;
#50 = EDGE_CURVE ( 'NONE', #239, #156, #30, .T. ) ;
#51 = DIRECTION ( 'NONE',  ( -1.000000000000000000, 0.000000000000000000, 0.000000000000000000 ) ) ;
#52 = FACE_OUTER_BOUND ( 'NONE', #84, .T. ) ;
#53 = FACE_OUTER_BOUND ( 'NONE', #243, .T. ) ;
#54 = LINE ( 'NONE', #31, #191 ) ;
#55 = DIRECTION ( 'NONE',  ( -6.123233995736769734E-17, 1.000000000000000000, -0.000000000000000000 ) ) ;
#56 = AXIS2_PLACEMENT_3D ( 'NONE', #75, #269, #186 ) ;
#57 = EDGE_CURVE ( 'NONE', #188, #302, #251, .T. ) ;
#58 = ADVANCED_BREP_SHAPE_REPRESENTATION ( '05307', ( #122, #232, #90 ), #284 ) ;
#59 = CARTESIAN_POINT ( 'NONE',  ( 0.1875000000000000278, 3.000000000000000444, 2.296212748401288650E-17 ) ) ;
#60 =( CONVERSION_BASED_UNIT ( 'INCH', #150 ) LENGTH_UNIT ( ) NAMED_UNIT ( #179 ) );
#61 = DIRECTION ( 'NONE',  ( -0.000000000000000000, -1.000000000000000000, -0.000000000000000000 ) ) ;
#62 = ADVANCED_FACE ( 'NONE', ( #250 ), #194, .T. ) ;
#63 = AXIS2_PLACEMENT_3D ( 'NONE', #166, #98, #51 ) ;
#64 = PRESENTATION_STYLE_ASSIGNMENT (( #107 ) ) ;
#65 = APPLICATION_CONTEXT ( 'automotive_design' ) ;
#66 = DIMENSIONAL_EXPONENTS ( 1.000000000000000000, 0.000000000000000000, 0.000000000000000000, 0.000000000000000000, 0.000000000000000000, 0.000000000000000000, 0.000000000000000000 ) ;
#67 = EDGE_LOOP ( 'NONE', ( #114, #92 ) ) ;
#68 = DIRECTION ( 'NONE',  ( 0.000000000000000000, 0.000000000000000000, -1.000000000000000000 ) ) ;
#69 = DIRECTION ( 'NONE',  ( 0.000000000000000000, -0.000000000000000000, 1.000000000000000000 ) ) ;
#70 = DIRECTION ( 'NONE',  ( -6.123233995736769734E-17, 1.000000000000000000, -0.000000000000000000 ) ) ;
#71 = PRESENTATION_LAYER_ASSIGNMENT (  '', '', ( #206 ) ) ;
#72 = DIRECTION ( 'NONE',  ( -1.000000000000000000, 0.000000000000000000, 0.000000000000000000 ) ) ;
#73 = CARTESIAN_POINT ( 'NONE',  ( -0.1875000000000002220, 3.000000000000000444, 0.000000000000000000 ) ) ;
#74 = EDGE_CURVE ( 'NONE', #119, #239, #102, .T. ) ;
#75 = CARTESIAN_POINT ( 'NONE',  ( 3.515061990613733472E-34, 1.000000000000000000, 0.000000000000000000 ) ) ;
#76 = CARTESIAN_POINT ( 'NONE',  ( -1.224646799147353700E-16, 3.000000000000000444, 0.000000000000000000 ) ) ;
#77 = COLOUR_RGB ( '',1.000000000000000000, 0.000000000000000000, 0.000000000000000000 ) ;
#78 = AXIS2_PLACEMENT_3D ( 'NONE', #301, #303, #44 ) ;
#79 = CARTESIAN_POINT ( 'NONE',  ( 2.296212748401287726E-17, 0.000000000000000000, 0.1875000000000000278 ) ) ;
#80 = FILL_AREA_STYLE ('',( #173 ) ) ;
#81 = EDGE_CURVE ( 'NONE', #235, #156, #54, .T. ) ;
#82 = SURFACE_STYLE_FILL_AREA ( #83 ) ;
#83 = FILL_AREA_STYLE ('',( #300 ) ) ;
#84 = EDGE_LOOP ( 'NONE', ( #185, #215, #24, #153 ) ) ;
#85 = ADVANCED_FACE ( 'NONE', ( #8 ), #172, .F. ) ;
#86 = DIRECTION ( 'NONE',  ( 0.000000000000000000, 0.000000000000000000, -1.000000000000000000 ) ) ;
#87 = ORIENTED_EDGE ( 'NONE', *, *, #50, .T. ) ;
#88 = UNCERTAINTY_MEASURE_WITH_UNIT (LENGTH_MEASURE( 1.000000000000000082E-05 ), #210, 'distance_accuracy_value', 'NONE');
#89 = CIRCLE ( 'NONE', #63, 0.1875000000000000278 ) ;
#90 = AXIS2_PLACEMENT_3D ( 'NONE', #93, #237, #282 ) ;
#91 = SHAPE_DEFINITION_REPRESENTATION ( #200, #58 ) ;
#92 = ORIENTED_EDGE ( 'NONE', *, *, #5, .F. ) ;
#93 = CARTESIAN_POINT ( 'NONE',  ( 0.000000000000000000, 0.000000000000000000, 0.000000000000000000 ) ) ;
#94 = PRODUCT_RELATED_PRODUCT_CATEGORY ( 'part', '', ( #245 ) ) ;
#95 = ORIENTED_EDGE ( 'NONE', *, *, #37, .F. ) ;
#96 = LENGTH_MEASURE_WITH_UNIT ( LENGTH_MEASURE( 0.02539999999999999897 ), #112 );
#97 = COLOUR_RGB ( '',0.7921568627450980005, 0.8196078431372548767, 0.9333333333333333481 ) ;
#98 = DIRECTION ( 'NONE',  ( -6.123233995736769734E-17, 1.000000000000000000, -0.000000000000000000 ) ) ;
#99 =( CONVERSION_BASED_UNIT ( 'INCH', #222 ) LENGTH_UNIT ( ) NAMED_UNIT ( #203 ) );
#100 = SURFACE_STYLE_USAGE ( .BOTH. , #248 ) ;
#101 =( NAMED_UNIT ( * ) PLANE_ANGLE_UNIT ( ) SI_UNIT ( $, .RADIAN. ) );
#102 = LINE ( 'NONE', #79, #170 ) ;
#103 = UNCERTAINTY_MEASURE_WITH_UNIT (LENGTH_MEASURE( 1.000000000000000082E-05 ), #99, 'distance_accuracy_value', 'NONE');
#104 = AXIS2_PLACEMENT_3D ( 'NONE', #142, #190, #72 ) ;
#105 =( GEOMETRIC_REPRESENTATION_CONTEXT ( 3 ) GLOBAL_UNCERTAINTY_ASSIGNED_CONTEXT ( ( #88 ) ) GLOBAL_UNIT_ASSIGNED_CONTEXT ( ( #210, #183, #212 ) ) REPRESENTATION_CONTEXT ( 'NONE', 'WORKASPACE' ) );
#106 = FILL_AREA_STYLE ('',( #298 ) ) ;
#107 = SURFACE_STYLE_USAGE ( .BOTH. , #19 ) ;
#108 = UNCERTAINTY_MEASURE_WITH_UNIT (LENGTH_MEASURE( 1.000000000000000082E-05 ), #10, 'distance_accuracy_value', 'NONE');
#109 =( NAMED_UNIT ( * ) PLANE_ANGLE_UNIT ( ) SI_UNIT ( $, .RADIAN. ) );
#110 = DIRECTION ( 'NONE',  ( -0.000000000000000000, -1.000000000000000000, -0.000000000000000000 ) ) ;
#111 = ORIENTED_EDGE ( 'NONE', *, *, #274, .T. ) ;
#112 =( LENGTH_UNIT ( ) NAMED_UNIT ( * ) SI_UNIT ( $, .METRE. ) );
#113 = CARTESIAN_POINT ( 'NONE',  ( -1.224646799147353700E-16, 3.000000000000000444, 0.000000000000000000 ) ) ;
#114 = ORIENTED_EDGE ( 'NONE', *, *, #33, .F. ) ;
#115 = APPLICATION_PROTOCOL_DEFINITION ( 'draft international standard', 'automotive_design', 1998, #65 ) ;
#116 = ORIENTED_EDGE ( 'NONE', *, *, #274, .F. ) ;
#117 = CARTESIAN_POINT ( 'NONE',  ( 2.296212748401287726E-17, 0.000000000000000000, 0.1875000000000000278 ) ) ;
#118 = AXIS2_PLACEMENT_3D ( 'NONE', #192, #261, #69 ) ;
#119 = VERTEX_POINT ( 'NONE', #16 ) ;
#120 = CARTESIAN_POINT ( 'NONE',  ( 0.000000000000000000, 1.000000000000000000, 0.000000000000000000 ) ) ;
#121 = MECHANICAL_DESIGN_GEOMETRIC_PRESENTATION_REPRESENTATION (  '', ( #206 ), #197 ) ;
#122 = MANIFOLD_SOLID_BREP ( 'Revolve - Cutting Edge', #288 ) ;
#123 = DIRECTION ( 'NONE',  ( -1.000000000000000000, 0.000000000000000000, 0.000000000000000000 ) ) ;
#124 = AXIS2_PLACEMENT_3D ( 'NONE', #120, #2, #193 ) ;
#125 = FILL_AREA_STYLE ('',( #294 ) ) ;
#126 = SURFACE_STYLE_USAGE ( .BOTH. , #198 ) ;
#127 =( NAMED_UNIT ( * ) PLANE_ANGLE_UNIT ( ) SI_UNIT ( $, .RADIAN. ) );
#128 = MECHANICAL_DESIGN_GEOMETRIC_PRESENTATION_REPRESENTATION (  '', ( #167 ), #171 ) ;
#129 =( GEOMETRIC_REPRESENTATION_CONTEXT ( 3 ) GLOBAL_UNCERTAINTY_ASSIGNED_CONTEXT ( ( #158 ) ) GLOBAL_UNIT_ASSIGNED_CONTEXT ( ( #151, #109, #255 ) ) REPRESENTATION_CONTEXT ( 'NONE', 'WORKASPACE' ) );
#130 = DIRECTION ( 'NONE',  ( 0.000000000000000000, 0.000000000000000000, -1.000000000000000000 ) ) ;
#131 = CARTESIAN_POINT ( 'NONE',  ( 0.000000000000000000, 0.000000000000000000, 0.000000000000000000 ) ) ;
#132 = UNCERTAINTY_MEASURE_WITH_UNIT (LENGTH_MEASURE( 1.000000000000000082E-05 ), #264, 'distance_accuracy_value', 'NONE');
#133 = DIRECTION ( 'NONE',  ( 0.000000000000000000, -1.000000000000000000, -0.000000000000000000 ) ) ;
#134 = ORIENTED_EDGE ( 'NONE', *, *, #57, .F. ) ;
#135 = AXIS2_PLACEMENT_3D ( 'NONE', #76, #55, #296 ) ;
#136 = CIRCLE ( 'NONE', #307, 0.1875000000000001388 ) ;
#137 = PRESENTATION_STYLE_ASSIGNMENT (( #280 ) ) ;
#138 = ORIENTED_EDGE ( 'NONE', *, *, #260, .F. ) ;
#139 = ORIENTED_EDGE ( 'NONE', *, *, #33, .T. ) ;
#140 = STYLED_ITEM ( 'NONE', ( #233 ), #232 ) ;
#141 =( CONVERSION_BASED_UNIT ( 'INCH', #96 ) LENGTH_UNIT ( ) NAMED_UNIT ( #182 ) );
#142 = CARTESIAN_POINT ( 'NONE',  ( 3.032960542342103792E-32, 1.000000000000000000, 0.000000000000000000 ) ) ;
#143 = DIRECTION ( 'NONE',  ( -1.000000000000000000, 0.000000000000000000, 0.000000000000000000 ) ) ;
#144 = STYLED_ITEM ( 'NONE', ( #137 ), #178 ) ;
#145 = DIRECTION ( 'NONE',  ( 1.000000000000000000, 6.123233995736769734E-17, 0.000000000000000000 ) ) ;
#146 =( NAMED_UNIT ( * ) SI_UNIT ( $, .STERADIAN. ) SOLID_ANGLE_UNIT ( ) );
#147 = DIRECTION ( 'NONE',  ( 0.000000000000000000, 0.000000000000000000, -1.000000000000000000 ) ) ;
#148 = CIRCLE ( 'NONE', #135, 0.1875000000000001388 ) ;
#149 = PRESENTATION_LAYER_ASSIGNMENT (  '', '', ( #140 ) ) ;
#150 = LENGTH_MEASURE_WITH_UNIT ( LENGTH_MEASURE( 0.02539999999999999897 ), #169 );
#151 =( CONVERSION_BASED_UNIT ( 'INCH', #20 ) LENGTH_UNIT ( ) NAMED_UNIT ( #154 ) );
#152 = STYLED_ITEM ( 'NONE', ( #297 ), #122 ) ;
#153 = ORIENTED_EDGE ( 'NONE', *, *, #50, .F. ) ;
#154 = DIMENSIONAL_EXPONENTS ( 1.000000000000000000, 0.000000000000000000, 0.000000000000000000, 0.000000000000000000, 0.000000000000000000, 0.000000000000000000, 0.000000000000000000 ) ;
#155 = FACE_OUTER_BOUND ( 'NONE', #262, .T. ) ;
#156 = VERTEX_POINT ( 'NONE', #275 ) ;
#157 =( NAMED_UNIT ( * ) PLANE_ANGLE_UNIT ( ) SI_UNIT ( $, .RADIAN. ) );
#158 = UNCERTAINTY_MEASURE_WITH_UNIT (LENGTH_MEASURE( 1.000000000000000082E-05 ), #151, 'distance_accuracy_value', 'NONE');
#159 = CARTESIAN_POINT ( 'NONE',  ( -0.1875000000000002776, 3.000000000000000444, 0.000000000000000000 ) ) ;
#160 = ORIENTED_EDGE ( 'NONE', *, *, #45, .F. ) ;
#161 = LINE ( 'NONE', #242, #43 ) ;
#162 = AXIS2_PLACEMENT_3D ( 'NONE', #131, #61, #86 ) ;
#163 = CARTESIAN_POINT ( 'NONE',  ( 0.000000000000000000, 1.000000000000000000, 0.000000000000000000 ) ) ;
#164 = SURFACE_STYLE_FILL_AREA ( #106 ) ;
#165 = ADVANCED_FACE ( 'NONE', ( #52 ), #229, .T. ) ;
#166 = CARTESIAN_POINT ( 'NONE',  ( 3.032960542342103792E-32, 1.000000000000000000, 0.000000000000000000 ) ) ;
#167 = STYLED_ITEM ( 'NONE', ( #39 ), #62 ) ;
#168 = DIRECTION ( 'NONE',  ( -6.123233995736769734E-17, 1.000000000000000000, -0.000000000000000000 ) ) ;
#169 =( LENGTH_UNIT ( ) NAMED_UNIT ( * ) SI_UNIT ( $, .METRE. ) );
#170 = VECTOR ( 'NONE', #265, 39.37007874015748143 ) ;
#171 =( GEOMETRIC_REPRESENTATION_CONTEXT ( 3 ) GLOBAL_UNCERTAINTY_ASSIGNED_CONTEXT ( ( #228 ) ) GLOBAL_UNIT_ASSIGNED_CONTEXT ( ( #60, #101, #12 ) ) REPRESENTATION_CONTEXT ( 'NONE', 'WORKASPACE' ) );
#172 = PLANE ( 'NONE',  #56 ) ;
#173 = FILL_AREA_STYLE_COLOUR ( '', #35 ) ;
#174 = SURFACE_STYLE_FILL_AREA ( #195 ) ;
#175 = SURFACE_STYLE_FILL_AREA ( #42 ) ;
#176 = SURFACE_SIDE_STYLE ('',( #82 ) ) ;
#177 = AXIS2_PLACEMENT_3D ( 'NONE', #293, #227, #13 ) ;
#178 = ADVANCED_FACE ( 'NONE', ( #180 ), #276, .T. ) ;
#179 = DIMENSIONAL_EXPONENTS ( 1.000000000000000000, 0.000000000000000000, 0.000000000000000000, 0.000000000000000000, 0.000000000000000000, 0.000000000000000000, 0.000000000000000000 ) ;
#180 = FACE_OUTER_BOUND ( 'NONE', #26, .T. ) ;
#181 = ORIENTED_EDGE ( 'NONE', *, *, #285, .F. ) ;
#182 = DIMENSIONAL_EXPONENTS ( 1.000000000000000000, 0.000000000000000000, 0.000000000000000000, 0.000000000000000000, 0.000000000000000000, 0.000000000000000000, 0.000000000000000000 ) ;
#183 =( NAMED_UNIT ( * ) PLANE_ANGLE_UNIT ( ) SI_UNIT ( $, .RADIAN. ) );
#184 = PRODUCT_CONTEXT ( 'NONE', #49, 'mechanical' ) ;
#185 = ORIENTED_EDGE ( 'NONE', *, *, #74, .F. ) ;
#186 = DIRECTION ( 'NONE',  ( -1.000000000000000000, -6.123233995736769734E-17, 0.000000000000000000 ) ) ;
#187 =( NAMED_UNIT ( * ) PLANE_ANGLE_UNIT ( ) SI_UNIT ( $, .RADIAN. ) );
#188 = VERTEX_POINT ( 'NONE', #202 ) ;
#189 =( NAMED_UNIT ( * ) SI_UNIT ( $, .STERADIAN. ) SOLID_ANGLE_UNIT ( ) );
#190 = DIRECTION ( 'NONE',  ( -6.123233995736769734E-17, 1.000000000000000000, -0.000000000000000000 ) ) ;
#191 = VECTOR ( 'NONE', #221, 39.37007874015748143 ) ;
#192 = CARTESIAN_POINT ( 'NONE',  ( 0.000000000000000000, 1.000000000000000000, 0.000000000000000000 ) ) ;
#193 = DIRECTION ( 'NONE',  ( 0.000000000000000000, 0.000000000000000000, -1.000000000000000000 ) ) ;
#194 = CYLINDRICAL_SURFACE ( 'NONE', #177, 0.1875000000000000278 ) ;
#195 = FILL_AREA_STYLE ('',( #272 ) ) ;
#196 =( NAMED_UNIT ( * ) SI_UNIT ( $, .STERADIAN. ) SOLID_ANGLE_UNIT ( ) );
#197 =( GEOMETRIC_REPRESENTATION_CONTEXT ( 3 ) GLOBAL_UNCERTAINTY_ASSIGNED_CONTEXT ( ( #103 ) ) GLOBAL_UNIT_ASSIGNED_CONTEXT ( ( #99, #127, #196 ) ) REPRESENTATION_CONTEXT ( 'NONE', 'WORKASPACE' ) );
#198 = SURFACE_SIDE_STYLE ('',( #174 ) ) ;
#199 = CARTESIAN_POINT ( 'NONE',  ( 0.1875000000000000278, 1.000000000000000000, 2.296212748401288650E-17 ) ) ;
#200 = PRODUCT_DEFINITION_SHAPE ( 'NONE', 'NONE',  #220 ) ;
#201 = ADVANCED_FACE ( 'NONE', ( #155 ), #305, .T. ) ;
#202 = CARTESIAN_POINT ( 'NONE',  ( -0.1875000000000000278, 1.000000000000000000, 0.000000000000000000 ) ) ;
#203 = DIMENSIONAL_EXPONENTS ( 1.000000000000000000, 0.000000000000000000, 0.000000000000000000, 0.000000000000000000, 0.000000000000000000, 0.000000000000000000, 0.000000000000000000 ) ;
#204 = PRODUCT_DEFINITION_CONTEXT ( 'detailed design', #65, 'design' ) ;
#205 =( LENGTH_UNIT ( ) NAMED_UNIT ( * ) SI_UNIT ( $, .METRE. ) );
#206 = STYLED_ITEM ( 'NONE', ( #38 ), #165 ) ;
#207 = ORIENTED_EDGE ( 'NONE', *, *, #285, .T. ) ;
#208 = AXIS2_PLACEMENT_3D ( 'NONE', #257, #133, #68 ) ;
#209 = DIMENSIONAL_EXPONENTS ( 1.000000000000000000, 0.000000000000000000, 0.000000000000000000, 0.000000000000000000, 0.000000000000000000, 0.000000000000000000, 0.000000000000000000 ) ;
#210 =( CONVERSION_BASED_UNIT ( 'INCH', #23 ) LENGTH_UNIT ( ) NAMED_UNIT ( #66 ) );
#211 = ORIENTED_EDGE ( 'NONE', *, *, #81, .F. ) ;
#212 =( NAMED_UNIT ( * ) SI_UNIT ( $, .STERADIAN. ) SOLID_ANGLE_UNIT ( ) );
#213 = ORIENTED_EDGE ( 'NONE', *, *, #45, .T. ) ;
#214 = AXIS2_PLACEMENT_3D ( 'NONE', #163, #1, #7 ) ;
#215 = ORIENTED_EDGE ( 'NONE', *, *, #37, .T. ) ;
#216 = CARTESIAN_POINT ( 'NONE',  ( -1.224646799147353700E-16, 3.000000000000000444, 0.000000000000000000 ) ) ;
#217 = CARTESIAN_POINT ( 'NONE',  ( 0.1875000000000000278, 3.000000000000000444, 0.000000000000000000 ) ) ;
#218 =( GEOMETRIC_REPRESENTATION_CONTEXT ( 3 ) GLOBAL_UNCERTAINTY_ASSIGNED_CONTEXT ( ( #108 ) ) GLOBAL_UNIT_ASSIGNED_CONTEXT ( ( #10, #268, #146 ) ) REPRESENTATION_CONTEXT ( 'NONE', 'WORKASPACE' ) );
#219 = CIRCLE ( 'NONE', #162, 0.1875000000000000278 ) ;
#220 = PRODUCT_DEFINITION ( 'UNKNOWN', '', #271, #204 ) ;
#221 = DIRECTION ( 'NONE',  ( -0.000000000000000000, -1.000000000000000000, -0.000000000000000000 ) ) ;
#222 = LENGTH_MEASURE_WITH_UNIT ( LENGTH_MEASURE( 0.02539999999999999897 ), #249 );
#223 = DIMENSIONAL_EXPONENTS ( 1.000000000000000000, 0.000000000000000000, 0.000000000000000000, 0.000000000000000000, 0.000000000000000000, 0.000000000000000000, 0.000000000000000000 ) ;
#224 = PRESENTATION_LAYER_ASSIGNMENT (  '', '', ( #144 ) ) ;
#225 = CARTESIAN_POINT ( 'NONE',  ( 0.000000000000000000, 0.000000000000000000, 0.000000000000000000 ) ) ;
#226 = DIRECTION ( 'NONE',  ( -0.000000000000000000, -1.000000000000000000, -0.000000000000000000 ) ) ;
#227 = DIRECTION ( 'NONE',  ( -0.000000000000000000, -1.000000000000000000, -0.000000000000000000 ) ) ;
#228 = UNCERTAINTY_MEASURE_WITH_UNIT (LENGTH_MEASURE( 1.000000000000000082E-05 ), #60, 'distance_accuracy_value', 'NONE');
#229 = CYLINDRICAL_SURFACE ( 'NONE', #283, 0.1875000000000000278 ) ;
#230 = FACE_OUTER_BOUND ( 'NONE', #309, .T. ) ;
#231 = FILL_AREA_STYLE_COLOUR ( '', #246 ) ;
#232 = MANIFOLD_SOLID_BREP ( 'Revolve - Tool Body (Straight Shanked)', #253 ) ;
#233 = PRESENTATION_STYLE_ASSIGNMENT (( #25 ) ) ;
#234 = COLOUR_RGB ( '',1.000000000000000000, 0.000000000000000000, 0.000000000000000000 ) ;
#235 = VERTEX_POINT ( 'NONE', #18 ) ;
#236 = MECHANICAL_DESIGN_GEOMETRIC_PRESENTATION_REPRESENTATION (  '', ( #144 ), #129 ) ;
#237 = DIRECTION ( 'NONE',  ( 0.000000000000000000, 0.000000000000000000, 1.000000000000000000 ) ) ;
#238 = VERTEX_POINT ( 'NONE', #199 ) ;
#239 = VERTEX_POINT ( 'NONE', #117 ) ;
#240 =( LENGTH_UNIT ( ) NAMED_UNIT ( * ) SI_UNIT ( $, .METRE. ) );
#241 = ORIENTED_EDGE ( 'NONE', *, *, #252, .F. ) ;
#242 = CARTESIAN_POINT ( 'NONE',  ( 0.1874999999999999445, 3.000000000000000444, 2.296212748401288342E-17 ) ) ;
#243 = EDGE_LOOP ( 'NONE', ( #28, #213 ) ) ;
#244 =( NAMED_UNIT ( * ) SI_UNIT ( $, .STERADIAN. ) SOLID_ANGLE_UNIT ( ) );
#245 = PRODUCT ( '05307', '05307', '', ( #184 ) ) ;
#246 = COLOUR_RGB ( '',1.000000000000000000, 0.000000000000000000, 0.000000000000000000 ) ;
#247 = FACE_OUTER_BOUND ( 'NONE', #259, .T. ) ;
#248 = SURFACE_SIDE_STYLE ('',( #14 ) ) ;
#249 =( LENGTH_UNIT ( ) NAMED_UNIT ( * ) SI_UNIT ( $, .METRE. ) );
#250 = FACE_OUTER_BOUND ( 'NONE', #256, .T. ) ;
#251 = LINE ( 'NONE', #73, #3 ) ;
#252 = EDGE_CURVE ( 'NONE', #302, #48, #136, .T. ) ;
#253 = CLOSED_SHELL ( 'NONE', ( #27, #85, #201, #9 ) ) ;
#254 = STYLED_ITEM ( 'NONE', ( #64 ), #295 ) ;
#255 =( NAMED_UNIT ( * ) SI_UNIT ( $, .STERADIAN. ) SOLID_ANGLE_UNIT ( ) );
#256 = EDGE_LOOP ( 'NONE', ( #111, #286, #181, #211 ) ) ;
#257 = CARTESIAN_POINT ( 'NONE',  ( 0.000000000000000000, 0.000000000000000000, 0.000000000000000000 ) ) ;
#258 = ORIENTED_EDGE ( 'NONE', *, *, #260, .T. ) ;
#259 = EDGE_LOOP ( 'NONE', ( #139, #258, #241, #134 ) ) ;
#260 = EDGE_CURVE ( 'NONE', #238, #48, #161, .T. ) ;
#261 = DIRECTION ( 'NONE',  ( 0.000000000000000000, 1.000000000000000000, 0.000000000000000000 ) ) ;
#262 = EDGE_LOOP ( 'NONE', ( #138, #46, #308, #160 ) ) ;
#263 = CIRCLE ( 'NONE', #104, 0.1875000000000000278 ) ;
#264 =( CONVERSION_BASED_UNIT ( 'INCH', #304 ) LENGTH_UNIT ( ) NAMED_UNIT ( #209 ) );
#265 = DIRECTION ( 'NONE',  ( -0.000000000000000000, -1.000000000000000000, -0.000000000000000000 ) ) ;
#266 = PLANE ( 'NONE',  #306 ) ;
#267 = SURFACE_STYLE_USAGE ( .BOTH. , #29 ) ;
#268 =( NAMED_UNIT ( * ) PLANE_ANGLE_UNIT ( ) SI_UNIT ( $, .RADIAN. ) );
#269 = DIRECTION ( 'NONE',  ( -6.123233995736769734E-17, 1.000000000000000000, 0.000000000000000000 ) ) ;
#270 = MECHANICAL_DESIGN_GEOMETRIC_PRESENTATION_REPRESENTATION (  '', ( #152 ), #218 ) ;
#271 = PRODUCT_DEFINITION_FORMATION_WITH_SPECIFIED_SOURCE ( 'ANY', '', #245, .NOT_KNOWN. ) ;
#272 = FILL_AREA_STYLE_COLOUR ( '', #234 ) ;
#273 =( LENGTH_UNIT ( ) NAMED_UNIT ( * ) SI_UNIT ( $, .METRE. ) );
#274 = EDGE_CURVE ( 'NONE', #235, #119, #6, .T. ) ;
#275 = CARTESIAN_POINT ( 'NONE',  ( 0.000000000000000000, 0.000000000000000000, -0.1875000000000000278 ) ) ;
#276 = PLANE ( 'NONE',  #208 ) ;
#277 = PRESENTATION_LAYER_ASSIGNMENT (  '', '', ( #167 ) ) ;
#278 = PLANE ( 'NONE',  #118 ) ;
#279 =( LENGTH_UNIT ( ) NAMED_UNIT ( * ) SI_UNIT ( $, .METRE. ) );
#280 = SURFACE_STYLE_USAGE ( .BOTH. , #299 ) ;
#281 = CARTESIAN_POINT ( 'NONE',  ( 0.000000000000000000, 0.000000000000000000, 0.000000000000000000 ) ) ;
#282 = DIRECTION ( 'NONE',  ( 1.000000000000000000, 0.000000000000000000, 0.000000000000000000 ) ) ;
#283 = AXIS2_PLACEMENT_3D ( 'NONE', #281, #110, #130 ) ;
#284 =( GEOMETRIC_REPRESENTATION_CONTEXT ( 3 ) GLOBAL_UNCERTAINTY_ASSIGNED_CONTEXT ( ( #132 ) ) GLOBAL_UNIT_ASSIGNED_CONTEXT ( ( #264, #157, #189 ) ) REPRESENTATION_CONTEXT ( 'NONE', 'WORKASPACE' ) );
#285 = EDGE_CURVE ( 'NONE', #156, #239, #219, .T. ) ;
#286 = ORIENTED_EDGE ( 'NONE', *, *, #74, .T. ) ;
#287 = DIRECTION ( 'NONE',  ( -6.123233995736769734E-17, 1.000000000000000000, -0.000000000000000000 ) ) ;
#288 = CLOSED_SHELL ( 'NONE', ( #62, #295, #165, #178 ) ) ;
#289 = MECHANICAL_DESIGN_GEOMETRIC_PRESENTATION_REPRESENTATION (  '', ( #140 ), #105 ) ;
#290 = APPLICATION_PROTOCOL_DEFINITION ( 'draft international standard', 'automotive_design', 1998, #49 ) ;
#291 = DIRECTION ( 'NONE',  ( 6.123233995736769734E-17, -1.000000000000000000, 0.000000000000000000 ) ) ;
#292 = PRESENTATION_LAYER_ASSIGNMENT (  '', '', ( #254 ) ) ;
#293 = CARTESIAN_POINT ( 'NONE',  ( 0.000000000000000000, 0.000000000000000000, 0.000000000000000000 ) ) ;
#294 = FILL_AREA_STYLE_COLOUR ( '', #77 ) ;
#295 = ADVANCED_FACE ( 'NONE', ( #230 ), #278, .T. ) ;
#296 = DIRECTION ( 'NONE',  ( -1.000000000000000000, 0.000000000000000000, 0.000000000000000000 ) ) ;
#297 = PRESENTATION_STYLE_ASSIGNMENT (( #267 ) ) ;
#298 = FILL_AREA_STYLE_COLOUR ( '', #97 ) ;
#299 = SURFACE_SIDE_STYLE ('',( #175 ) ) ;
#300 = FILL_AREA_STYLE_COLOUR ( '', #11 ) ;
#301 = CARTESIAN_POINT ( 'NONE',  ( -1.224646799147353700E-16, 3.000000000000000444, 0.000000000000000000 ) ) ;
#302 = VERTEX_POINT ( 'NONE', #159 ) ;
#303 = DIRECTION ( 'NONE',  ( -6.123233995736769734E-17, 1.000000000000000000, -0.000000000000000000 ) ) ;
#304 = LENGTH_MEASURE_WITH_UNIT ( LENGTH_MEASURE( 0.02539999999999999897 ), #240 );
#305 = CYLINDRICAL_SURFACE ( 'NONE', #78, 0.1875000000000000833 ) ;
#306 = AXIS2_PLACEMENT_3D ( 'NONE', #217, #291, #145 ) ;
#307 = AXIS2_PLACEMENT_3D ( 'NONE', #113, #70, #143 ) ;
#308 = ORIENTED_EDGE ( 'NONE', *, *, #57, .T. ) ;
#309 = EDGE_LOOP ( 'NONE', ( #116, #95 ) ) ;
ENDSEC;
END-ISO-10303-21;
