ISO-10303-21;
HEADER;
FILE_DESCRIPTION (( 'STEP AP214' ),
    '1' );
FILE_NAME ('59750.STEP',
    '2023-07-24T15:55:57',
    ( '' ),
    ( '' ),
    'SwSTEP 2.0',
    'SolidWorks 2023',
    '' );
FILE_SCHEMA (( 'AUTOMOTIVE_DESIGN' ));
ENDSEC;

DATA;
#1 = STYLED_ITEM ( 'NONE', ( #115 ), #277 ) ;
#2 = DIRECTION ( 'NONE',  ( -0.000000000000000000, -1.000000000000000000, -0.000000000000000000 ) ) ;
#3 = DIRECTION ( 'NONE',  ( -0.000000000000000000, -1.000000000000000000, -0.000000000000000000 ) ) ;
#4 = SURFACE_SIDE_STYLE ('',( #33 ) ) ;
#5 = SURFACE_SIDE_STYLE ('',( #132 ) ) ;
#6 = SURFACE_STYLE_USAGE ( .BOTH. , #4 ) ;
#7 = PRODUCT_DEFINITION_CONTEXT ( 'detailed design', #9, 'design' ) ;
#8 = CARTESIAN_POINT ( 'NONE',  ( 0.000000000000000000, 32.00000000000000000, -8.000000000000000000 ) ) ;
#9 = APPLICATION_CONTEXT ( 'automotive_design' ) ;
#10 = LINE ( 'NONE', #258, #197 ) ;
#11 = PRESENTATION_LAYER_ASSIGNMENT (  '', '', ( #94 ) ) ;
#12 = SURFACE_STYLE_USAGE ( .BOTH. , #221 ) ;
#13 = CARTESIAN_POINT ( 'NONE',  ( 0.000000000000000000, 0.000000000000000000, 0.000000000000000000 ) ) ;
#14 = CARTESIAN_POINT ( 'NONE',  ( -1.714505518806293849E-15, 89.00000000000000000, 0.000000000000000000 ) ) ;
#15 = MECHANICAL_DESIGN_GEOMETRIC_PRESENTATION_REPRESENTATION (  '', ( #1 ), #20 ) ;
#16 = FACE_OUTER_BOUND ( 'NONE', #137, .T. ) ;
#17 = EDGE_CURVE ( 'NONE', #209, #187, #136, .T. ) ;
#18 = AXIS2_PLACEMENT_3D ( 'NONE', #61, #211, #195 ) ;
#19 = ORIENTED_EDGE ( 'NONE', *, *, #150, .T. ) ;
#20 =( GEOMETRIC_REPRESENTATION_CONTEXT ( 3 ) GLOBAL_UNCERTAINTY_ASSIGNED_CONTEXT ( ( #149 ) ) GLOBAL_UNIT_ASSIGNED_CONTEXT ( ( #163, #68, #245 ) ) REPRESENTATION_CONTEXT ( 'NONE', 'WORKASPACE' ) );
#21 = CARTESIAN_POINT ( 'NONE',  ( -1.714505518806293849E-15, 89.00000000000000000, 0.000000000000000000 ) ) ;
#22 = ADVANCED_FACE ( 'NONE', ( #237 ), #219, .T. ) ;
#23 = UNCERTAINTY_MEASURE_WITH_UNIT (LENGTH_MEASURE( 1.000000000000000082E-05 ), #128, 'distance_accuracy_value', 'NONE');
#24 = ORIENTED_EDGE ( 'NONE', *, *, #37, .T. ) ;
#25 = VECTOR ( 'NONE', #2, 1000.000000000000000 ) ;
#26 = AXIS2_PLACEMENT_3D ( 'NONE', #278, #196, #113 ) ;
#27 = ORIENTED_EDGE ( 'NONE', *, *, #176, .F. ) ;
#28 = FACE_OUTER_BOUND ( 'NONE', #260, .T. ) ;
#29 = ORIENTED_EDGE ( 'NONE', *, *, #261, .F. ) ;
#30 = ADVANCED_FACE ( 'NONE', ( #109 ), #168, .T. ) ;
#31 = DIRECTION ( 'NONE',  ( -3.007904418958410489E-17, 1.000000000000000000, -0.000000000000000000 ) ) ;
#32 =( NAMED_UNIT ( * ) SI_UNIT ( $, .STERADIAN. ) SOLID_ANGLE_UNIT ( ) );
#33 = SURFACE_STYLE_FILL_AREA ( #270 ) ;
#34 = AXIS2_PLACEMENT_3D ( 'NONE', #153, #3, #255 ) ;
#35 = FILL_AREA_STYLE_COLOUR ( '', #127 ) ;
#36 =( GEOMETRIC_REPRESENTATION_CONTEXT ( 3 ) GLOBAL_UNCERTAINTY_ASSIGNED_CONTEXT ( ( #239 ) ) GLOBAL_UNIT_ASSIGNED_CONTEXT ( ( #199, #69, #167 ) ) REPRESENTATION_CONTEXT ( 'NONE', 'WORKASPACE' ) );
#37 = EDGE_CURVE ( 'NONE', #179, #172, #186, .T. ) ;
#38 = CARTESIAN_POINT ( 'NONE',  ( 0.000000000000000000, 0.000000000000000000, -8.000000000000000000 ) ) ;
#39 = DIRECTION ( 'NONE',  ( -3.007904418958410489E-17, 1.000000000000000000, -0.000000000000000000 ) ) ;
#40 =( GEOMETRIC_REPRESENTATION_CONTEXT ( 3 ) GLOBAL_UNCERTAINTY_ASSIGNED_CONTEXT ( ( #62 ) ) GLOBAL_UNIT_ASSIGNED_CONTEXT ( ( #233, #134, #110 ) ) REPRESENTATION_CONTEXT ( 'NONE', 'WORKASPACE' ) );
#41 = AXIS2_PLACEMENT_3D ( 'NONE', #91, #280, #71 ) ;
#42 = FILL_AREA_STYLE_COLOUR ( '', #274 ) ;
#43 = EDGE_CURVE ( 'NONE', #172, #151, #100, .T. ) ;
#44 = ORIENTED_EDGE ( 'NONE', *, *, #268, .T. ) ;
#45 = DIRECTION ( 'NONE',  ( 0.000000000000000000, 0.000000000000000000, 1.000000000000000000 ) ) ;
#46 = CIRCLE ( 'NONE', #41, 8.000000000000000000 ) ;
#47 = PRODUCT_CONTEXT ( 'NONE', #201, 'mechanical' ) ;
#48 = CARTESIAN_POINT ( 'NONE',  ( 0.000000000000000000, 32.00000000000000000, 0.000000000000000000 ) ) ;
#49 = ORIENTED_EDGE ( 'NONE', *, *, #261, .T. ) ;
#50 = ADVANCED_FACE ( 'NONE', ( #230 ), #78, .T. ) ;
#51 = DIRECTION ( 'NONE',  ( -3.007904418958410489E-17, 1.000000000000000000, -0.000000000000000000 ) ) ;
#52 = AXIS2_PLACEMENT_3D ( 'NONE', #48, #145, #206 ) ;
#53 = AXIS2_PLACEMENT_3D ( 'NONE', #143, #45, #120 ) ;
#54 = UNCERTAINTY_MEASURE_WITH_UNIT (LENGTH_MEASURE( 1.000000000000000082E-05 ), #262, 'distance_accuracy_value', 'NONE');
#55 = SURFACE_STYLE_FILL_AREA ( #267 ) ;
#56 = FILL_AREA_STYLE_COLOUR ( '', #146 ) ;
#57 = CARTESIAN_POINT ( 'NONE',  ( 9.797174393178825657E-16, 32.00000000000000000, 8.000000000000000000 ) ) ;
#58 = MECHANICAL_DESIGN_GEOMETRIC_PRESENTATION_REPRESENTATION (  '', ( #154 ), #40 ) ;
#59 = AXIS2_PLACEMENT_3D ( 'NONE', #173, #214, #272 ) ;
#60 = ORIENTED_EDGE ( 'NONE', *, *, #236, .T. ) ;
#61 = CARTESIAN_POINT ( 'NONE',  ( -1.714505518806293849E-15, 89.00000000000000000, 0.000000000000000000 ) ) ;
#62 = UNCERTAINTY_MEASURE_WITH_UNIT (LENGTH_MEASURE( 1.000000000000000082E-05 ), #233, 'distance_accuracy_value', 'NONE');
#63 = ORIENTED_EDGE ( 'NONE', *, *, #93, .T. ) ;
#64 = CYLINDRICAL_SURFACE ( 'NONE', #234, 8.000000000000000000 ) ;
#65 = FILL_AREA_STYLE_COLOUR ( '', #67 ) ;
#66 = MECHANICAL_DESIGN_GEOMETRIC_PRESENTATION_REPRESENTATION (  '', ( #94 ), #169 ) ;
#67 = COLOUR_RGB ( '',0.7921568627450980005, 0.8196078431372548767, 0.9333333333333333481 ) ;
#68 =( NAMED_UNIT ( * ) PLANE_ANGLE_UNIT ( ) SI_UNIT ( $, .RADIAN. ) );
#69 =( NAMED_UNIT ( * ) PLANE_ANGLE_UNIT ( ) SI_UNIT ( $, .RADIAN. ) );
#70 = LINE ( 'NONE', #38, #210 ) ;
#71 = DIRECTION ( 'NONE',  ( 0.000000000000000000, 0.000000000000000000, -1.000000000000000000 ) ) ;
#72 =( NAMED_UNIT ( * ) PLANE_ANGLE_UNIT ( ) SI_UNIT ( $, .RADIAN. ) );
#73 = SURFACE_STYLE_USAGE ( .BOTH. , #114 ) ;
#74 = ORIENTED_EDGE ( 'NONE', *, *, #37, .F. ) ;
#75 = COLOUR_RGB ( '',1.000000000000000000, 0.000000000000000000, 0.000000000000000000 ) ;
#76 = SHAPE_DEFINITION_REPRESENTATION ( #284, #200 ) ;
#77 =( NAMED_UNIT ( * ) SI_UNIT ( $, .STERADIAN. ) SOLID_ANGLE_UNIT ( ) );
#78 = CYLINDRICAL_SURFACE ( 'NONE', #161, 8.000000000000000000 ) ;
#79 = MECHANICAL_DESIGN_GEOMETRIC_PRESENTATION_REPRESENTATION (  '', ( #288 ), #90 ) ;
#80 = FILL_AREA_STYLE ('',( #56 ) ) ;
#81 = CYLINDRICAL_SURFACE ( 'NONE', #273, 8.000000000000000000 ) ;
#82 = EDGE_LOOP ( 'NONE', ( #204, #188 ) ) ;
#83 = CARTESIAN_POINT ( 'NONE',  ( 8.000000000000000000, 32.00000000000000000, 9.797174393178825657E-16 ) ) ;
#84 = CIRCLE ( 'NONE', #18, 8.000000000000001776 ) ;
#85 = ORIENTED_EDGE ( 'NONE', *, *, #224, .T. ) ;
#86 = PRESENTATION_STYLE_ASSIGNMENT (( #6 ) ) ;
#87 = UNCERTAINTY_MEASURE_WITH_UNIT (LENGTH_MEASURE( 1.000000000000000082E-05 ), #88, 'distance_accuracy_value', 'NONE');
#88 =( LENGTH_UNIT ( ) NAMED_UNIT ( * ) SI_UNIT ( .MILLI., .METRE. ) );
#89 = CARTESIAN_POINT ( 'NONE',  ( 9.797174393178825657E-16, 0.000000000000000000, 8.000000000000000000 ) ) ;
#90 =( GEOMETRIC_REPRESENTATION_CONTEXT ( 3 ) GLOBAL_UNCERTAINTY_ASSIGNED_CONTEXT ( ( #23 ) ) GLOBAL_UNIT_ASSIGNED_CONTEXT ( ( #128, #103, #275 ) ) REPRESENTATION_CONTEXT ( 'NONE', 'WORKASPACE' ) );
#91 = CARTESIAN_POINT ( 'NONE',  ( 0.000000000000000000, 32.00000000000000000, 0.000000000000000000 ) ) ;
#92 = CARTESIAN_POINT ( 'NONE',  ( 8.000000000000000000, 89.00000000000000000, 9.797174393178825657E-16 ) ) ;
#93 = EDGE_CURVE ( 'NONE', #172, #179, #217, .T. ) ;
#94 = STYLED_ITEM ( 'NONE', ( #183 ), #30 ) ;
#95 = MANIFOLD_SOLID_BREP ( 'Revolve - Cutting Edge', #283 ) ;
#96 = STYLED_ITEM ( 'NONE', ( #241 ), #253 ) ;
#97 = AXIS2_PLACEMENT_3D ( 'NONE', #13, #220, #141 ) ;
#98 = ORIENTED_EDGE ( 'NONE', *, *, #43, .T. ) ;
#99 = APPLICATION_PROTOCOL_DEFINITION ( 'draft international standard', 'automotive_design', 1998, #201 ) ;
#100 = LINE ( 'NONE', #184, #202 ) ;
#101 = CARTESIAN_POINT ( 'NONE',  ( 0.000000000000000000, 32.00000000000000000, 0.000000000000000000 ) ) ;
#102 = DIRECTION ( 'NONE',  ( -0.000000000000000000, -1.000000000000000000, -0.000000000000000000 ) ) ;
#103 =( NAMED_UNIT ( * ) PLANE_ANGLE_UNIT ( ) SI_UNIT ( $, .RADIAN. ) );
#104 = SURFACE_STYLE_USAGE ( .BOTH. , #254 ) ;
#105 = EDGE_LOOP ( 'NONE', ( #231, #170, #44, #159 ) ) ;
#106 = FACE_OUTER_BOUND ( 'NONE', #126, .T. ) ;
#107 = PRESENTATION_LAYER_ASSIGNMENT (  '', '', ( #229 ) ) ;
#108 = EDGE_CURVE ( 'NONE', #121, #209, #158, .T. ) ;
#109 = FACE_OUTER_BOUND ( 'NONE', #142, .T. ) ;
#110 =( NAMED_UNIT ( * ) SI_UNIT ( $, .STERADIAN. ) SOLID_ANGLE_UNIT ( ) );
#111 = PLANE ( 'NONE',  #248 ) ;
#112 = MECHANICAL_DESIGN_GEOMETRIC_PRESENTATION_REPRESENTATION (  '', ( #229 ), #140 ) ;
#113 = DIRECTION ( 'NONE',  ( 0.000000000000000000, 0.000000000000000000, -1.000000000000000000 ) ) ;
#114 = SURFACE_SIDE_STYLE ('',( #55 ) ) ;
#115 = PRESENTATION_STYLE_ASSIGNMENT (( #12 ) ) ;
#116 = FILL_AREA_STYLE ('',( #42 ) ) ;
#117 = APPLICATION_PROTOCOL_DEFINITION ( 'draft international standard', 'automotive_design', 1998, #9 ) ;
#118 = VERTEX_POINT ( 'NONE', #8 ) ;
#119 = COLOUR_RGB ( '',1.000000000000000000, 0.000000000000000000, 0.000000000000000000 ) ;
#120 = DIRECTION ( 'NONE',  ( 1.000000000000000000, 0.000000000000000000, 0.000000000000000000 ) ) ;
#121 = VERTEX_POINT ( 'NONE', #57 ) ;
#122 = ADVANCED_FACE ( 'NONE', ( #28 ), #64, .T. ) ;
#123 = DIRECTION ( 'NONE',  ( -3.007904418958410489E-17, 1.000000000000000000, -0.000000000000000000 ) ) ;
#124 = ADVANCED_FACE ( 'NONE', ( #106 ), #81, .T. ) ;
#125 = DIRECTION ( 'NONE',  ( -1.000000000000000000, 0.000000000000000000, 0.000000000000000000 ) ) ;
#126 = EDGE_LOOP ( 'NONE', ( #60, #235, #27, #263 ) ) ;
#127 = COLOUR_RGB ( '',1.000000000000000000, 0.000000000000000000, 0.000000000000000000 ) ;
#128 =( LENGTH_UNIT ( ) NAMED_UNIT ( * ) SI_UNIT ( .MILLI., .METRE. ) );
#129 = PRESENTATION_LAYER_ASSIGNMENT (  '', '', ( #96 ) ) ;
#130 = ORIENTED_EDGE ( 'NONE', *, *, #150, .F. ) ;
#131 = CARTESIAN_POINT ( 'NONE',  ( -8.000000000000000000, 32.00000000000000000, 0.000000000000000000 ) ) ;
#132 = SURFACE_STYLE_FILL_AREA ( #276 ) ;
#133 = UNCERTAINTY_MEASURE_WITH_UNIT (LENGTH_MEASURE( 1.000000000000000082E-05 ), #285, 'distance_accuracy_value', 'NONE');
#134 =( NAMED_UNIT ( * ) PLANE_ANGLE_UNIT ( ) SI_UNIT ( $, .RADIAN. ) );
#135 = AXIS2_PLACEMENT_3D ( 'NONE', #101, #250, #269 ) ;
#136 = CIRCLE ( 'NONE', #34, 8.000000000000000000 ) ;
#137 = EDGE_LOOP ( 'NONE', ( #246, #74 ) ) ;
#138 = CARTESIAN_POINT ( 'NONE',  ( 8.000000000000000000, 89.00000000000000000, 0.000000000000000000 ) ) ;
#139 = SURFACE_SIDE_STYLE ('',( #178 ) ) ;
#140 =( GEOMETRIC_REPRESENTATION_CONTEXT ( 3 ) GLOBAL_UNCERTAINTY_ASSIGNED_CONTEXT ( ( #87 ) ) GLOBAL_UNIT_ASSIGNED_CONTEXT ( ( #88, #157, #32 ) ) REPRESENTATION_CONTEXT ( 'NONE', 'WORKASPACE' ) );
#141 = DIRECTION ( 'NONE',  ( 0.000000000000000000, 0.000000000000000000, -1.000000000000000000 ) ) ;
#142 = EDGE_LOOP ( 'NONE', ( #185, #191 ) ) ;
#143 = CARTESIAN_POINT ( 'NONE',  ( 0.000000000000000000, 0.000000000000000000, 0.000000000000000000 ) ) ;
#144 = MECHANICAL_DESIGN_GEOMETRIC_PRESENTATION_REPRESENTATION (  '', ( #96 ), #36 ) ;
#145 = DIRECTION ( 'NONE',  ( 0.000000000000000000, 1.000000000000000000, 0.000000000000000000 ) ) ;
#146 = COLOUR_RGB ( '',0.7921568627450980005, 0.8196078431372548767, 0.9333333333333333481 ) ;
#147 = DIRECTION ( 'NONE',  ( -3.007904418958410489E-17, 1.000000000000000000, -0.000000000000000000 ) ) ;
#148 = CARTESIAN_POINT ( 'NONE',  ( 9.797174393178825657E-16, 0.000000000000000000, 8.000000000000000000 ) ) ;
#149 = UNCERTAINTY_MEASURE_WITH_UNIT (LENGTH_MEASURE( 1.000000000000000082E-05 ), #163, 'distance_accuracy_value', 'NONE');
#150 = EDGE_CURVE ( 'NONE', #151, #249, #84, .T. ) ;
#151 = VERTEX_POINT ( 'NONE', #171 ) ;
#152 = DIRECTION ( 'NONE',  ( -0.000000000000000000, -1.000000000000000000, -0.000000000000000000 ) ) ;
#153 = CARTESIAN_POINT ( 'NONE',  ( 0.000000000000000000, 0.000000000000000000, 0.000000000000000000 ) ) ;
#154 = STYLED_ITEM ( 'NONE', ( #86 ), #124 ) ;
#155 = PRESENTATION_STYLE_ASSIGNMENT (( #104 ) ) ;
#156 = DIRECTION ( 'NONE',  ( 0.000000000000000000, 0.000000000000000000, -1.000000000000000000 ) ) ;
#157 =( NAMED_UNIT ( * ) PLANE_ANGLE_UNIT ( ) SI_UNIT ( $, .RADIAN. ) );
#158 = LINE ( 'NONE', #148, #25 ) ;
#159 = ORIENTED_EDGE ( 'NONE', *, *, #17, .F. ) ;
#160 = DIRECTION ( 'NONE',  ( -1.000000000000000000, 0.000000000000000000, 0.000000000000000000 ) ) ;
#161 = AXIS2_PLACEMENT_3D ( 'NONE', #21, #123, #208 ) ;
#162 = SURFACE_STYLE_USAGE ( .BOTH. , #139 ) ;
#163 =( LENGTH_UNIT ( ) NAMED_UNIT ( * ) SI_UNIT ( .MILLI., .METRE. ) );
#164 = PLANE ( 'NONE',  #226 ) ;
#165 = AXIS2_PLACEMENT_3D ( 'NONE', #174, #102, #156 ) ;
#166 = AXIS2_PLACEMENT_3D ( 'NONE', #14, #39, #160 ) ;
#167 =( NAMED_UNIT ( * ) SI_UNIT ( $, .STERADIAN. ) SOLID_ANGLE_UNIT ( ) );
#168 = PLANE ( 'NONE',  #52 ) ;
#169 =( GEOMETRIC_REPRESENTATION_CONTEXT ( 3 ) GLOBAL_UNCERTAINTY_ASSIGNED_CONTEXT ( ( #54 ) ) GLOBAL_UNIT_ASSIGNED_CONTEXT ( ( #262, #228, #287 ) ) REPRESENTATION_CONTEXT ( 'NONE', 'WORKASPACE' ) );
#170 = ORIENTED_EDGE ( 'NONE', *, *, #207, .T. ) ;
#171 = CARTESIAN_POINT ( 'NONE',  ( -8.000000000000003553, 89.00000000000000000, 0.000000000000000000 ) ) ;
#172 = VERTEX_POINT ( 'NONE', #131 ) ;
#173 = CARTESIAN_POINT ( 'NONE',  ( 0.000000000000000000, 0.000000000000000000, 0.000000000000000000 ) ) ;
#174 = CARTESIAN_POINT ( 'NONE',  ( 0.000000000000000000, 0.000000000000000000, 0.000000000000000000 ) ) ;
#175 = DIRECTION ( 'NONE',  ( -3.007904418958410489E-17, 1.000000000000000000, -0.000000000000000000 ) ) ;
#176 = EDGE_CURVE ( 'NONE', #187, #209, #192, .T. ) ;
#177 = DIRECTION ( 'NONE',  ( 1.000000000000000000, 3.007904418958410489E-17, 0.000000000000000000 ) ) ;
#178 = SURFACE_STYLE_FILL_AREA ( #116 ) ;
#179 = VERTEX_POINT ( 'NONE', #83 ) ;
#180 = PRODUCT_DEFINITION ( 'UNKNOWN', '', #194, #7 ) ;
#181 = PRESENTATION_LAYER_ASSIGNMENT (  '', '', ( #154 ) ) ;
#182 =( GEOMETRIC_REPRESENTATION_CONTEXT ( 3 ) GLOBAL_UNCERTAINTY_ASSIGNED_CONTEXT ( ( #133 ) ) GLOBAL_UNIT_ASSIGNED_CONTEXT ( ( #285, #72, #77 ) ) REPRESENTATION_CONTEXT ( 'NONE', 'WORKASPACE' ) );
#183 = PRESENTATION_STYLE_ASSIGNMENT (( #73 ) ) ;
#184 = CARTESIAN_POINT ( 'NONE',  ( -8.000000000000001776, 89.00000000000000000, 0.000000000000000000 ) ) ;
#185 = ORIENTED_EDGE ( 'NONE', *, *, #236, .F. ) ;
#186 = CIRCLE ( 'NONE', #259, 8.000000000000000000 ) ;
#187 = VERTEX_POINT ( 'NONE', #252 ) ;
#188 = ORIENTED_EDGE ( 'NONE', *, *, #17, .T. ) ;
#189 = SURFACE_STYLE_USAGE ( .BOTH. , #5 ) ;
#190 = FILL_AREA_STYLE_COLOUR ( '', #75 ) ;
#191 = ORIENTED_EDGE ( 'NONE', *, *, #207, .F. ) ;
#192 = CIRCLE ( 'NONE', #59, 8.000000000000000000 ) ;
#193 = DIRECTION ( 'NONE',  ( 0.000000000000000000, 0.000000000000000000, -1.000000000000000000 ) ) ;
#194 = PRODUCT_DEFINITION_FORMATION_WITH_SPECIFIED_SOURCE ( 'ANY', '', #212, .NOT_KNOWN. ) ;
#195 = DIRECTION ( 'NONE',  ( -1.000000000000000000, 0.000000000000000000, 0.000000000000000000 ) ) ;
#196 = DIRECTION ( 'NONE',  ( -0.000000000000000000, -1.000000000000000000, -0.000000000000000000 ) ) ;
#197 = VECTOR ( 'NONE', #175, 1000.000000000000000 ) ;
#198 = FACE_OUTER_BOUND ( 'NONE', #82, .T. ) ;
#199 =( LENGTH_UNIT ( ) NAMED_UNIT ( * ) SI_UNIT ( .MILLI., .METRE. ) );
#200 = ADVANCED_BREP_SHAPE_REPRESENTATION ( '59750', ( #95, #277, #53 ), #182 ) ;
#201 = APPLICATION_CONTEXT ( 'automotive_design' ) ;
#202 = VECTOR ( 'NONE', #147, 1000.000000000000000 ) ;
#203 = CARTESIAN_POINT ( 'NONE',  ( 3.618995597435813748E-33, 32.00000000000000000, 0.000000000000000000 ) ) ;
#204 = ORIENTED_EDGE ( 'NONE', *, *, #176, .T. ) ;
#205 = DIRECTION ( 'NONE',  ( -1.000000000000000000, -3.007904418958410489E-17, 0.000000000000000000 ) ) ;
#206 = DIRECTION ( 'NONE',  ( 0.000000000000000000, -0.000000000000000000, 1.000000000000000000 ) ) ;
#207 = EDGE_CURVE ( 'NONE', #121, #118, #223, .T. ) ;
#208 = DIRECTION ( 'NONE',  ( -1.000000000000000000, 0.000000000000000000, 0.000000000000000000 ) ) ;
#209 = VERTEX_POINT ( 'NONE', #89 ) ;
#210 = VECTOR ( 'NONE', #279, 1000.000000000000000 ) ;
#211 = DIRECTION ( 'NONE',  ( -3.007904418958410489E-17, 1.000000000000000000, -0.000000000000000000 ) ) ;
#212 = PRODUCT ( '59750', '59750', '', ( #47 ) ) ;
#213 = EDGE_LOOP ( 'NONE', ( #63, #49, #130, #215 ) ) ;
#214 = DIRECTION ( 'NONE',  ( -0.000000000000000000, -1.000000000000000000, -0.000000000000000000 ) ) ;
#215 = ORIENTED_EDGE ( 'NONE', *, *, #43, .F. ) ;
#216 = CARTESIAN_POINT ( 'NONE',  ( 0.000000000000000000, 0.000000000000000000, 0.000000000000000000 ) ) ;
#217 = CIRCLE ( 'NONE', #135, 8.000000000000000000 ) ;
#218 = SURFACE_STYLE_FILL_AREA ( #80 ) ;
#219 = CYLINDRICAL_SURFACE ( 'NONE', #165, 8.000000000000000000 ) ;
#220 = DIRECTION ( 'NONE',  ( 0.000000000000000000, -1.000000000000000000, -0.000000000000000000 ) ) ;
#221 = SURFACE_SIDE_STYLE ('',( #243 ) ) ;
#222 = CLOSED_SHELL ( 'NONE', ( #50, #282, #122, #264 ) ) ;
#223 = CIRCLE ( 'NONE', #26, 8.000000000000000000 ) ;
#224 = EDGE_CURVE ( 'NONE', #249, #151, #244, .T. ) ;
#225 = PRESENTATION_LAYER_ASSIGNMENT (  '', '', ( #288 ) ) ;
#226 = AXIS2_PLACEMENT_3D ( 'NONE', #203, #265, #205 ) ;
#227 = PRODUCT_RELATED_PRODUCT_CATEGORY ( 'part', '', ( #212 ) ) ;
#228 =( NAMED_UNIT ( * ) PLANE_ANGLE_UNIT ( ) SI_UNIT ( $, .RADIAN. ) );
#229 = STYLED_ITEM ( 'NONE', ( #271 ), #22 ) ;
#230 = FACE_OUTER_BOUND ( 'NONE', #213, .T. ) ;
#231 = ORIENTED_EDGE ( 'NONE', *, *, #108, .F. ) ;
#232 = ORIENTED_EDGE ( 'NONE', *, *, #224, .F. ) ;
#233 =( LENGTH_UNIT ( ) NAMED_UNIT ( * ) SI_UNIT ( .MILLI., .METRE. ) );
#234 = AXIS2_PLACEMENT_3D ( 'NONE', #238, #31, #125 ) ;
#235 = ORIENTED_EDGE ( 'NONE', *, *, #108, .T. ) ;
#236 = EDGE_CURVE ( 'NONE', #118, #121, #46, .T. ) ;
#237 = FACE_OUTER_BOUND ( 'NONE', #105, .T. ) ;
#238 = CARTESIAN_POINT ( 'NONE',  ( -1.714505518806293849E-15, 89.00000000000000000, 0.000000000000000000 ) ) ;
#239 = UNCERTAINTY_MEASURE_WITH_UNIT (LENGTH_MEASURE( 1.000000000000000082E-05 ), #199, 'distance_accuracy_value', 'NONE');
#240 = FILL_AREA_STYLE_COLOUR ( '', #119 ) ;
#241 = PRESENTATION_STYLE_ASSIGNMENT (( #162 ) ) ;
#242 = PLANE ( 'NONE',  #97 ) ;
#243 = SURFACE_STYLE_FILL_AREA ( #257 ) ;
#244 = CIRCLE ( 'NONE', #166, 8.000000000000001776 ) ;
#245 =( NAMED_UNIT ( * ) SI_UNIT ( $, .STERADIAN. ) SOLID_ANGLE_UNIT ( ) );
#246 = ORIENTED_EDGE ( 'NONE', *, *, #93, .F. ) ;
#247 = CARTESIAN_POINT ( 'NONE',  ( 0.000000000000000000, 32.00000000000000000, 0.000000000000000000 ) ) ;
#248 = AXIS2_PLACEMENT_3D ( 'NONE', #138, #281, #177 ) ;
#249 = VERTEX_POINT ( 'NONE', #92 ) ;
#250 = DIRECTION ( 'NONE',  ( -3.007904418958410489E-17, 1.000000000000000000, -0.000000000000000000 ) ) ;
#251 = EDGE_LOOP ( 'NONE', ( #19, #85 ) ) ;
#252 = CARTESIAN_POINT ( 'NONE',  ( 0.000000000000000000, 0.000000000000000000, -8.000000000000000000 ) ) ;
#253 = ADVANCED_FACE ( 'NONE', ( #198 ), #242, .T. ) ;
#254 = SURFACE_SIDE_STYLE ('',( #218 ) ) ;
#255 = DIRECTION ( 'NONE',  ( 0.000000000000000000, 0.000000000000000000, -1.000000000000000000 ) ) ;
#256 = FACE_OUTER_BOUND ( 'NONE', #251, .T. ) ;
#257 = FILL_AREA_STYLE ('',( #65 ) ) ;
#258 = CARTESIAN_POINT ( 'NONE',  ( 7.999999999999998224, 89.00000000000000000, 9.797174393178825657E-16 ) ) ;
#259 = AXIS2_PLACEMENT_3D ( 'NONE', #247, #51, #286 ) ;
#260 = EDGE_LOOP ( 'NONE', ( #29, #24, #98, #232 ) ) ;
#261 = EDGE_CURVE ( 'NONE', #179, #249, #10, .T. ) ;
#262 =( LENGTH_UNIT ( ) NAMED_UNIT ( * ) SI_UNIT ( .MILLI., .METRE. ) );
#263 = ORIENTED_EDGE ( 'NONE', *, *, #268, .F. ) ;
#264 = ADVANCED_FACE ( 'NONE', ( #256 ), #111, .F. ) ;
#265 = DIRECTION ( 'NONE',  ( -3.007904418958410489E-17, 1.000000000000000000, 0.000000000000000000 ) ) ;
#266 = PRESENTATION_LAYER_ASSIGNMENT (  '', '', ( #1 ) ) ;
#267 = FILL_AREA_STYLE ('',( #35 ) ) ;
#268 = EDGE_CURVE ( 'NONE', #118, #187, #70, .T. ) ;
#269 = DIRECTION ( 'NONE',  ( -1.000000000000000000, 0.000000000000000000, 0.000000000000000000 ) ) ;
#270 = FILL_AREA_STYLE ('',( #190 ) ) ;
#271 = PRESENTATION_STYLE_ASSIGNMENT (( #189 ) ) ;
#272 = DIRECTION ( 'NONE',  ( 0.000000000000000000, 0.000000000000000000, -1.000000000000000000 ) ) ;
#273 = AXIS2_PLACEMENT_3D ( 'NONE', #216, #152, #193 ) ;
#274 = COLOUR_RGB ( '',1.000000000000000000, 0.000000000000000000, 0.000000000000000000 ) ;
#275 =( NAMED_UNIT ( * ) SI_UNIT ( $, .STERADIAN. ) SOLID_ANGLE_UNIT ( ) );
#276 = FILL_AREA_STYLE ('',( #240 ) ) ;
#277 = MANIFOLD_SOLID_BREP ( 'Revolve - Tool Body (Straight Shanked)', #222 ) ;
#278 = CARTESIAN_POINT ( 'NONE',  ( 0.000000000000000000, 32.00000000000000000, 0.000000000000000000 ) ) ;
#279 = DIRECTION ( 'NONE',  ( -0.000000000000000000, -1.000000000000000000, -0.000000000000000000 ) ) ;
#280 = DIRECTION ( 'NONE',  ( -0.000000000000000000, -1.000000000000000000, -0.000000000000000000 ) ) ;
#281 = DIRECTION ( 'NONE',  ( 3.007904418958410489E-17, -1.000000000000000000, 0.000000000000000000 ) ) ;
#282 = ADVANCED_FACE ( 'NONE', ( #16 ), #164, .F. ) ;
#283 = CLOSED_SHELL ( 'NONE', ( #124, #30, #22, #253 ) ) ;
#284 = PRODUCT_DEFINITION_SHAPE ( 'NONE', 'NONE',  #180 ) ;
#285 =( LENGTH_UNIT ( ) NAMED_UNIT ( * ) SI_UNIT ( .MILLI., .METRE. ) );
#286 = DIRECTION ( 'NONE',  ( -1.000000000000000000, 0.000000000000000000, 0.000000000000000000 ) ) ;
#287 =( NAMED_UNIT ( * ) SI_UNIT ( $, .STERADIAN. ) SOLID_ANGLE_UNIT ( ) );
#288 = STYLED_ITEM ( 'NONE', ( #155 ), #95 ) ;
ENDSEC;
END-ISO-10303-21;
