ISO-10303-21;
HEADER;
FILE_DESCRIPTION (( 'STEP AP214' ),
    '1' );
FILE_NAME ('Micro_SFL-125-42.STEP',
    '2021-09-02T04:40:35',
    ( '' ),
    ( '' ),
    'SwSTEP 2.0',
    'SolidWorks 2020',
    '' );
FILE_SCHEMA (( 'AUTOMOTIVE_DESIGN' ));
ENDSEC;

DATA;
#1 = CARTESIAN_POINT ( 'NONE',  ( 3.061616997868383018E-17, 0.0000000000000000000, 0.2500000000000000000 ) ) ;
#2 = FACE_OUTER_BOUND ( 'NONE', #8, .T. ) ;
#3 = AXIS2_PLACEMENT_3D ( 'NONE', #66, #117, #259 ) ;
#4 = EDGE_CURVE ( 'NONE', #91, #288, #143, .T. ) ;
#5 = ORIENTED_EDGE ( 'NONE', *, *, #294, .T. ) ;
#6 = CIRCLE ( 'NONE', #164, 0.1250000000000000000 ) ;
#7 = EDGE_CURVE ( 'NONE', #209, #170, #11, .T. ) ;
#8 = EDGE_LOOP ( 'NONE', ( #213, #94, #240, #96 ) ) ;
#9 = DIRECTION ( 'NONE',  ( 1.000000000000000000, 0.0000000000000000000, 0.0000000000000000000 ) ) ;
#10 = ORIENTED_EDGE ( 'NONE', *, *, #206, .F. ) ;
#11 = CIRCLE ( 'NONE', #43, 0.06243749999999999994 ) ;
#12 = CIRCLE ( 'NONE', #90, 0.06243750000000001382 ) ;
#13 = PRODUCT_DEFINITION_FORMATION_WITH_SPECIFIED_SOURCE ( 'ANY', '', #133, .NOT_KNOWN. ) ;
#14 =( CONVERSION_BASED_UNIT ( 'INCH', #137 ) LENGTH_UNIT ( ) NAMED_UNIT ( #123 ) );
#15 = EDGE_CURVE ( 'NONE', #209, #118, #19, .T. ) ;
#16 = CYLINDRICAL_SURFACE ( 'NONE', #138, 0.06243750000000001382 ) ;
#17 = ADVANCED_BREP_SHAPE_REPRESENTATION ( 'Micro_SFL-125-42', ( #233, #93 ), #212 ) ;
#18 = CARTESIAN_POINT ( 'NONE',  ( 0.0000000000000000000, 0.0000000000000000000, 0.0000000000000000000 ) ) ;
#19 = LINE ( 'NONE', #130, #58 ) ;
#20 = PLANE ( 'NONE',  #269 ) ;
#21 = DIRECTION ( 'NONE',  ( -0.7071067811865434649, 0.0000000000000000000, -0.7071067811865515695 ) ) ;
#22 = FACE_OUTER_BOUND ( 'NONE', #32, .T. ) ;
#23 = FILL_AREA_STYLE ('',( #64 ) ) ;
#24 = PRODUCT_DEFINITION_CONTEXT ( 'detailed design', #195, 'design' ) ;
#25 = FACE_OUTER_BOUND ( 'NONE', #262, .T. ) ;
#26 = SHAPE_DEFINITION_REPRESENTATION ( #219, #17 ) ;
#27 = FILL_AREA_STYLE_COLOUR ( '', #192 ) ;
#28 = CARTESIAN_POINT ( 'NONE',  ( 0.06243750000000003464, 0.0000000000000000000, 0.2500000000000000000 ) ) ;
#29 = CARTESIAN_POINT ( 'NONE',  ( 0.0000000000000000000, 0.0000000000000000000, 0.0000000000000000000 ) ) ;
#30 = VECTOR ( 'NONE', #264, 39.37007874015748143 ) ;
#31 = EDGE_CURVE ( 'NONE', #53, #92, #56, .T. ) ;
#32 = EDGE_LOOP ( 'NONE', ( #120, #238 ) ) ;
#33 = CIRCLE ( 'NONE', #48, 0.1099999999999996397 ) ;
#34 = CIRCLE ( 'NONE', #68, 0.1099999999999996397 ) ;
#35 = ORIENTED_EDGE ( 'NONE', *, *, #160, .F. ) ;
#36 = ADVANCED_FACE ( 'NONE', ( #249 ), #103, .T. ) ;
#37 = DIRECTION ( 'NONE',  ( 0.0000000000000000000, 0.0000000000000000000, 1.000000000000000000 ) ) ;
#38 = CARTESIAN_POINT ( 'NONE',  ( 9.364125142994975765E-34, 0.0000000000000000000, 7.646388452176288915E-18 ) ) ;
#39 = CARTESIAN_POINT ( 'NONE',  ( -0.1099999999999996397, 0.0000000000000000000, 2.000000000000000000 ) ) ;
#40 = DIRECTION ( 'NONE',  ( -1.224646799147353207E-16, -0.0000000000000000000, -1.000000000000000000 ) ) ;
#41 =( NAMED_UNIT ( * ) PLANE_ANGLE_UNIT ( ) SI_UNIT ( $, .RADIAN. ) );
#42 = CYLINDRICAL_SURFACE ( 'NONE', #127, 0.06243750000000001382 ) ;
#43 = AXIS2_PLACEMENT_3D ( 'NONE', #65, #40, #196 ) ;
#44 = CARTESIAN_POINT ( 'NONE',  ( 0.06243750000000001382, 7.646388452176288915E-18, 0.0000000000000000000 ) ) ;
#45 = EDGE_CURVE ( 'NONE', #118, #122, #12, .T. ) ;
#46 = DIRECTION ( 'NONE',  ( 1.000000000000000000, 0.0000000000000000000, 0.0000000000000000000 ) ) ;
#47 =( LENGTH_UNIT ( ) NAMED_UNIT ( * ) SI_UNIT ( $, .METRE. ) );
#48 = AXIS2_PLACEMENT_3D ( 'NONE', #102, #136, #275 ) ;
#49 = EDGE_CURVE ( 'NONE', #91, #53, #234, .T. ) ;
#50 = ORIENTED_EDGE ( 'NONE', *, *, #45, .F. ) ;
#51 = ORIENTED_EDGE ( 'NONE', *, *, #4, .T. ) ;
#52 = CARTESIAN_POINT ( 'NONE',  ( 0.0000000000000000000, 0.0000000000000000000, 2.000000000000000000 ) ) ;
#53 = VERTEX_POINT ( 'NONE', #296 ) ;
#54 = DIRECTION ( 'NONE',  ( -1.224646799147353207E-16, -0.0000000000000000000, -1.000000000000000000 ) ) ;
#55 =( LENGTH_UNIT ( ) NAMED_UNIT ( * ) SI_UNIT ( $, .METRE. ) );
#56 = LINE ( 'NONE', #270, #211 ) ;
#57 = DIRECTION ( 'NONE',  ( -1.224646799147353207E-16, -0.0000000000000000000, -1.000000000000000000 ) ) ;
#58 = VECTOR ( 'NONE', #181, 39.37007874015748143 ) ;
#59 = APPLICATION_PROTOCOL_DEFINITION ( 'draft international standard', 'automotive_design', 1998, #185 ) ;
#60 = CARTESIAN_POINT ( 'NONE',  ( -0.06243750000000001382, 0.0000000000000000000, 1.529277690435257783E-17 ) ) ;
#61 = DIRECTION ( 'NONE',  ( 1.000000000000000000, 0.0000000000000000000, 0.0000000000000000000 ) ) ;
#62 = EDGE_CURVE ( 'NONE', #53, #91, #177, .T. ) ;
#63 = DIRECTION ( 'NONE',  ( -1.224646799147353207E-16, -0.0000000000000000000, -1.000000000000000000 ) ) ;
#64 = FILL_AREA_STYLE_COLOUR ( '', #107 ) ;
#65 = CARTESIAN_POINT ( 'NONE',  ( 3.061616997868383018E-17, 0.0000000000000000000, 0.2500000000000000000 ) ) ;
#66 = CARTESIAN_POINT ( 'NONE',  ( 7.406781025733896371E-17, 0.0000000000000000000, 0.6048095688398309466 ) ) ;
#67 =( NAMED_UNIT ( * ) SI_UNIT ( $, .STERADIAN. ) SOLID_ANGLE_UNIT ( ) );
#68 = AXIS2_PLACEMENT_3D ( 'NONE', #193, #221, #61 ) ;
#69 = ADVANCED_FACE ( 'NONE', ( #22 ), #20, .T. ) ;
#70 = ADVANCED_FACE ( 'NONE', ( #217 ), #16, .T. ) ;
#71 = VECTOR ( 'NONE', #21, 39.37007874015748143 ) ;
#72 = CARTESIAN_POINT ( 'NONE',  ( 9.364125142994975765E-34, 0.0000000000000000000, 7.646388452176288915E-18 ) ) ;
#73 = EDGE_LOOP ( 'NONE', ( #258, #5, #203, #189 ) ) ;
#74 = VERTEX_POINT ( 'NONE', #176 ) ;
#75 = AXIS2_PLACEMENT_3D ( 'NONE', #148, #244, #194 ) ;
#76 = EDGE_CURVE ( 'NONE', #170, #288, #109, .T. ) ;
#77 = ORIENTED_EDGE ( 'NONE', *, *, #160, .T. ) ;
#78 = ORIENTED_EDGE ( 'NONE', *, *, #168, .F. ) ;
#79 = ORIENTED_EDGE ( 'NONE', *, *, #15, .T. ) ;
#80 = AXIS2_PLACEMENT_3D ( 'NONE', #222, #273, #175 ) ;
#81 = EDGE_LOOP ( 'NONE', ( #283, #79, #124, #35 ) ) ;
#82 = CARTESIAN_POINT ( 'NONE',  ( -0.06243749999999997219, 1.147723672075910277E-17, 0.2500000000000000000 ) ) ;
#83 = PRESENTATION_STYLE_ASSIGNMENT (( #114 ) ) ;
#84 = DIRECTION ( 'NONE',  ( 0.0000000000000000000, 0.0000000000000000000, -1.000000000000000000 ) ) ;
#85 = CARTESIAN_POINT ( 'NONE',  ( 0.0000000000000000000, 0.0000000000000000000, 2.000000000000000000 ) ) ;
#86 = DIRECTION ( 'NONE',  ( -1.224646799147353207E-16, -0.0000000000000000000, -1.000000000000000000 ) ) ;
#87 = LENGTH_MEASURE_WITH_UNIT ( LENGTH_MEASURE( 0.02539999999999999897 ), #280 );
#88 = CARTESIAN_POINT ( 'NONE',  ( -0.06243750000000001382, 0.0000000000000000000, 7.646388452176288915E-18 ) ) ;
#89 = SURFACE_SIDE_STYLE ('',( #167 ) ) ;
#90 = AXIS2_PLACEMENT_3D ( 'NONE', #38, #151, #295 ) ;
#91 = VERTEX_POINT ( 'NONE', #201 ) ;
#92 = VERTEX_POINT ( 'NONE', #250 ) ;
#93 = AXIS2_PLACEMENT_3D ( 'NONE', #29, #115, #46 ) ;
#94 = ORIENTED_EDGE ( 'NONE', *, *, #31, .T. ) ;
#95 = CARTESIAN_POINT ( 'NONE',  ( -0.1099999999999996397, 0.0000000000000000000, 2.000000000000000000 ) ) ;
#96 = ORIENTED_EDGE ( 'NONE', *, *, #4, .F. ) ;
#97 = FACE_OUTER_BOUND ( 'NONE', #73, .T. ) ;
#98 = ADVANCED_FACE ( 'NONE', ( #128 ), #42, .T. ) ;
#99 = ORIENTED_EDGE ( 'NONE', *, *, #45, .T. ) ;
#100 = CIRCLE ( 'NONE', #75, 0.06243749999999999994 ) ;
#101 = FACE_OUTER_BOUND ( 'NONE', #147, .T. ) ;
#102 = CARTESIAN_POINT ( 'NONE',  ( 0.0000000000000000000, 0.0000000000000000000, 2.000000000000000000 ) ) ;
#103 = CYLINDRICAL_SURFACE ( 'NONE', #80, 0.1250000000000000000 ) ;
#104 = DIRECTION ( 'NONE',  ( 0.1736481776669313859, 0.0000000000000000000, 0.9848077530122077983 ) ) ;
#105 = DIRECTION ( 'NONE',  ( 1.000000000000000000, 0.0000000000000000000, 0.0000000000000000000 ) ) ;
#106 = CONICAL_SURFACE ( 'NONE', #227, 0.1099999999999996397, 0.7853981633974426169 ) ;
#107 = COLOUR_RGB ( '',0.7921568627450980005, 0.8196078431372548767, 0.9333333333333333481 ) ;
#108 = LINE ( 'NONE', #243, #30 ) ;
#109 = LINE ( 'NONE', #292, #183 ) ;
#110 = DIRECTION ( 'NONE',  ( 1.224646799147353207E-16, 0.0000000000000000000, 1.000000000000000000 ) ) ;
#111 = PRODUCT_RELATED_PRODUCT_CATEGORY ( 'part', '', ( #133 ) ) ;
#112 = ORIENTED_EDGE ( 'NONE', *, *, #279, .T. ) ;
#113 = FILL_AREA_STYLE ('',( #27 ) ) ;
#114 = SURFACE_STYLE_USAGE ( .BOTH. , #89 ) ;
#115 = DIRECTION ( 'NONE',  ( 0.0000000000000000000, 0.0000000000000000000, 1.000000000000000000 ) ) ;
#116 = CIRCLE ( 'NONE', #159, 0.06243750000000001382 ) ;
#117 = DIRECTION ( 'NONE',  ( -1.224646799147353207E-16, -0.0000000000000000000, -1.000000000000000000 ) ) ;
#118 = VERTEX_POINT ( 'NONE', #44 ) ;
#119 = EDGE_CURVE ( 'NONE', #214, #74, #33, .T. ) ;
#120 = ORIENTED_EDGE ( 'NONE', *, *, #119, .T. ) ;
#121 = ORIENTED_EDGE ( 'NONE', *, *, #119, .F. ) ;
#122 = VERTEX_POINT ( 'NONE', #60 ) ;
#123 = DIMENSIONAL_EXPONENTS ( 1.000000000000000000, 0.0000000000000000000, 0.0000000000000000000, 0.0000000000000000000, 0.0000000000000000000, 0.0000000000000000000, 0.0000000000000000000 ) ;
#124 = ORIENTED_EDGE ( 'NONE', *, *, #223, .F. ) ;
#125 = UNCERTAINTY_MEASURE_WITH_UNIT (LENGTH_MEASURE( 1.000000000000000082E-05 ), #161, 'distance_accuracy_value', 'NONE');
#126 = DIRECTION ( 'NONE',  ( -0.0000000000000000000, -0.0000000000000000000, -1.000000000000000000 ) ) ;
#127 = AXIS2_PLACEMENT_3D ( 'NONE', #297, #86, #252 ) ;
#128 = FACE_OUTER_BOUND ( 'NONE', #81, .T. ) ;
#129 = DIRECTION ( 'NONE',  ( -1.000000000000000000, 0.0000000000000000000, 0.0000000000000000000 ) ) ;
#130 = CARTESIAN_POINT ( 'NONE',  ( 0.06243750000000001382, 7.646388452176288915E-18, -7.646388452176288915E-18 ) ) ;
#131 = ADVANCED_FACE ( 'NONE', ( #25 ), #208, .T. ) ;
#132 = CARTESIAN_POINT ( 'NONE',  ( 0.0000000000000000000, 0.0000000000000000000, 1.984999999999999432 ) ) ;
#133 = PRODUCT ( 'Micro_SFL-125-42', 'Micro_SFL-125-42', '', ( #139 ) ) ;
#134 =( GEOMETRIC_REPRESENTATION_CONTEXT ( 3 ) GLOBAL_UNCERTAINTY_ASSIGNED_CONTEXT ( ( #125 ) ) GLOBAL_UNIT_ASSIGNED_CONTEXT ( ( #161, #255, #67 ) ) REPRESENTATION_CONTEXT ( 'NONE', 'WORKASPACE' ) );
#135 = LENGTH_MEASURE_WITH_UNIT ( LENGTH_MEASURE( 0.02539999999999999897 ), #55 );
#136 = DIRECTION ( 'NONE',  ( 0.0000000000000000000, 0.0000000000000000000, 1.000000000000000000 ) ) ;
#137 = LENGTH_MEASURE_WITH_UNIT ( LENGTH_MEASURE( 0.02539999999999999897 ), #47 );
#138 = AXIS2_PLACEMENT_3D ( 'NONE', #272, #63, #154 ) ;
#139 = PRODUCT_CONTEXT ( 'NONE', #185, 'mechanical' ) ;
#140 = DIRECTION ( 'NONE',  ( 1.000000000000000000, 0.0000000000000000000, 0.0000000000000000000 ) ) ;
#141 = ORIENTED_EDGE ( 'NONE', *, *, #15, .F. ) ;
#142 = CYLINDRICAL_SURFACE ( 'NONE', #276, 0.1250000000000000000 ) ;
#143 = LINE ( 'NONE', #158, #144 ) ;
#144 = VECTOR ( 'NONE', #197, 39.37007874015748143 ) ;
#145 = ORIENTED_EDGE ( 'NONE', *, *, #279, .F. ) ;
#146 = AXIS2_PLACEMENT_3D ( 'NONE', #132, #229, #226 ) ;
#147 = EDGE_LOOP ( 'NONE', ( #265, #121, #169, #236 ) ) ;
#148 = CARTESIAN_POINT ( 'NONE',  ( 3.061616997868383018E-17, 0.0000000000000000000, 0.2500000000000000000 ) ) ;
#149 = CARTESIAN_POINT ( 'NONE',  ( 0.0000000000000000000, 0.0000000000000000000, 2.000000000000000000 ) ) ;
#150 = CARTESIAN_POINT ( 'NONE',  ( 0.06243750000000003464, 0.0000000000000000000, 0.2500000000000000000 ) ) ;
#151 = DIRECTION ( 'NONE',  ( -1.224646799147353207E-16, -0.0000000000000000000, -1.000000000000000000 ) ) ;
#152 = DIRECTION ( 'NONE',  ( -1.000000000000000000, 0.0000000000000000000, 1.224646799147353207E-16 ) ) ;
#153 = MECHANICAL_DESIGN_GEOMETRIC_PRESENTATION_REPRESENTATION (  '', ( #246 ), #178 ) ;
#154 = DIRECTION ( 'NONE',  ( -1.000000000000000000, 0.0000000000000000000, 1.224646799147353207E-16 ) ) ;
#155 =( NAMED_UNIT ( * ) SI_UNIT ( $, .STERADIAN. ) SOLID_ANGLE_UNIT ( ) );
#156 = DIRECTION ( 'NONE',  ( -0.1736481776669311916, 2.126576849575783316E-17, 0.9848077530122080203 ) ) ;
#157 =( NAMED_UNIT ( * ) SI_UNIT ( $, .STERADIAN. ) SOLID_ANGLE_UNIT ( ) );
#158 = CARTESIAN_POINT ( 'NONE',  ( -0.1250000000000000000, 0.0000000000000000000, 2.000000000000000000 ) ) ;
#159 = AXIS2_PLACEMENT_3D ( 'NONE', #72, #57, #152 ) ;
#160 = EDGE_CURVE ( 'NONE', #170, #122, #298, .T. ) ;
#161 =( CONVERSION_BASED_UNIT ( 'INCH', #87 ) LENGTH_UNIT ( ) NAMED_UNIT ( #173 ) );
#162 = DIRECTION ( 'NONE',  ( 1.224646799147353207E-16, 0.0000000000000000000, 1.000000000000000000 ) ) ;
#163 = ORIENTED_EDGE ( 'NONE', *, *, #76, .F. ) ;
#164 = AXIS2_PLACEMENT_3D ( 'NONE', #266, #54, #140 ) ;
#165 = AXIS2_PLACEMENT_3D ( 'NONE', #52, #224, #129 ) ;
#166 = ORIENTED_EDGE ( 'NONE', *, *, #199, .T. ) ;
#167 = SURFACE_STYLE_FILL_AREA ( #113 ) ;
#168 = EDGE_CURVE ( 'NONE', #170, #209, #100, .T. ) ;
#169 = ORIENTED_EDGE ( 'NONE', *, *, #285, .T. ) ;
#170 = VERTEX_POINT ( 'NONE', #82 ) ;
#171 = CARTESIAN_POINT ( 'NONE',  ( -0.1249999999999999306, 0.0000000000000000000, 0.6048095688398309466 ) ) ;
#172 = ORIENTED_EDGE ( 'NONE', *, *, #206, .T. ) ;
#173 = DIMENSIONAL_EXPONENTS ( 1.000000000000000000, 0.0000000000000000000, 0.0000000000000000000, 0.0000000000000000000, 0.0000000000000000000, 0.0000000000000000000, 0.0000000000000000000 ) ;
#174 = FACE_OUTER_BOUND ( 'NONE', #282, .T. ) ;
#175 = DIRECTION ( 'NONE',  ( -1.000000000000000000, 0.0000000000000000000, 0.0000000000000000000 ) ) ;
#176 = CARTESIAN_POINT ( 'NONE',  ( 0.1099999999999996397, 1.438959988998137757E-17, 2.000000000000000000 ) ) ;
#177 = CIRCLE ( 'NONE', #146, 0.1250000000000000000 ) ;
#178 =( GEOMETRIC_REPRESENTATION_CONTEXT ( 3 ) GLOBAL_UNCERTAINTY_ASSIGNED_CONTEXT ( ( #205 ) ) GLOBAL_UNIT_ASSIGNED_CONTEXT ( ( #14, #41, #157 ) ) REPRESENTATION_CONTEXT ( 'NONE', 'WORKASPACE' ) );
#179 = DIRECTION ( 'NONE',  ( 1.000000000000000000, 0.0000000000000000000, -0.0000000000000000000 ) ) ;
#180 = ADVANCED_FACE ( 'NONE', ( #268 ), #281, .T. ) ;
#181 = DIRECTION ( 'NONE',  ( -1.224646799147353207E-16, -0.0000000000000000000, -1.000000000000000000 ) ) ;
#182 = DIRECTION ( 'NONE',  ( -1.224646799147353207E-16, -0.0000000000000000000, -1.000000000000000000 ) ) ;
#183 = VECTOR ( 'NONE', #156, 39.37007874015747433 ) ;
#184 = SURFACE_STYLE_USAGE ( .BOTH. , #291 ) ;
#185 = APPLICATION_CONTEXT ( 'automotive_design' ) ;
#186 = ADVANCED_FACE ( 'NONE', ( #97 ), #106, .T. ) ;
#187 = VECTOR ( 'NONE', #182, 39.37007874015748143 ) ;
#188 = EDGE_LOOP ( 'NONE', ( #290, #237, #51, #10 ) ) ;
#189 = ORIENTED_EDGE ( 'NONE', *, *, #285, .F. ) ;
#190 = EDGE_LOOP ( 'NONE', ( #78, #261, #166, #145 ) ) ;
#191 = SURFACE_STYLE_FILL_AREA ( #23 ) ;
#192 = COLOUR_RGB ( '',0.7921568627450980005, 0.8196078431372548767, 0.9333333333333333481 ) ;
#193 = CARTESIAN_POINT ( 'NONE',  ( 0.0000000000000000000, 0.0000000000000000000, 2.000000000000000000 ) ) ;
#194 = DIRECTION ( 'NONE',  ( -1.000000000000000000, 0.0000000000000000000, 0.0000000000000000000 ) ) ;
#195 = APPLICATION_CONTEXT ( 'automotive_design' ) ;
#196 = DIRECTION ( 'NONE',  ( -1.000000000000000000, 0.0000000000000000000, 0.0000000000000000000 ) ) ;
#197 = DIRECTION ( 'NONE',  ( -0.0000000000000000000, -0.0000000000000000000, -1.000000000000000000 ) ) ;
#198 = VECTOR ( 'NONE', #104, 39.37007874015748143 ) ;
#199 = EDGE_CURVE ( 'NONE', #288, #92, #263, .T. ) ;
#200 = DIRECTION ( 'NONE',  ( 1.000000000000000000, 0.0000000000000000000, -0.0000000000000000000 ) ) ;
#201 = CARTESIAN_POINT ( 'NONE',  ( -0.1250000000000000000, 0.0000000000000000000, 1.984999999999999432 ) ) ;
#202 = DIRECTION ( 'NONE',  ( 1.000000000000000000, 0.0000000000000000000, 0.0000000000000000000 ) ) ;
#203 = ORIENTED_EDGE ( 'NONE', *, *, #49, .F. ) ;
#204 = PRESENTATION_LAYER_ASSIGNMENT (  '', '', ( #239 ) ) ;
#205 = UNCERTAINTY_MEASURE_WITH_UNIT (LENGTH_MEASURE( 1.000000000000000082E-05 ), #14, 'distance_accuracy_value', 'NONE');
#206 = EDGE_CURVE ( 'NONE', #92, #288, #6, .T. ) ;
#207 = AXIS2_PLACEMENT_3D ( 'NONE', #247, #110, #202 ) ;
#208 = CONICAL_SURFACE ( 'NONE', #207, 0.06243749999999999994, 0.1745329251994338915 ) ;
#209 = VERTEX_POINT ( 'NONE', #28 ) ;
#210 = ORIENTED_EDGE ( 'NONE', *, *, #7, .T. ) ;
#211 = VECTOR ( 'NONE', #126, 39.37007874015748143 ) ;
#212 =( GEOMETRIC_REPRESENTATION_CONTEXT ( 3 ) GLOBAL_UNCERTAINTY_ASSIGNED_CONTEXT ( ( #225 ) ) GLOBAL_UNIT_ASSIGNED_CONTEXT ( ( #228, #248, #155 ) ) REPRESENTATION_CONTEXT ( 'NONE', 'WORKASPACE' ) );
#213 = ORIENTED_EDGE ( 'NONE', *, *, #49, .T. ) ;
#214 = VERTEX_POINT ( 'NONE', #95 ) ;
#215 = PRODUCT_DEFINITION ( 'UNKNOWN', '', #13, #24 ) ;
#216 = LINE ( 'NONE', #150, #198 ) ;
#217 = FACE_OUTER_BOUND ( 'NONE', #284, .T. ) ;
#218 = CARTESIAN_POINT ( 'NONE',  ( 0.0000000000000000000, 0.0000000000000000000, 1.984999999999999432 ) ) ;
#219 = PRODUCT_DEFINITION_SHAPE ( 'NONE', 'NONE',  #215 ) ;
#220 = DIRECTION ( 'NONE',  ( 0.0000000000000000000, 0.0000000000000000000, -1.000000000000000000 ) ) ;
#221 = DIRECTION ( 'NONE',  ( 0.0000000000000000000, 0.0000000000000000000, 1.000000000000000000 ) ) ;
#222 = CARTESIAN_POINT ( 'NONE',  ( 0.0000000000000000000, 0.0000000000000000000, 2.000000000000000000 ) ) ;
#223 = EDGE_CURVE ( 'NONE', #122, #118, #116, .T. ) ;
#224 = DIRECTION ( 'NONE',  ( 0.0000000000000000000, 0.0000000000000000000, -1.000000000000000000 ) ) ;
#225 = UNCERTAINTY_MEASURE_WITH_UNIT (LENGTH_MEASURE( 1.000000000000000082E-05 ), #228, 'distance_accuracy_value', 'NONE');
#226 = DIRECTION ( 'NONE',  ( 1.000000000000000000, 0.0000000000000000000, 0.0000000000000000000 ) ) ;
#227 = AXIS2_PLACEMENT_3D ( 'NONE', #149, #220, #274 ) ;
#228 =( CONVERSION_BASED_UNIT ( 'INCH', #135 ) LENGTH_UNIT ( ) NAMED_UNIT ( #293 ) );
#229 = DIRECTION ( 'NONE',  ( 0.0000000000000000000, 0.0000000000000000000, -1.000000000000000000 ) ) ;
#230 = ADVANCED_FACE ( 'NONE', ( #2 ), #142, .T. ) ;
#231 = MECHANICAL_DESIGN_GEOMETRIC_PRESENTATION_REPRESENTATION (  '', ( #239 ), #134 ) ;
#232 = APPLICATION_PROTOCOL_DEFINITION ( 'draft international standard', 'automotive_design', 1998, #195 ) ;
#233 = MANIFOLD_SOLID_BREP ( 'Cut-Revolve1', #253 ) ;
#234 = CIRCLE ( 'NONE', #254, 0.1250000000000000000 ) ;
#235 = CONICAL_SURFACE ( 'NONE', #165, 0.1099999999999996397, 0.7853981633974426169 ) ;
#236 = ORIENTED_EDGE ( 'NONE', *, *, #62, .F. ) ;
#237 = ORIENTED_EDGE ( 'NONE', *, *, #62, .T. ) ;
#238 = ORIENTED_EDGE ( 'NONE', *, *, #277, .T. ) ;
#239 = STYLED_ITEM ( 'NONE', ( #299 ), #17 ) ;
#240 = ORIENTED_EDGE ( 'NONE', *, *, #199, .F. ) ;
#241 = ORIENTED_EDGE ( 'NONE', *, *, #223, .T. ) ;
#242 = CARTESIAN_POINT ( 'NONE',  ( 0.0000000000000000000, 0.0000000000000000000, 2.000000000000000000 ) ) ;
#243 = CARTESIAN_POINT ( 'NONE',  ( 0.1099999999999996397, 1.347111479062084158E-17, 2.000000000000000000 ) ) ;
#244 = DIRECTION ( 'NONE',  ( -1.224646799147353207E-16, -0.0000000000000000000, -1.000000000000000000 ) ) ;
#245 = PLANE ( 'NONE',  #278 ) ;
#246 = STYLED_ITEM ( 'NONE', ( #83 ), #233 ) ;
#247 = CARTESIAN_POINT ( 'NONE',  ( 3.061616997868383018E-17, 0.0000000000000000000, 0.2500000000000000000 ) ) ;
#248 =( NAMED_UNIT ( * ) PLANE_ANGLE_UNIT ( ) SI_UNIT ( $, .RADIAN. ) );
#249 = FACE_OUTER_BOUND ( 'NONE', #188, .T. ) ;
#250 = CARTESIAN_POINT ( 'NONE',  ( 0.1250000000000000555, 1.530808498934192125E-17, 0.6048095688398309466 ) ) ;
#251 = DIRECTION ( 'NONE',  ( 0.0000000000000000000, 0.0000000000000000000, 1.000000000000000000 ) ) ;
#252 = DIRECTION ( 'NONE',  ( -1.000000000000000000, 0.0000000000000000000, 1.224646799147353207E-16 ) ) ;
#253 = CLOSED_SHELL ( 'NONE', ( #98, #180, #186, #230, #36, #69, #260, #131, #70, #289 ) ) ;
#254 = AXIS2_PLACEMENT_3D ( 'NONE', #218, #84, #105 ) ;
#255 =( NAMED_UNIT ( * ) PLANE_ANGLE_UNIT ( ) SI_UNIT ( $, .RADIAN. ) );
#256 = ORIENTED_EDGE ( 'NONE', *, *, #7, .F. ) ;
#257 = AXIS2_PLACEMENT_3D ( 'NONE', #1, #162, #9 ) ;
#258 = ORIENTED_EDGE ( 'NONE', *, *, #277, .F. ) ;
#259 = DIRECTION ( 'NONE',  ( 1.000000000000000000, 0.0000000000000000000, 0.0000000000000000000 ) ) ;
#260 = ADVANCED_FACE ( 'NONE', ( #101 ), #235, .T. ) ;
#261 = ORIENTED_EDGE ( 'NONE', *, *, #76, .T. ) ;
#262 = EDGE_LOOP ( 'NONE', ( #163, #256, #112, #172 ) ) ;
#263 = CIRCLE ( 'NONE', #3, 0.1250000000000000000 ) ;
#264 = DIRECTION ( 'NONE',  ( 0.7071067811865434649, 8.659560562354883554E-17, -0.7071067811865515695 ) ) ;
#265 = ORIENTED_EDGE ( 'NONE', *, *, #294, .F. ) ;
#266 = CARTESIAN_POINT ( 'NONE',  ( 7.406781025733896371E-17, 0.0000000000000000000, 0.6048095688398309466 ) ) ;
#267 = DIRECTION ( 'NONE',  ( -1.000000000000000000, 0.0000000000000000000, 0.0000000000000000000 ) ) ;
#268 = FACE_OUTER_BOUND ( 'NONE', #190, .T. ) ;
#269 = AXIS2_PLACEMENT_3D ( 'NONE', #85, #37, #179 ) ;
#270 = CARTESIAN_POINT ( 'NONE',  ( 0.1250000000000000000, 1.530808498934191509E-17, 2.000000000000000000 ) ) ;
#271 = LINE ( 'NONE', #39, #71 ) ;
#272 = CARTESIAN_POINT ( 'NONE',  ( 0.0000000000000000000, 0.0000000000000000000, 0.0000000000000000000 ) ) ;
#273 = DIRECTION ( 'NONE',  ( -0.0000000000000000000, -0.0000000000000000000, -1.000000000000000000 ) ) ;
#274 = DIRECTION ( 'NONE',  ( -1.000000000000000000, 0.0000000000000000000, 0.0000000000000000000 ) ) ;
#275 = DIRECTION ( 'NONE',  ( 1.000000000000000000, 0.0000000000000000000, 0.0000000000000000000 ) ) ;
#276 = AXIS2_PLACEMENT_3D ( 'NONE', #242, #287, #267 ) ;
#277 = EDGE_CURVE ( 'NONE', #74, #214, #34, .T. ) ;
#278 = AXIS2_PLACEMENT_3D ( 'NONE', #18, #251, #200 ) ;
#279 = EDGE_CURVE ( 'NONE', #209, #92, #216, .T. ) ;
#280 =( LENGTH_UNIT ( ) NAMED_UNIT ( * ) SI_UNIT ( $, .METRE. ) );
#281 = CONICAL_SURFACE ( 'NONE', #257, 0.06243749999999999994, 0.1745329251994338915 ) ;
#282 = EDGE_LOOP ( 'NONE', ( #241, #99 ) ) ;
#283 = ORIENTED_EDGE ( 'NONE', *, *, #168, .T. ) ;
#284 = EDGE_LOOP ( 'NONE', ( #141, #210, #77, #50 ) ) ;
#285 = EDGE_CURVE ( 'NONE', #214, #91, #271, .T. ) ;
#286 = PRESENTATION_LAYER_ASSIGNMENT (  '', '', ( #246 ) ) ;
#287 = DIRECTION ( 'NONE',  ( -0.0000000000000000000, -0.0000000000000000000, -1.000000000000000000 ) ) ;
#288 = VERTEX_POINT ( 'NONE', #171 ) ;
#289 = ADVANCED_FACE ( 'NONE', ( #174 ), #245, .F. ) ;
#290 = ORIENTED_EDGE ( 'NONE', *, *, #31, .F. ) ;
#291 = SURFACE_SIDE_STYLE ('',( #191 ) ) ;
#292 = CARTESIAN_POINT ( 'NONE',  ( -0.06243749999999997219, 7.646388452176287375E-18, 0.2500000000000000000 ) ) ;
#293 = DIMENSIONAL_EXPONENTS ( 1.000000000000000000, 0.0000000000000000000, 0.0000000000000000000, 0.0000000000000000000, 0.0000000000000000000, 0.0000000000000000000, 0.0000000000000000000 ) ;
#294 = EDGE_CURVE ( 'NONE', #74, #53, #108, .T. ) ;
#295 = DIRECTION ( 'NONE',  ( -1.000000000000000000, 0.0000000000000000000, 1.224646799147353207E-16 ) ) ;
#296 = CARTESIAN_POINT ( 'NONE',  ( 0.1250000000000000000, 1.530808498934191509E-17, 1.984999999999999432 ) ) ;
#297 = CARTESIAN_POINT ( 'NONE',  ( 0.0000000000000000000, 0.0000000000000000000, 0.0000000000000000000 ) ) ;
#298 = LINE ( 'NONE', #88, #187 ) ;
#299 = PRESENTATION_STYLE_ASSIGNMENT (( #184 ) ) ;
ENDSEC;
END-ISO-10303-21;
