ISO-10303-21;
HEADER;
FILE_DESCRIPTION (( 'STEP AP214' ),
    '1' );
FILE_NAME ('Micro_BMS-031-2X.STEP',
    '2021-09-03T15:09:44',
    ( '' ),
    ( '' ),
    'SwSTEP 2.0',
    'SolidWorks 2020',
    '' );
FILE_SCHEMA (( 'AUTOMOTIVE_DESIGN' ));
ENDSEC;

DATA;
#1 = CARTESIAN_POINT ( 'NONE',  ( 0.0000000000000000000, 0.0000000000000000000, 1.500000000000000222 ) ) ;
#2 = ADVANCED_FACE ( 'NONE', ( #161 ), #37, .T. ) ;
#3 = PRESENTATION_LAYER_ASSIGNMENT (  '', '', ( #144 ) ) ;
#4 = CIRCLE ( 'NONE', #52, 0.04750000000000064587 ) ;
#5 = ORIENTED_EDGE ( 'NONE', *, *, #127, .F. ) ;
#6 = ADVANCED_FACE ( 'NONE', ( #137 ), #115, .T. ) ;
#7 = EDGE_LOOP ( 'NONE', ( #245, #130, #179, #308 ) ) ;
#8 = DIRECTION ( 'NONE',  ( 1.000000000000000000, 0.0000000000000000000, -0.0000000000000000000 ) ) ;
#9 = LINE ( 'NONE', #212, #208 ) ;
#10 = VERTEX_POINT ( 'NONE', #217 ) ;
#11 = CARTESIAN_POINT ( 'NONE',  ( 5.755839955992561966E-18, 0.0000000000000000000, 0.04700000000000000705 ) ) ;
#12 = CARTESIAN_POINT ( 'NONE',  ( -0.06249999999999996531, 0.0000000000000000000, 0.3136381503902350154 ) ) ;
#13 = ORIENTED_EDGE ( 'NONE', *, *, #204, .F. ) ;
#14 = CARTESIAN_POINT ( 'NONE',  ( -0.06250000000000000000, 0.0000000000000000000, 1.500000000000000222 ) ) ;
#15 = EDGE_LOOP ( 'NONE', ( #220, #160, #82 ) ) ;
#16 = CONICAL_SURFACE ( 'NONE', #128, 0.01548450000000000000, 0.1745329251994338637 ) ;
#17 = DIRECTION ( 'NONE',  ( 0.0000000000000000000, 1.000000000000000000, 0.0000000000000000000 ) ) ;
#18 = CONICAL_SURFACE ( 'NONE', #306, 0.04750000000000064587, 0.7853981633974457255 ) ;
#19 = ORIENTED_EDGE ( 'NONE', *, *, #202, .T. ) ;
#20 = CARTESIAN_POINT ( 'NONE',  ( 3.840959569658975901E-17, 0.0000000000000000000, 0.3136381503902350154 ) ) ;
#21 = FACE_OUTER_BOUND ( 'NONE', #7, .T. ) ;
#22 = DIRECTION ( 'NONE',  ( 1.224646799147353454E-16, 0.0000000000000000000, 1.000000000000000000 ) ) ;
#23 = EDGE_CURVE ( 'NONE', #68, #78, #324, .T. ) ;
#24 = APPLICATION_CONTEXT ( 'automotive_design' ) ;
#25 = VECTOR ( 'NONE', #284, 39.37007874015748143 ) ;
#26 =( CONVERSION_BASED_UNIT ( 'INCH', #175 ) LENGTH_UNIT ( ) NAMED_UNIT ( #230 ) );
#27 = AXIS2_PLACEMENT_3D ( 'NONE', #72, #66, #173 ) ;
#28 = APPLICATION_PROTOCOL_DEFINITION ( 'draft international standard', 'automotive_design', 1998, #235 ) ;
#29 = ADVANCED_FACE ( 'NONE', ( #21 ), #16, .T. ) ;
#30 = VECTOR ( 'NONE', #314, 39.37007874015748143 ) ;
#31 =( GEOMETRIC_REPRESENTATION_CONTEXT ( 3 ) GLOBAL_UNCERTAINTY_ASSIGNED_CONTEXT ( ( #295 ) ) GLOBAL_UNIT_ASSIGNED_CONTEXT ( ( #243, #194, #113 ) ) REPRESENTATION_CONTEXT ( 'NONE', 'WORKASPACE' ) );
#32 = UNCERTAINTY_MEASURE_WITH_UNIT (LENGTH_MEASURE( 1.000000000000000082E-05 ), #251, 'distance_accuracy_value', 'NONE');
#33 = DIRECTION ( 'NONE',  ( -1.000000000000000000, 1.224646799147353207E-16, 0.0000000000000000000 ) ) ;
#34 = VERTEX_POINT ( 'NONE', #159 ) ;
#35 = CARTESIAN_POINT ( 'NONE',  ( 0.01548450000000000520, 1.896304336139719238E-18, 0.01548449999999999827 ) ) ;
#36 = EDGE_CURVE ( 'NONE', #107, #265, #46, .T. ) ;
#37 = CYLINDRICAL_SURFACE ( 'NONE', #131, 0.01548450000000000173 ) ;
#38 = CIRCLE ( 'NONE', #71, 0.01548450000000000000 ) ;
#39 = CARTESIAN_POINT ( 'NONE',  ( 0.01548450000000000694, 0.0000000000000000000, 0.04700000000000000705 ) ) ;
#40 = EDGE_LOOP ( 'NONE', ( #205, #288, #184, #60 ) ) ;
#41 = DIRECTION ( 'NONE',  ( -1.224646799147353454E-16, -0.0000000000000000000, -1.000000000000000000 ) ) ;
#42 = VERTEX_POINT ( 'NONE', #237 ) ;
#43 = DIRECTION ( 'NONE',  ( 0.0000000000000000000, 0.0000000000000000000, -1.000000000000000000 ) ) ;
#44 = DIRECTION ( 'NONE',  ( 1.000000000000000000, 0.0000000000000000000, 0.0000000000000000000 ) ) ;
#45 = LINE ( 'NONE', #218, #30 ) ;
#46 = CIRCLE ( 'NONE', #260, 0.01548450000000000000 ) ;
#47 =( LENGTH_UNIT ( ) NAMED_UNIT ( * ) SI_UNIT ( $, .METRE. ) );
#48 = CARTESIAN_POINT ( 'NONE',  ( 0.0000000000000000000, 0.0000000000000000000, 0.0000000000000000000 ) ) ;
#49 = EDGE_CURVE ( 'NONE', #171, #78, #9, .T. ) ;
#50 = DIRECTION ( 'NONE',  ( 1.000000000000000000, 0.0000000000000000000, 0.0000000000000000000 ) ) ;
#51 = DIRECTION ( 'NONE',  ( 0.0000000000000000000, 0.0000000000000000000, 1.000000000000000000 ) ) ;
#52 = AXIS2_PLACEMENT_3D ( 'NONE', #279, #84, #105 ) ;
#53 = PRODUCT_DEFINITION_FORMATION_WITH_SPECIFIED_SOURCE ( 'ANY', '', #226, .NOT_KNOWN. ) ;
#54 = EDGE_CURVE ( 'NONE', #171, #265, #85, .T. ) ;
#55 = CARTESIAN_POINT ( 'NONE',  ( 0.0000000000000000000, 0.0000000000000000000, 0.0000000000000000000 ) ) ;
#56 = ADVANCED_BREP_SHAPE_REPRESENTATION ( 'Micro_BMS-031-2X', ( #256, #65 ), #31 ) ;
#57 = EDGE_LOOP ( 'NONE', ( #192, #282 ) ) ;
#58 = EDGE_CURVE ( 'NONE', #107, #234, #38, .T. ) ;
#59 = ORIENTED_EDGE ( 'NONE', *, *, #54, .F. ) ;
#60 = ORIENTED_EDGE ( 'NONE', *, *, #196, .F. ) ;
#61 = ORIENTED_EDGE ( 'NONE', *, *, #274, .T. ) ;
#62 = CARTESIAN_POINT ( 'NONE',  ( -0.01548450000000000000, 0.0000000000000000000, 0.01548450000000000173 ) ) ;
#63 = DIRECTION ( 'NONE',  ( 0.0000000000000000000, 0.0000000000000000000, -1.000000000000000000 ) ) ;
#64 = VECTOR ( 'NONE', #69, 39.37007874015748143 ) ;
#65 = AXIS2_PLACEMENT_3D ( 'NONE', #55, #51, #152 ) ;
#66 = DIRECTION ( 'NONE',  ( -0.0000000000000000000, -0.0000000000000000000, -1.000000000000000000 ) ) ;
#67 = ORIENTED_EDGE ( 'NONE', *, *, #233, .T. ) ;
#68 = VERTEX_POINT ( 'NONE', #312 ) ;
#69 = DIRECTION ( 'NONE',  ( -0.0000000000000000000, -0.0000000000000000000, -1.000000000000000000 ) ) ;
#70 = DIRECTION ( 'NONE',  ( 1.000000000000000000, 0.0000000000000000000, 0.0000000000000000000 ) ) ;
#71 = AXIS2_PLACEMENT_3D ( 'NONE', #163, #136, #241 ) ;
#72 = CARTESIAN_POINT ( 'NONE',  ( 0.0000000000000000000, 0.0000000000000000000, 1.500000000000000222 ) ) ;
#73 = CARTESIAN_POINT ( 'NONE',  ( 0.0000000000000000000, 0.0000000000000000000, 1.485000000000000764 ) ) ;
#74 = AXIS2_PLACEMENT_3D ( 'NONE', #116, #121, #91 ) ;
#75 = SURFACE_STYLE_USAGE ( .BOTH. , #227 ) ;
#76 = EDGE_LOOP ( 'NONE', ( #182, #142, #118, #90 ) ) ;
#77 = DIMENSIONAL_EXPONENTS ( 1.000000000000000000, 0.0000000000000000000, 0.0000000000000000000, 0.0000000000000000000, 0.0000000000000000000, 0.0000000000000000000, 0.0000000000000000000 ) ;
#78 = VERTEX_POINT ( 'NONE', #12 ) ;
#79 = CIRCLE ( 'NONE', #301, 0.01548450000000000000 ) ;
#80 =( GEOMETRIC_REPRESENTATION_CONTEXT ( 3 ) GLOBAL_UNCERTAINTY_ASSIGNED_CONTEXT ( ( #32 ) ) GLOBAL_UNIT_ASSIGNED_CONTEXT ( ( #251, #162, #146 ) ) REPRESENTATION_CONTEXT ( 'NONE', 'WORKASPACE' ) );
#81 = FILL_AREA_STYLE ('',( #181 ) ) ;
#82 = ORIENTED_EDGE ( 'NONE', *, *, #202, .F. ) ;
#83 = ADVANCED_FACE ( 'NONE', ( #316 ), #224, .T. ) ;
#84 = DIRECTION ( 'NONE',  ( 0.0000000000000000000, 0.0000000000000000000, 1.000000000000000000 ) ) ;
#85 = LINE ( 'NONE', #141, #25 ) ;
#86 = DIRECTION ( 'NONE',  ( -1.000000000000000000, 0.0000000000000000000, 1.224646799147353454E-16 ) ) ;
#87 = DIRECTION ( 'NONE',  ( 1.000000000000000000, 0.0000000000000000000, 0.0000000000000000000 ) ) ;
#88 = CARTESIAN_POINT ( 'NONE',  ( 5.755839955992561966E-18, 0.0000000000000000000, 0.04700000000000000705 ) ) ;
#89 = VERTEX_POINT ( 'NONE', #114 ) ;
#90 = ORIENTED_EDGE ( 'NONE', *, *, #103, .T. ) ;
#91 = DIRECTION ( 'NONE',  ( 1.000000000000000000, 0.0000000000000000000, 0.0000000000000000000 ) ) ;
#92 = CARTESIAN_POINT ( 'NONE',  ( 0.0000000000000000000, 0.0000000000000000000, 1.500000000000000222 ) ) ;
#93 = LENGTH_MEASURE_WITH_UNIT ( LENGTH_MEASURE( 0.02539999999999999897 ), #269 );
#94 = ADVANCED_FACE ( 'NONE', ( #125 ), #221, .T. ) ;
#95 = DIRECTION ( 'NONE',  ( 0.0000000000000000000, 0.0000000000000000000, 1.000000000000000000 ) ) ;
#96 =( LENGTH_UNIT ( ) NAMED_UNIT ( * ) SI_UNIT ( $, .METRE. ) );
#97 = AXIS2_PLACEMENT_3D ( 'NONE', #285, #63, #112 ) ;
#98 = ADVANCED_FACE ( 'NONE', ( #270 ), #193, .T. ) ;
#99 =( NAMED_UNIT ( * ) PLANE_ANGLE_UNIT ( ) SI_UNIT ( $, .RADIAN. ) );
#100 = CIRCLE ( 'NONE', #199, 0.06250000000000000000 ) ;
#101 = SURFACE_STYLE_USAGE ( .BOTH. , #211 ) ;
#102 = ORIENTED_EDGE ( 'NONE', *, *, #204, .T. ) ;
#103 = EDGE_CURVE ( 'NONE', #265, #234, #153, .T. ) ;
#104 = ORIENTED_EDGE ( 'NONE', *, *, #139, .T. ) ;
#105 = DIRECTION ( 'NONE',  ( 1.000000000000000000, 0.0000000000000000000, 0.0000000000000000000 ) ) ;
#106 = CIRCLE ( 'NONE', #271, 0.04750000000000064587 ) ;
#107 = VERTEX_POINT ( 'NONE', #272 ) ;
#108 =( GEOMETRIC_REPRESENTATION_CONTEXT ( 3 ) GLOBAL_UNCERTAINTY_ASSIGNED_CONTEXT ( ( #149 ) ) GLOBAL_UNIT_ASSIGNED_CONTEXT ( ( #26, #99, #296 ) ) REPRESENTATION_CONTEXT ( 'NONE', 'WORKASPACE' ) );
#109 = SURFACE_STYLE_FILL_AREA ( #81 ) ;
#110 = EDGE_LOOP ( 'NONE', ( #104, #61, #19, #59 ) ) ;
#111 = CARTESIAN_POINT ( 'NONE',  ( 1.896304336139719623E-18, 0.0000000000000000000, 0.01548450000000000000 ) ) ;
#112 = DIRECTION ( 'NONE',  ( -1.000000000000000000, 0.0000000000000000000, 0.0000000000000000000 ) ) ;
#113 =( NAMED_UNIT ( * ) SI_UNIT ( $, .STERADIAN. ) SOLID_ANGLE_UNIT ( ) );
#114 = CARTESIAN_POINT ( 'NONE',  ( -0.04750000000000064587, 0.0000000000000000000, 1.500000000000000222 ) ) ;
#115 = CONICAL_SURFACE ( 'NONE', #97, 0.04750000000000064587, 0.7853981633974457255 ) ;
#116 = CARTESIAN_POINT ( 'NONE',  ( 1.896304336139719623E-18, 0.0000000000000000000, 0.01548450000000000000 ) ) ;
#117 = DIRECTION ( 'NONE',  ( 1.000000000000000000, 0.0000000000000000000, 0.0000000000000000000 ) ) ;
#118 = ORIENTED_EDGE ( 'NONE', *, *, #54, .T. ) ;
#119 = DIRECTION ( 'NONE',  ( -1.224646799147353454E-16, -0.0000000000000000000, -1.000000000000000000 ) ) ;
#120 = PRODUCT_DEFINITION_SHAPE ( 'NONE', 'NONE',  #281 ) ;
#121 = DIRECTION ( 'NONE',  ( 0.0000000000000000000, 1.000000000000000000, 0.0000000000000000000 ) ) ;
#122 = CARTESIAN_POINT ( 'NONE',  ( 0.01548450000000000173, 1.896304336139719238E-18, -1.896304336139719623E-18 ) ) ;
#123 = AXIS2_PLACEMENT_3D ( 'NONE', #11, #167, #293 ) ;
#124 = EDGE_CURVE ( 'NONE', #129, #171, #228, .T. ) ;
#125 = FACE_OUTER_BOUND ( 'NONE', #155, .T. ) ;
#126 = FILL_AREA_STYLE ('',( #177 ) ) ;
#127 = EDGE_CURVE ( 'NONE', #34, #42, #315, .T. ) ;
#128 = AXIS2_PLACEMENT_3D ( 'NONE', #201, #307, #44 ) ;
#129 = VERTEX_POINT ( 'NONE', #39 ) ;
#130 = ORIENTED_EDGE ( 'NONE', *, *, #124, .F. ) ;
#131 = AXIS2_PLACEMENT_3D ( 'NONE', #133, #311, #86 ) ;
#132 = PRESENTATION_LAYER_ASSIGNMENT (  '', '', ( #195 ) ) ;
#133 = CARTESIAN_POINT ( 'NONE',  ( 0.0000000000000000000, 0.0000000000000000000, 0.0000000000000000000 ) ) ;
#134 = CARTESIAN_POINT ( 'NONE',  ( 5.755839955992561966E-18, 0.0000000000000000000, 0.04700000000000000705 ) ) ;
#135 = DIRECTION ( 'NONE',  ( -1.000000000000000000, 0.0000000000000000000, 0.0000000000000000000 ) ) ;
#136 = DIRECTION ( 'NONE',  ( 0.0000000000000000000, -1.000000000000000000, 0.0000000000000000000 ) ) ;
#137 = FACE_OUTER_BOUND ( 'NONE', #169, .T. ) ;
#138 = DIRECTION ( 'NONE',  ( -1.000000000000000000, 0.0000000000000000000, 0.0000000000000000000 ) ) ;
#139 = EDGE_CURVE ( 'NONE', #171, #129, #79, .T. ) ;
#140 = FACE_OUTER_BOUND ( 'NONE', #213, .T. ) ;
#141 = CARTESIAN_POINT ( 'NONE',  ( -0.01548450000000000173, 0.0000000000000000000, 1.896304336139719623E-18 ) ) ;
#142 = ORIENTED_EDGE ( 'NONE', *, *, #124, .T. ) ;
#143 = EDGE_LOOP ( 'NONE', ( #278, #238, #190, #13 ) ) ;
#144 = STYLED_ITEM ( 'NONE', ( #283 ), #256 ) ;
#145 = LENGTH_MEASURE_WITH_UNIT ( LENGTH_MEASURE( 0.02539999999999999897 ), #47 );
#146 =( NAMED_UNIT ( * ) SI_UNIT ( $, .STERADIAN. ) SOLID_ANGLE_UNIT ( ) );
#147 = EDGE_CURVE ( 'NONE', #89, #34, #45, .T. ) ;
#148 = DIRECTION ( 'NONE',  ( 1.000000000000000000, 0.0000000000000000000, 0.0000000000000000000 ) ) ;
#149 = UNCERTAINTY_MEASURE_WITH_UNIT (LENGTH_MEASURE( 1.000000000000000082E-05 ), #26, 'distance_accuracy_value', 'NONE');
#150 = PRODUCT_CONTEXT ( 'NONE', #235, 'mechanical' ) ;
#151 = AXIS2_PLACEMENT_3D ( 'NONE', #174, #22, #197 ) ;
#152 = DIRECTION ( 'NONE',  ( 1.000000000000000000, 0.0000000000000000000, 0.0000000000000000000 ) ) ;
#153 = CIRCLE ( 'NONE', #203, 0.01548450000000000173 ) ;
#154 = EDGE_CURVE ( 'NONE', #42, #68, #266, .T. ) ;
#155 = EDGE_LOOP ( 'NONE', ( #262, #236, #257 ) ) ;
#156 = CYLINDRICAL_SURFACE ( 'NONE', #27, 0.06250000000000000000 ) ;
#157 = AXIS2_PLACEMENT_3D ( 'NONE', #20, #187, #319 ) ;
#158 = CARTESIAN_POINT ( 'NONE',  ( 0.0000000000000000000, 0.0000000000000000000, 1.500000000000000222 ) ) ;
#159 = CARTESIAN_POINT ( 'NONE',  ( -0.06250000000000000000, 0.0000000000000000000, 1.485000000000000764 ) ) ;
#160 = ORIENTED_EDGE ( 'NONE', *, *, #36, .T. ) ;
#161 = FACE_OUTER_BOUND ( 'NONE', #110, .T. ) ;
#162 =( NAMED_UNIT ( * ) PLANE_ANGLE_UNIT ( ) SI_UNIT ( $, .RADIAN. ) );
#163 = CARTESIAN_POINT ( 'NONE',  ( 1.896304336139719623E-18, 0.0000000000000000000, 0.01548450000000000000 ) ) ;
#164 = VECTOR ( 'NONE', #252, 39.37007874015748143 ) ;
#165 = VECTOR ( 'NONE', #215, 39.37007874015748143 ) ;
#166 = CARTESIAN_POINT ( 'NONE',  ( 3.840959569658975901E-17, 0.0000000000000000000, 0.3136381503902350154 ) ) ;
#167 = DIRECTION ( 'NONE',  ( -1.224646799147353454E-16, -0.0000000000000000000, -1.000000000000000000 ) ) ;
#168 = LINE ( 'NONE', #122, #291 ) ;
#169 = EDGE_LOOP ( 'NONE', ( #267, #67, #5, #249 ) ) ;
#170 = CARTESIAN_POINT ( 'NONE',  ( 0.0000000000000000000, 0.0000000000000000000, 1.500000000000000222 ) ) ;
#171 = VERTEX_POINT ( 'NONE', #172 ) ;
#172 = CARTESIAN_POINT ( 'NONE',  ( -0.01548449999999999480, 4.775173415405338006E-18, 0.04700000000000000705 ) ) ;
#173 = DIRECTION ( 'NONE',  ( -1.000000000000000000, 0.0000000000000000000, 0.0000000000000000000 ) ) ;
#174 = CARTESIAN_POINT ( 'NONE',  ( 1.896304336139719623E-18, 0.0000000000000000000, 0.01548450000000000000 ) ) ;
#175 = LENGTH_MEASURE_WITH_UNIT ( LENGTH_MEASURE( 0.02539999999999999897 ), #96 );
#176 = AXIS2_PLACEMENT_3D ( 'NONE', #214, #263, #70 ) ;
#177 = FILL_AREA_STYLE_COLOUR ( '', #325 ) ;
#178 = PRODUCT_RELATED_PRODUCT_CATEGORY ( 'part', '', ( #226 ) ) ;
#179 = ORIENTED_EDGE ( 'NONE', *, *, #196, .T. ) ;
#180 = LINE ( 'NONE', #302, #287 ) ;
#181 = FILL_AREA_STYLE_COLOUR ( '', #248 ) ;
#182 = ORIENTED_EDGE ( 'NONE', *, *, #274, .F. ) ;
#183 = MECHANICAL_DESIGN_GEOMETRIC_PRESENTATION_REPRESENTATION (  '', ( #144 ), #80 ) ;
#184 = ORIENTED_EDGE ( 'NONE', *, *, #321, .T. ) ;
#185 = PLANE ( 'NONE',  #231 ) ;
#186 = EDGE_LOOP ( 'NONE', ( #189, #320, #219, #303 ) ) ;
#187 = DIRECTION ( 'NONE',  ( -1.224646799147353454E-16, -0.0000000000000000000, -1.000000000000000000 ) ) ;
#188 = AXIS2_PLACEMENT_3D ( 'NONE', #88, #244, #216 ) ;
#189 = ORIENTED_EDGE ( 'NONE', *, *, #127, .T. ) ;
#190 = ORIENTED_EDGE ( 'NONE', *, *, #147, .T. ) ;
#191 = FACE_OUTER_BOUND ( 'NONE', #15, .T. ) ;
#192 = ORIENTED_EDGE ( 'NONE', *, *, #198, .T. ) ;
#193 = CYLINDRICAL_SURFACE ( 'NONE', #253, 0.06250000000000000000 ) ;
#194 =( NAMED_UNIT ( * ) PLANE_ANGLE_UNIT ( ) SI_UNIT ( $, .RADIAN. ) );
#195 = STYLED_ITEM ( 'NONE', ( #298 ), #56 ) ;
#196 = EDGE_CURVE ( 'NONE', #129, #68, #250, .T. ) ;
#197 = DIRECTION ( 'NONE',  ( -1.000000000000000000, 0.0000000000000000000, 1.378317830766382784E-16 ) ) ;
#198 = EDGE_CURVE ( 'NONE', #89, #10, #106, .T. ) ;
#199 = AXIS2_PLACEMENT_3D ( 'NONE', #73, #275, #148 ) ;
#200 = MECHANICAL_DESIGN_GEOMETRIC_PRESENTATION_REPRESENTATION (  '', ( #195 ), #108 ) ;
#201 = CARTESIAN_POINT ( 'NONE',  ( 5.755839955992561966E-18, 0.0000000000000000000, 0.04700000000000000705 ) ) ;
#202 = EDGE_CURVE ( 'NONE', #234, #265, #254, .T. ) ;
#203 = AXIS2_PLACEMENT_3D ( 'NONE', #286, #222, #246 ) ;
#204 = EDGE_CURVE ( 'NONE', #42, #34, #100, .T. ) ;
#205 = ORIENTED_EDGE ( 'NONE', *, *, #139, .F. ) ;
#206 = DIRECTION ( 'NONE',  ( 0.7071067811865456854, 8.659560562354911904E-17, -0.7071067811865493491 ) ) ;
#207 = DIRECTION ( 'NONE',  ( 0.0000000000000000000, 0.0000000000000000000, 1.000000000000000000 ) ) ;
#208 = VECTOR ( 'NONE', #310, 39.37007874015747433 ) ;
#209 = CIRCLE ( 'NONE', #157, 0.06250000000000000000 ) ;
#210 = ORIENTED_EDGE ( 'NONE', *, *, #23, .F. ) ;
#211 = SURFACE_SIDE_STYLE ('',( #109 ) ) ;
#212 = CARTESIAN_POINT ( 'NONE',  ( -0.01548449999999999480, 1.896304336139719238E-18, 0.04700000000000000705 ) ) ;
#213 = EDGE_LOOP ( 'NONE', ( #317, #102, #242, #210 ) ) ;
#214 = CARTESIAN_POINT ( 'NONE',  ( 0.0000000000000000000, 0.0000000000000000000, 1.485000000000000764 ) ) ;
#215 = DIRECTION ( 'NONE',  ( -0.0000000000000000000, -0.0000000000000000000, -1.000000000000000000 ) ) ;
#216 = DIRECTION ( 'NONE',  ( 1.000000000000000000, 0.0000000000000000000, 0.0000000000000000000 ) ) ;
#217 = CARTESIAN_POINT ( 'NONE',  ( 0.04750000000000064587, 6.735557395310482421E-18, 1.500000000000000222 ) ) ;
#218 = CARTESIAN_POINT ( 'NONE',  ( -0.04750000000000064587, 0.0000000000000000000, 1.500000000000000222 ) ) ;
#219 = ORIENTED_EDGE ( 'NONE', *, *, #321, .F. ) ;
#220 = ORIENTED_EDGE ( 'NONE', *, *, #58, .F. ) ;
#221 = SPHERICAL_SURFACE ( 'NONE', #74, 0.01548450000000000000 ) ;
#222 = DIRECTION ( 'NONE',  ( 1.224646799147353454E-16, 0.0000000000000000000, 1.000000000000000000 ) ) ;
#223 = DIRECTION ( 'NONE',  ( -1.000000000000000000, 0.0000000000000000000, 1.224646799147353454E-16 ) ) ;
#224 = CONICAL_SURFACE ( 'NONE', #188, 0.01548450000000000000, 0.1745329251994338637 ) ;
#225 = CARTESIAN_POINT ( 'NONE',  ( 0.01548450000000000694, 0.0000000000000000000, 0.04700000000000000705 ) ) ;
#226 = PRODUCT ( 'Micro_BMS-031-2X', 'Micro_BMS-031-2X', '', ( #150 ) ) ;
#227 = SURFACE_SIDE_STYLE ('',( #276 ) ) ;
#228 = CIRCLE ( 'NONE', #123, 0.01548450000000000000 ) ;
#229 = SHAPE_DEFINITION_REPRESENTATION ( #120, #56 ) ;
#230 = DIMENSIONAL_EXPONENTS ( 1.000000000000000000, 0.0000000000000000000, 0.0000000000000000000, 0.0000000000000000000, 0.0000000000000000000, 0.0000000000000000000, 0.0000000000000000000 ) ;
#231 = AXIS2_PLACEMENT_3D ( 'NONE', #158, #207, #8 ) ;
#232 = AXIS2_PLACEMENT_3D ( 'NONE', #48, #119, #223 ) ;
#233 = EDGE_CURVE ( 'NONE', #10, #42, #180, .T. ) ;
#234 = VERTEX_POINT ( 'NONE', #35 ) ;
#235 = APPLICATION_CONTEXT ( 'automotive_design' ) ;
#236 = ORIENTED_EDGE ( 'NONE', *, *, #58, .T. ) ;
#237 = CARTESIAN_POINT ( 'NONE',  ( 0.06250000000000000000, 7.654042494670956004E-18, 1.485000000000000764 ) ) ;
#238 = ORIENTED_EDGE ( 'NONE', *, *, #198, .F. ) ;
#239 = EDGE_CURVE ( 'NONE', #10, #89, #4, .T. ) ;
#240 = LINE ( 'NONE', #14, #165 ) ;
#241 = DIRECTION ( 'NONE',  ( 0.0000000000000000000, 0.0000000000000000000, -1.000000000000000000 ) ) ;
#242 = ORIENTED_EDGE ( 'NONE', *, *, #309, .T. ) ;
#243 =( CONVERSION_BASED_UNIT ( 'INCH', #93 ) LENGTH_UNIT ( ) NAMED_UNIT ( #77 ) );
#244 = DIRECTION ( 'NONE',  ( 1.224646799147353454E-16, 0.0000000000000000000, 1.000000000000000000 ) ) ;
#245 = ORIENTED_EDGE ( 'NONE', *, *, #49, .F. ) ;
#246 = DIRECTION ( 'NONE',  ( -1.000000000000000000, 0.0000000000000000000, 1.378317830766382784E-16 ) ) ;
#247 = CARTESIAN_POINT ( 'NONE',  ( 1.896304336139719623E-18, 0.0000000000000000000, 0.01548450000000000000 ) ) ;
#248 = COLOUR_RGB ( '',0.7921568627450980005, 0.8196078431372548767, 0.9333333333333333481 ) ;
#249 = ORIENTED_EDGE ( 'NONE', *, *, #147, .F. ) ;
#250 = LINE ( 'NONE', #225, #164 ) ;
#251 =( CONVERSION_BASED_UNIT ( 'INCH', #145 ) LENGTH_UNIT ( ) NAMED_UNIT ( #280 ) );
#252 = DIRECTION ( 'NONE',  ( 0.1736481776669313581, 0.0000000000000000000, 0.9848077530122077983 ) ) ;
#253 = AXIS2_PLACEMENT_3D ( 'NONE', #170, #259, #290 ) ;
#254 = CIRCLE ( 'NONE', #151, 0.01548450000000000173 ) ;
#255 = ADVANCED_FACE ( 'NONE', ( #304 ), #185, .T. ) ;
#256 = MANIFOLD_SOLID_BREP ( 'Fillet1', #299 ) ;
#257 = ORIENTED_EDGE ( 'NONE', *, *, #103, .F. ) ;
#258 = ADVANCED_FACE ( 'NONE', ( #140 ), #156, .T. ) ;
#259 = DIRECTION ( 'NONE',  ( -0.0000000000000000000, -0.0000000000000000000, -1.000000000000000000 ) ) ;
#260 = AXIS2_PLACEMENT_3D ( 'NONE', #247, #305, #33 ) ;
#261 = FACE_OUTER_BOUND ( 'NONE', #143, .T. ) ;
#262 = ORIENTED_EDGE ( 'NONE', *, *, #36, .F. ) ;
#263 = DIRECTION ( 'NONE',  ( 0.0000000000000000000, 0.0000000000000000000, -1.000000000000000000 ) ) ;
#264 = CYLINDRICAL_SURFACE ( 'NONE', #232, 0.01548450000000000173 ) ;
#265 = VERTEX_POINT ( 'NONE', #62 ) ;
#266 = LINE ( 'NONE', #318, #64 ) ;
#267 = ORIENTED_EDGE ( 'NONE', *, *, #239, .F. ) ;
#268 = PRODUCT_DEFINITION_CONTEXT ( 'detailed design', #24, 'design' ) ;
#269 =( LENGTH_UNIT ( ) NAMED_UNIT ( * ) SI_UNIT ( $, .METRE. ) );
#270 = FACE_OUTER_BOUND ( 'NONE', #186, .T. ) ;
#271 = AXIS2_PLACEMENT_3D ( 'NONE', #1, #95, #50 ) ;
#272 = CARTESIAN_POINT ( 'NONE',  ( 2.844456504209578857E-18, 0.0000000000000000000, 0.0000000000000000000 ) ) ;
#273 = FACE_OUTER_BOUND ( 'NONE', #76, .T. ) ;
#274 = EDGE_CURVE ( 'NONE', #129, #234, #168, .T. ) ;
#275 = DIRECTION ( 'NONE',  ( 0.0000000000000000000, 0.0000000000000000000, -1.000000000000000000 ) ) ;
#276 = SURFACE_STYLE_FILL_AREA ( #126 ) ;
#277 = APPLICATION_PROTOCOL_DEFINITION ( 'draft international standard', 'automotive_design', 1998, #24 ) ;
#278 = ORIENTED_EDGE ( 'NONE', *, *, #233, .F. ) ;
#279 = CARTESIAN_POINT ( 'NONE',  ( 0.0000000000000000000, 0.0000000000000000000, 1.500000000000000222 ) ) ;
#280 = DIMENSIONAL_EXPONENTS ( 1.000000000000000000, 0.0000000000000000000, 0.0000000000000000000, 0.0000000000000000000, 0.0000000000000000000, 0.0000000000000000000, 0.0000000000000000000 ) ;
#281 = PRODUCT_DEFINITION ( 'UNKNOWN', '', #53, #268 ) ;
#282 = ORIENTED_EDGE ( 'NONE', *, *, #239, .T. ) ;
#283 = PRESENTATION_STYLE_ASSIGNMENT (( #101 ) ) ;
#284 = DIRECTION ( 'NONE',  ( -1.224646799147353454E-16, -0.0000000000000000000, -1.000000000000000000 ) ) ;
#285 = CARTESIAN_POINT ( 'NONE',  ( 0.0000000000000000000, 0.0000000000000000000, 1.500000000000000222 ) ) ;
#286 = CARTESIAN_POINT ( 'NONE',  ( 1.896304336139719623E-18, 0.0000000000000000000, 0.01548450000000000000 ) ) ;
#287 = VECTOR ( 'NONE', #206, 39.37007874015748143 ) ;
#288 = ORIENTED_EDGE ( 'NONE', *, *, #49, .T. ) ;
#289 = DIRECTION ( 'NONE',  ( -1.224646799147353454E-16, -0.0000000000000000000, -1.000000000000000000 ) ) ;
#290 = DIRECTION ( 'NONE',  ( -1.000000000000000000, 0.0000000000000000000, 0.0000000000000000000 ) ) ;
#291 = VECTOR ( 'NONE', #289, 39.37007874015748143 ) ;
#292 = AXIS2_PLACEMENT_3D ( 'NONE', #111, #17, #117 ) ;
#293 = DIRECTION ( 'NONE',  ( -1.000000000000000000, 0.0000000000000000000, 0.0000000000000000000 ) ) ;
#294 = ADVANCED_FACE ( 'NONE', ( #261 ), #18, .T. ) ;
#295 = UNCERTAINTY_MEASURE_WITH_UNIT (LENGTH_MEASURE( 1.000000000000000082E-05 ), #243, 'distance_accuracy_value', 'NONE');
#296 =( NAMED_UNIT ( * ) SI_UNIT ( $, .STERADIAN. ) SOLID_ANGLE_UNIT ( ) );
#297 = AXIS2_PLACEMENT_3D ( 'NONE', #166, #313, #87 ) ;
#298 = PRESENTATION_STYLE_ASSIGNMENT (( #75 ) ) ;
#299 = CLOSED_SHELL ( 'NONE', ( #300, #2, #83, #6, #98, #258, #255, #294, #29, #323, #94 ) ) ;
#300 = ADVANCED_FACE ( 'NONE', ( #191 ), #322, .T. ) ;
#301 = AXIS2_PLACEMENT_3D ( 'NONE', #134, #41, #138 ) ;
#302 = CARTESIAN_POINT ( 'NONE',  ( 0.04750000000000064587, 5.817072295950006528E-18, 1.500000000000000222 ) ) ;
#303 = ORIENTED_EDGE ( 'NONE', *, *, #309, .F. ) ;
#304 = FACE_OUTER_BOUND ( 'NONE', #57, .T. ) ;
#305 = DIRECTION ( 'NONE',  ( 1.224646799147353207E-16, 1.000000000000000000, -0.0000000000000000000 ) ) ;
#306 = AXIS2_PLACEMENT_3D ( 'NONE', #92, #43, #135 ) ;
#307 = DIRECTION ( 'NONE',  ( 1.224646799147353454E-16, 0.0000000000000000000, 1.000000000000000000 ) ) ;
#308 = ORIENTED_EDGE ( 'NONE', *, *, #23, .T. ) ;
#309 = EDGE_CURVE ( 'NONE', #34, #78, #240, .T. ) ;
#310 = DIRECTION ( 'NONE',  ( -0.1736481776669311639, 2.126576849575783008E-17, 0.9848077530122080203 ) ) ;
#311 = DIRECTION ( 'NONE',  ( -1.224646799147353454E-16, -0.0000000000000000000, -1.000000000000000000 ) ) ;
#312 = CARTESIAN_POINT ( 'NONE',  ( 0.06250000000000002776, 7.654042494670959086E-18, 0.3136381503902350154 ) ) ;
#313 = DIRECTION ( 'NONE',  ( -1.224646799147353454E-16, -0.0000000000000000000, -1.000000000000000000 ) ) ;
#314 = DIRECTION ( 'NONE',  ( -0.7071067811865456854, 0.0000000000000000000, -0.7071067811865493491 ) ) ;
#315 = CIRCLE ( 'NONE', #176, 0.06250000000000000000 ) ;
#316 = FACE_OUTER_BOUND ( 'NONE', #40, .T. ) ;
#317 = ORIENTED_EDGE ( 'NONE', *, *, #154, .F. ) ;
#318 = CARTESIAN_POINT ( 'NONE',  ( 0.06250000000000000000, 7.654042494670956004E-18, 1.500000000000000222 ) ) ;
#319 = DIRECTION ( 'NONE',  ( 1.000000000000000000, 0.0000000000000000000, 0.0000000000000000000 ) ) ;
#320 = ORIENTED_EDGE ( 'NONE', *, *, #154, .T. ) ;
#321 = EDGE_CURVE ( 'NONE', #78, #68, #209, .T. ) ;
#322 = SPHERICAL_SURFACE ( 'NONE', #292, 0.01548450000000000000 ) ;
#323 = ADVANCED_FACE ( 'NONE', ( #273 ), #264, .T. ) ;
#324 = CIRCLE ( 'NONE', #297, 0.06250000000000000000 ) ;
#325 = COLOUR_RGB ( '',0.7921568627450980005, 0.8196078431372548767, 0.9333333333333333481 ) ;
ENDSEC;
END-ISO-10303-21;
