ISO-10303-21;
HEADER;
FILE_DESCRIPTION (( 'STEP AP214' ),
    '1' );
FILE_NAME ('82270W.STEP',
    '2023-06-23T05:08:17',
    ( '' ),
    ( '' ),
    'SwSTEP 2.0',
    'SolidWorks 2023',
    '' );
FILE_SCHEMA (( 'AUTOMOTIVE_DESIGN' ));
ENDSEC;

DATA;
#1 = PRODUCT_DEFINITION_CONTEXT ( 'detailed design', #78, 'design' ) ;
#2 = EDGE_CURVE ( 'NONE', #38, #29, #76, .T. ) ;
#3 = CIRCLE ( 'NONE', #203, 0.2500000000000000000 ) ;
#4 = ORIENTED_EDGE ( 'NONE', *, *, #213, .F. ) ;
#5 = PRESENTATION_LAYER_ASSIGNMENT (  '', '', ( #18 ) ) ;
#6 = LINE ( 'NONE', #169, #247 ) ;
#7 = PRODUCT_RELATED_PRODUCT_CATEGORY ( 'part', '', ( #298 ) ) ;
#8 = FACE_OUTER_BOUND ( 'NONE', #98, .T. ) ;
#9 = DIRECTION ( 'NONE',  ( 1.000000000000000000, -3.265724797726278260E-17, 0.000000000000000000 ) ) ;
#10 = CYLINDRICAL_SURFACE ( 'NONE', #46, 0.2499999999999999722 ) ;
#11 = DIRECTION ( 'NONE',  ( -0.000000000000000000, -1.000000000000000000, -0.000000000000000000 ) ) ;
#12 = VECTOR ( 'NONE', #173, 39.37007874015748143 ) ;
#13 = DIRECTION ( 'NONE',  ( -1.000000000000000000, 0.000000000000000000, 0.000000000000000000 ) ) ;
#14 = FILL_AREA_STYLE_COLOUR ( '', #97 ) ;
#15 = FACE_OUTER_BOUND ( 'NONE', #79, .T. ) ;
#16 = CARTESIAN_POINT ( 'NONE',  ( 0.000000000000000000, 0.000000000000000000, -0.2500000000000000000 ) ) ;
#17 = PRESENTATION_STYLE_ASSIGNMENT (( #71 ) ) ;
#18 = STYLED_ITEM ( 'NONE', ( #161 ), #192 ) ;
#19 = ADVANCED_FACE ( 'NONE', ( #32 ), #181, .F. ) ;
#20 = COLOUR_RGB ( '',0.7921568627450980005, 0.8196078431372548767, 0.9333333333333333481 ) ;
#21 = EDGE_CURVE ( 'NONE', #40, #38, #230, .T. ) ;
#22 = CARTESIAN_POINT ( 'NONE',  ( 0.000000000000000000, 0.6250000000000000000, 0.000000000000000000 ) ) ;
#23 = ORIENTED_EDGE ( 'NONE', *, *, #268, .F. ) ;
#24 = UNCERTAINTY_MEASURE_WITH_UNIT (LENGTH_MEASURE( 1.000000000000000082E-05 ), #309, 'distance_accuracy_value', 'NONE');
#25 =( GEOMETRIC_REPRESENTATION_CONTEXT ( 3 ) GLOBAL_UNCERTAINTY_ASSIGNED_CONTEXT ( ( #99 ) ) GLOBAL_UNIT_ASSIGNED_CONTEXT ( ( #295, #93, #300 ) ) REPRESENTATION_CONTEXT ( 'NONE', 'WORKASPACE' ) );
#26 = EDGE_LOOP ( 'NONE', ( #296, #250, #237, #51 ) ) ;
#27 = MANIFOLD_SOLID_BREP ( 'Revolve - Cutting Edge', #253 ) ;
#28 = SURFACE_STYLE_FILL_AREA ( #116 ) ;
#29 = VERTEX_POINT ( 'NONE', #54 ) ;
#30 = LENGTH_MEASURE_WITH_UNIT ( LENGTH_MEASURE( 0.02539999999999999897 ), #158 );
#31 = MECHANICAL_DESIGN_GEOMETRIC_PRESENTATION_REPRESENTATION (  '', ( #306 ), #244 ) ;
#32 = FACE_OUTER_BOUND ( 'NONE', #35, .T. ) ;
#33 = CARTESIAN_POINT ( 'NONE',  ( 6.123233995736772199E-17, 2.500000000000000000, 0.000000000000000000 ) ) ;
#34 = LENGTH_MEASURE_WITH_UNIT ( LENGTH_MEASURE( 0.02539999999999999897 ), #72 );
#35 = EDGE_LOOP ( 'NONE', ( #159, #278 ) ) ;
#36 = DIRECTION ( 'NONE',  ( 0.000000000000000000, 0.000000000000000000, -1.000000000000000000 ) ) ;
#37 =( LENGTH_UNIT ( ) NAMED_UNIT ( * ) SI_UNIT ( $, .METRE. ) );
#38 = VERTEX_POINT ( 'NONE', #16 ) ;
#39 =( NAMED_UNIT ( * ) SI_UNIT ( $, .STERADIAN. ) SOLID_ANGLE_UNIT ( ) );
#40 = VERTEX_POINT ( 'NONE', #73 ) ;
#41 = CARTESIAN_POINT ( 'NONE',  ( 6.123233995736772199E-17, 2.500000000000000000, 0.000000000000000000 ) ) ;
#42 = SURFACE_STYLE_FILL_AREA ( #256 ) ;
#43 = DIRECTION ( 'NONE',  ( 3.265724797726278260E-17, 1.000000000000000000, -0.000000000000000000 ) ) ;
#44 = DIMENSIONAL_EXPONENTS ( 1.000000000000000000, 0.000000000000000000, 0.000000000000000000, 0.000000000000000000, 0.000000000000000000, 0.000000000000000000, 0.000000000000000000 ) ;
#45 = PRESENTATION_STYLE_ASSIGNMENT (( #242 ) ) ;
#46 = AXIS2_PLACEMENT_3D ( 'NONE', #84, #110, #70 ) ;
#47 =( LENGTH_UNIT ( ) NAMED_UNIT ( * ) SI_UNIT ( $, .METRE. ) );
#48 = EDGE_LOOP ( 'NONE', ( #262, #209 ) ) ;
#49 = CIRCLE ( 'NONE', #82, 0.2500000000000000000 ) ;
#50 = VERTEX_POINT ( 'NONE', #121 ) ;
#51 = ORIENTED_EDGE ( 'NONE', *, *, #21, .F. ) ;
#52 = STYLED_ITEM ( 'NONE', ( #17 ), #205 ) ;
#53 = FILL_AREA_STYLE ('',( #137 ) ) ;
#54 = CARTESIAN_POINT ( 'NONE',  ( 3.061616997868383018E-17, 0.000000000000000000, 0.2500000000000000000 ) ) ;
#55 = EDGE_CURVE ( 'NONE', #269, #141, #6, .T. ) ;
#56 = DIRECTION ( 'NONE',  ( 0.000000000000000000, -0.000000000000000000, 1.000000000000000000 ) ) ;
#57 = SURFACE_STYLE_USAGE ( .BOTH. , #174 ) ;
#58 =( LENGTH_UNIT ( ) NAMED_UNIT ( * ) SI_UNIT ( $, .METRE. ) );
#59 = DIMENSIONAL_EXPONENTS ( 1.000000000000000000, 0.000000000000000000, 0.000000000000000000, 0.000000000000000000, 0.000000000000000000, 0.000000000000000000, 0.000000000000000000 ) ;
#60 =( NAMED_UNIT ( * ) SI_UNIT ( $, .STERADIAN. ) SOLID_ANGLE_UNIT ( ) );
#61 = STYLED_ITEM ( 'NONE', ( #45 ), #156 ) ;
#62 = CARTESIAN_POINT ( 'NONE',  ( -0.2500000000000000000, 0.6250000000000000000, 0.000000000000000000 ) ) ;
#63 = SURFACE_STYLE_USAGE ( .BOTH. , #69 ) ;
#64 = DIRECTION ( 'NONE',  ( -0.000000000000000000, -1.000000000000000000, -0.000000000000000000 ) ) ;
#65 = DIRECTION ( 'NONE',  ( 3.265724797726278260E-17, 1.000000000000000000, -0.000000000000000000 ) ) ;
#66 =( NAMED_UNIT ( * ) PLANE_ANGLE_UNIT ( ) SI_UNIT ( $, .RADIAN. ) );
#67 =( NAMED_UNIT ( * ) PLANE_ANGLE_UNIT ( ) SI_UNIT ( $, .RADIAN. ) );
#68 =( CONVERSION_BASED_UNIT ( 'INCH', #146 ) LENGTH_UNIT ( ) NAMED_UNIT ( #229 ) );
#69 = SURFACE_SIDE_STYLE ('',( #239 ) ) ;
#70 = DIRECTION ( 'NONE',  ( -1.000000000000000000, 0.000000000000000000, 0.000000000000000000 ) ) ;
#71 = SURFACE_STYLE_USAGE ( .BOTH. , #307 ) ;
#72 =( LENGTH_UNIT ( ) NAMED_UNIT ( * ) SI_UNIT ( $, .METRE. ) );
#73 = CARTESIAN_POINT ( 'NONE',  ( 0.000000000000000000, 0.6250000000000000000, -0.2500000000000000000 ) ) ;
#74 = FILL_AREA_STYLE_COLOUR ( '', #154 ) ;
#75 = FACE_OUTER_BOUND ( 'NONE', #164, .T. ) ;
#76 = CIRCLE ( 'NONE', #148, 0.2500000000000000000 ) ;
#77 = DIRECTION ( 'NONE',  ( -0.000000000000000000, -1.000000000000000000, -0.000000000000000000 ) ) ;
#78 = APPLICATION_CONTEXT ( 'automotive_design' ) ;
#79 = EDGE_LOOP ( 'NONE', ( #4, #103, #153, #219 ) ) ;
#80 = MECHANICAL_DESIGN_GEOMETRIC_PRESENTATION_REPRESENTATION (  '', ( #52 ), #25 ) ;
#81 = ORIENTED_EDGE ( 'NONE', *, *, #55, .T. ) ;
#82 = AXIS2_PLACEMENT_3D ( 'NONE', #292, #223, #204 ) ;
#83 = ORIENTED_EDGE ( 'NONE', *, *, #122, .F. ) ;
#84 = CARTESIAN_POINT ( 'NONE',  ( 6.123233995736772199E-17, 2.500000000000000000, 0.000000000000000000 ) ) ;
#85 = MECHANICAL_DESIGN_GEOMETRIC_PRESENTATION_REPRESENTATION (  '', ( #142 ), #195 ) ;
#86 = FILL_AREA_STYLE ('',( #90 ) ) ;
#87 = AXIS2_PLACEMENT_3D ( 'NONE', #186, #77, #194 ) ;
#88 = SURFACE_STYLE_FILL_AREA ( #53 ) ;
#89 = DIRECTION ( 'NONE',  ( 3.265724797726278260E-17, 1.000000000000000000, -0.000000000000000000 ) ) ;
#90 = FILL_AREA_STYLE_COLOUR ( '', #272 ) ;
#91 = FACE_OUTER_BOUND ( 'NONE', #26, .T. ) ;
#92 = PRODUCT_CONTEXT ( 'NONE', #234, 'mechanical' ) ;
#93 =( NAMED_UNIT ( * ) PLANE_ANGLE_UNIT ( ) SI_UNIT ( $, .RADIAN. ) );
#94 = AXIS2_PLACEMENT_3D ( 'NONE', #22, #102, #56 ) ;
#95 = CIRCLE ( 'NONE', #281, 0.2500000000000000000 ) ;
#96 = CLOSED_SHELL ( 'NONE', ( #264, #304, #225, #19 ) ) ;
#97 = COLOUR_RGB ( '',1.000000000000000000, 0.000000000000000000, 0.000000000000000000 ) ;
#98 = EDGE_LOOP ( 'NONE', ( #130, #226, #83, #270 ) ) ;
#99 = UNCERTAINTY_MEASURE_WITH_UNIT (LENGTH_MEASURE( 1.000000000000000082E-05 ), #295, 'distance_accuracy_value', 'NONE');
#100 = ADVANCED_BREP_SHAPE_REPRESENTATION ( '82270W', ( #27, #163, #254 ), #221 ) ;
#101 = AXIS2_PLACEMENT_3D ( 'NONE', #134, #224, #199 ) ;
#102 = DIRECTION ( 'NONE',  ( 0.000000000000000000, 1.000000000000000000, 0.000000000000000000 ) ) ;
#103 = ORIENTED_EDGE ( 'NONE', *, *, #216, .T. ) ;
#104 =( GEOMETRIC_REPRESENTATION_CONTEXT ( 3 ) GLOBAL_UNCERTAINTY_ASSIGNED_CONTEXT ( ( #271 ) ) GLOBAL_UNIT_ASSIGNED_CONTEXT ( ( #105, #258, #60 ) ) REPRESENTATION_CONTEXT ( 'NONE', 'WORKASPACE' ) );
#105 =( CONVERSION_BASED_UNIT ( 'INCH', #30 ) LENGTH_UNIT ( ) NAMED_UNIT ( #107 ) );
#106 = ORIENTED_EDGE ( 'NONE', *, *, #165, .F. ) ;
#107 = DIMENSIONAL_EXPONENTS ( 1.000000000000000000, 0.000000000000000000, 0.000000000000000000, 0.000000000000000000, 0.000000000000000000, 0.000000000000000000, 0.000000000000000000 ) ;
#108 = FACE_OUTER_BOUND ( 'NONE', #196, .T. ) ;
#109 =( CONVERSION_BASED_UNIT ( 'INCH', #290 ) LENGTH_UNIT ( ) NAMED_UNIT ( #308 ) );
#110 = DIRECTION ( 'NONE',  ( 3.265724797726278260E-17, 1.000000000000000000, -0.000000000000000000 ) ) ;
#111 =( NAMED_UNIT ( * ) SI_UNIT ( $, .STERADIAN. ) SOLID_ANGLE_UNIT ( ) );
#112 = FACE_OUTER_BOUND ( 'NONE', #178, .T. ) ;
#113 = PRESENTATION_LAYER_ASSIGNMENT (  '', '', ( #306 ) ) ;
#114 = DIRECTION ( 'NONE',  ( 3.265724797726278260E-17, 1.000000000000000000, -0.000000000000000000 ) ) ;
#115 = CARTESIAN_POINT ( 'NONE',  ( 0.000000000000000000, 0.000000000000000000, 0.000000000000000000 ) ) ;
#116 = FILL_AREA_STYLE ('',( #228 ) ) ;
#117 =( NAMED_UNIT ( * ) PLANE_ANGLE_UNIT ( ) SI_UNIT ( $, .RADIAN. ) );
#118 = FILL_AREA_STYLE ('',( #207 ) ) ;
#119 = CARTESIAN_POINT ( 'NONE',  ( 0.2500000000000000555, 2.500000000000000000, 3.061616997868382402E-17 ) ) ;
#120 = DIRECTION ( 'NONE',  ( 0.000000000000000000, 0.000000000000000000, -1.000000000000000000 ) ) ;
#121 = CARTESIAN_POINT ( 'NONE',  ( 3.061616997868383018E-17, 0.6250000000000000000, 0.2500000000000000000 ) ) ;
#122 = EDGE_CURVE ( 'NONE', #141, #301, #215, .T. ) ;
#123 = CARTESIAN_POINT ( 'NONE',  ( 0.000000000000000000, 0.6250000000000000000, 0.000000000000000000 ) ) ;
#124 =( NAMED_UNIT ( * ) PLANE_ANGLE_UNIT ( ) SI_UNIT ( $, .RADIAN. ) );
#125 = PRESENTATION_LAYER_ASSIGNMENT (  '', '', ( #142 ) ) ;
#126 = PLANE ( 'NONE',  #289 ) ;
#127 = DIRECTION ( 'NONE',  ( -1.000000000000000000, 0.000000000000000000, 0.000000000000000000 ) ) ;
#128 = FILL_AREA_STYLE ('',( #74 ) ) ;
#129 = UNCERTAINTY_MEASURE_WITH_UNIT (LENGTH_MEASURE( 1.000000000000000082E-05 ), #68, 'distance_accuracy_value', 'NONE');
#130 = ORIENTED_EDGE ( 'NONE', *, *, #245, .T. ) ;
#131 = ORIENTED_EDGE ( 'NONE', *, *, #160, .F. ) ;
#132 = COLOUR_RGB ( '',1.000000000000000000, 0.000000000000000000, 0.000000000000000000 ) ;
#133 = AXIS2_PLACEMENT_3D ( 'NONE', #41, #189, #13 ) ;
#134 = CARTESIAN_POINT ( 'NONE',  ( 0.000000000000000000, 0.6250000000000000000, 0.000000000000000000 ) ) ;
#135 = ORIENTED_EDGE ( 'NONE', *, *, #283, .F. ) ;
#136 = MECHANICAL_DESIGN_GEOMETRIC_PRESENTATION_REPRESENTATION (  '', ( #172 ), #104 ) ;
#137 = FILL_AREA_STYLE_COLOUR ( '', #20 ) ;
#138 = CARTESIAN_POINT ( 'NONE',  ( 0.2500000000000000000, 0.6250000000000000000, 3.061616997868382402E-17 ) ) ;
#139 = ORIENTED_EDGE ( 'NONE', *, *, #245, .F. ) ;
#140 =( NAMED_UNIT ( * ) SI_UNIT ( $, .STERADIAN. ) SOLID_ANGLE_UNIT ( ) );
#141 = VERTEX_POINT ( 'NONE', #147 ) ;
#142 = STYLED_ITEM ( 'NONE', ( #177 ), #27 ) ;
#143 = APPLICATION_PROTOCOL_DEFINITION ( 'draft international standard', 'automotive_design', 1998, #234 ) ;
#144 = CARTESIAN_POINT ( 'NONE',  ( 0.000000000000000000, 0.000000000000000000, -0.2500000000000000000 ) ) ;
#145 =( CONVERSION_BASED_UNIT ( 'INCH', #259 ) LENGTH_UNIT ( ) NAMED_UNIT ( #59 ) );
#146 = LENGTH_MEASURE_WITH_UNIT ( LENGTH_MEASURE( 0.02539999999999999897 ), #200 );
#147 = CARTESIAN_POINT ( 'NONE',  ( -0.2499999999999998612, 2.500000000000000000, 0.000000000000000000 ) ) ;
#148 = AXIS2_PLACEMENT_3D ( 'NONE', #233, #11, #251 ) ;
#149 = AXIS2_PLACEMENT_3D ( 'NONE', #115, #241, #120 ) ;
#150 = LENGTH_MEASURE_WITH_UNIT ( LENGTH_MEASURE( 0.02539999999999999897 ), #47 );
#151 = FACE_OUTER_BOUND ( 'NONE', #48, .T. ) ;
#152 = SURFACE_SIDE_STYLE ('',( #170 ) ) ;
#153 = ORIENTED_EDGE ( 'NONE', *, *, #21, .T. ) ;
#154 = COLOUR_RGB ( '',1.000000000000000000, 0.000000000000000000, 0.000000000000000000 ) ;
#155 = VECTOR ( 'NONE', #208, 39.37007874015748143 ) ;
#156 = ADVANCED_FACE ( 'NONE', ( #75 ), #282, .T. ) ;
#157 = CIRCLE ( 'NONE', #176, 0.2499999999999999167 ) ;
#158 =( LENGTH_UNIT ( ) NAMED_UNIT ( * ) SI_UNIT ( $, .METRE. ) );
#159 = ORIENTED_EDGE ( 'NONE', *, *, #122, .T. ) ;
#160 = EDGE_CURVE ( 'NONE', #40, #50, #49, .T. ) ;
#161 = PRESENTATION_STYLE_ASSIGNMENT (( #162 ) ) ;
#162 = SURFACE_STYLE_USAGE ( .BOTH. , #188 ) ;
#163 = MANIFOLD_SOLID_BREP ( 'Revolve - Tool Body (Straight Shanked)', #96 ) ;
#164 = EDGE_LOOP ( 'NONE', ( #131, #257 ) ) ;
#165 = EDGE_CURVE ( 'NONE', #248, #269, #220, .T. ) ;
#166 = MECHANICAL_DESIGN_GEOMETRIC_PRESENTATION_REPRESENTATION (  '', ( #61 ), #182 ) ;
#167 = SHAPE_DEFINITION_REPRESENTATION ( #179, #100 ) ;
#168 = CARTESIAN_POINT ( 'NONE',  ( 0.000000000000000000, 0.000000000000000000, 0.000000000000000000 ) ) ;
#169 = CARTESIAN_POINT ( 'NONE',  ( -0.2499999999999998890, 2.500000000000000000, 0.000000000000000000 ) ) ;
#170 = SURFACE_STYLE_FILL_AREA ( #128 ) ;
#171 = EDGE_CURVE ( 'NONE', #29, #38, #3, .T. ) ;
#172 = STYLED_ITEM ( 'NONE', ( #184 ), #163 ) ;
#173 = DIRECTION ( 'NONE',  ( -0.000000000000000000, -1.000000000000000000, -0.000000000000000000 ) ) ;
#174 = SURFACE_SIDE_STYLE ('',( #28 ) ) ;
#175 = AXIS2_PLACEMENT_3D ( 'NONE', #274, #303, #9 ) ;
#176 = AXIS2_PLACEMENT_3D ( 'NONE', #33, #89, #185 ) ;
#177 = PRESENTATION_STYLE_ASSIGNMENT (( #63 ) ) ;
#178 = EDGE_LOOP ( 'NONE', ( #23, #193, #81, #135 ) ) ;
#179 = PRODUCT_DEFINITION_SHAPE ( 'NONE', 'NONE',  #235 ) ;
#180 = LINE ( 'NONE', #243, #12 ) ;
#181 = PLANE ( 'NONE',  #175 ) ;
#182 =( GEOMETRIC_REPRESENTATION_CONTEXT ( 3 ) GLOBAL_UNCERTAINTY_ASSIGNED_CONTEXT ( ( #24 ) ) GLOBAL_UNIT_ASSIGNED_CONTEXT ( ( #309, #214, #191 ) ) REPRESENTATION_CONTEXT ( 'NONE', 'WORKASPACE' ) );
#183 = AXIS2_PLACEMENT_3D ( 'NONE', #240, #279, #294 ) ;
#184 = PRESENTATION_STYLE_ASSIGNMENT (( #249 ) ) ;
#185 = DIRECTION ( 'NONE',  ( -1.000000000000000000, 0.000000000000000000, 0.000000000000000000 ) ) ;
#186 = CARTESIAN_POINT ( 'NONE',  ( 0.000000000000000000, 0.000000000000000000, 0.000000000000000000 ) ) ;
#187 =( LENGTH_UNIT ( ) NAMED_UNIT ( * ) SI_UNIT ( $, .METRE. ) );
#188 = SURFACE_SIDE_STYLE ('',( #42 ) ) ;
#189 = DIRECTION ( 'NONE',  ( 3.265724797726278260E-17, 1.000000000000000000, -0.000000000000000000 ) ) ;
#190 = ADVANCED_FACE ( 'NONE', ( #151 ), #126, .T. ) ;
#191 =( NAMED_UNIT ( * ) SI_UNIT ( $, .STERADIAN. ) SOLID_ANGLE_UNIT ( ) );
#192 = ADVANCED_FACE ( 'NONE', ( #91 ), #232, .T. ) ;
#193 = ORIENTED_EDGE ( 'NONE', *, *, #165, .T. ) ;
#194 = DIRECTION ( 'NONE',  ( 0.000000000000000000, 0.000000000000000000, -1.000000000000000000 ) ) ;
#195 =( GEOMETRIC_REPRESENTATION_CONTEXT ( 3 ) GLOBAL_UNCERTAINTY_ASSIGNED_CONTEXT ( ( #246 ) ) GLOBAL_UNIT_ASSIGNED_CONTEXT ( ( #109, #67, #201 ) ) REPRESENTATION_CONTEXT ( 'NONE', 'WORKASPACE' ) );
#196 = EDGE_LOOP ( 'NONE', ( #139, #106 ) ) ;
#197 = PRESENTATION_LAYER_ASSIGNMENT (  '', '', ( #172 ) ) ;
#198 = COLOUR_RGB ( '',1.000000000000000000, 0.000000000000000000, 0.000000000000000000 ) ;
#199 = DIRECTION ( 'NONE',  ( -1.000000000000000000, 0.000000000000000000, 0.000000000000000000 ) ) ;
#200 =( LENGTH_UNIT ( ) NAMED_UNIT ( * ) SI_UNIT ( $, .METRE. ) );
#201 =( NAMED_UNIT ( * ) SI_UNIT ( $, .STERADIAN. ) SOLID_ANGLE_UNIT ( ) );
#202 = LINE ( 'NONE', #119, #212 ) ;
#203 = AXIS2_PLACEMENT_3D ( 'NONE', #276, #64, #36 ) ;
#204 = DIRECTION ( 'NONE',  ( 0.000000000000000000, 0.000000000000000000, -1.000000000000000000 ) ) ;
#205 = ADVANCED_FACE ( 'NONE', ( #15 ), #261, .T. ) ;
#206 = CARTESIAN_POINT ( 'NONE',  ( 0.2500000000000000000, 2.500000000000000000, 3.061616997868382402E-17 ) ) ;
#207 = FILL_AREA_STYLE_COLOUR ( '', #198 ) ;
#208 = DIRECTION ( 'NONE',  ( -0.000000000000000000, -1.000000000000000000, -0.000000000000000000 ) ) ;
#209 = ORIENTED_EDGE ( 'NONE', *, *, #171, .T. ) ;
#210 = SURFACE_STYLE_FILL_AREA ( #118 ) ;
#211 = DIRECTION ( 'NONE',  ( 3.265724797726278260E-17, 1.000000000000000000, -0.000000000000000000 ) ) ;
#212 = VECTOR ( 'NONE', #114, 39.37007874015748143 ) ;
#213 = EDGE_CURVE ( 'NONE', #50, #29, #180, .T. ) ;
#214 =( NAMED_UNIT ( * ) PLANE_ANGLE_UNIT ( ) SI_UNIT ( $, .RADIAN. ) );
#215 = CIRCLE ( 'NONE', #287, 0.2499999999999999167 ) ;
#216 = EDGE_CURVE ( 'NONE', #50, #40, #95, .T. ) ;
#217 = PRESENTATION_LAYER_ASSIGNMENT (  '', '', ( #52 ) ) ;
#218 = UNCERTAINTY_MEASURE_WITH_UNIT (LENGTH_MEASURE( 1.000000000000000082E-05 ), #238, 'distance_accuracy_value', 'NONE');
#219 = ORIENTED_EDGE ( 'NONE', *, *, #171, .F. ) ;
#220 = CIRCLE ( 'NONE', #101, 0.2500000000000000000 ) ;
#221 =( GEOMETRIC_REPRESENTATION_CONTEXT ( 3 ) GLOBAL_UNCERTAINTY_ASSIGNED_CONTEXT ( ( #286 ) ) GLOBAL_UNIT_ASSIGNED_CONTEXT ( ( #145, #117, #39 ) ) REPRESENTATION_CONTEXT ( 'NONE', 'WORKASPACE' ) );
#222 = DIRECTION ( 'NONE',  ( 0.000000000000000000, 0.000000000000000000, -1.000000000000000000 ) ) ;
#223 = DIRECTION ( 'NONE',  ( -0.000000000000000000, -1.000000000000000000, -0.000000000000000000 ) ) ;
#224 = DIRECTION ( 'NONE',  ( 3.265724797726278260E-17, 1.000000000000000000, -0.000000000000000000 ) ) ;
#225 = ADVANCED_FACE ( 'NONE', ( #112 ), #231, .T. ) ;
#226 = ORIENTED_EDGE ( 'NONE', *, *, #268, .T. ) ;
#227 =( GEOMETRIC_REPRESENTATION_CONTEXT ( 3 ) GLOBAL_UNCERTAINTY_ASSIGNED_CONTEXT ( ( #218 ) ) GLOBAL_UNIT_ASSIGNED_CONTEXT ( ( #238, #124, #140 ) ) REPRESENTATION_CONTEXT ( 'NONE', 'WORKASPACE' ) );
#228 = FILL_AREA_STYLE_COLOUR ( '', #132 ) ;
#229 = DIMENSIONAL_EXPONENTS ( 1.000000000000000000, 0.000000000000000000, 0.000000000000000000, 0.000000000000000000, 0.000000000000000000, 0.000000000000000000, 0.000000000000000000 ) ;
#230 = LINE ( 'NONE', #144, #155 ) ;
#231 = CYLINDRICAL_SURFACE ( 'NONE', #133, 0.2499999999999999722 ) ;
#232 = CYLINDRICAL_SURFACE ( 'NONE', #149, 0.2500000000000000000 ) ;
#233 = CARTESIAN_POINT ( 'NONE',  ( 0.000000000000000000, 0.000000000000000000, 0.000000000000000000 ) ) ;
#234 = APPLICATION_CONTEXT ( 'automotive_design' ) ;
#235 = PRODUCT_DEFINITION ( 'UNKNOWN', '', #267, #1 ) ;
#236 = DIRECTION ( 'NONE',  ( 0.000000000000000000, 0.000000000000000000, 1.000000000000000000 ) ) ;
#237 = ORIENTED_EDGE ( 'NONE', *, *, #2, .F. ) ;
#238 =( CONVERSION_BASED_UNIT ( 'INCH', #34 ) LENGTH_UNIT ( ) NAMED_UNIT ( #252 ) );
#239 = SURFACE_STYLE_FILL_AREA ( #86 ) ;
#240 = CARTESIAN_POINT ( 'NONE',  ( 1.333119806810542605E-34, 0.6250000000000000000, 0.000000000000000000 ) ) ;
#241 = DIRECTION ( 'NONE',  ( -0.000000000000000000, -1.000000000000000000, -0.000000000000000000 ) ) ;
#242 = SURFACE_STYLE_USAGE ( .BOTH. , #152 ) ;
#243 = CARTESIAN_POINT ( 'NONE',  ( 3.061616997868383018E-17, 0.000000000000000000, 0.2500000000000000000 ) ) ;
#244 =( GEOMETRIC_REPRESENTATION_CONTEXT ( 3 ) GLOBAL_UNCERTAINTY_ASSIGNED_CONTEXT ( ( #129 ) ) GLOBAL_UNIT_ASSIGNED_CONTEXT ( ( #68, #66, #111 ) ) REPRESENTATION_CONTEXT ( 'NONE', 'WORKASPACE' ) );
#245 = EDGE_CURVE ( 'NONE', #269, #248, #288, .T. ) ;
#246 = UNCERTAINTY_MEASURE_WITH_UNIT (LENGTH_MEASURE( 1.000000000000000082E-05 ), #109, 'distance_accuracy_value', 'NONE');
#247 = VECTOR ( 'NONE', #211, 39.37007874015748143 ) ;
#248 = VERTEX_POINT ( 'NONE', #138 ) ;
#249 = SURFACE_STYLE_USAGE ( .BOTH. , #275 ) ;
#250 = ORIENTED_EDGE ( 'NONE', *, *, #213, .T. ) ;
#251 = DIRECTION ( 'NONE',  ( 0.000000000000000000, 0.000000000000000000, -1.000000000000000000 ) ) ;
#252 = DIMENSIONAL_EXPONENTS ( 1.000000000000000000, 0.000000000000000000, 0.000000000000000000, 0.000000000000000000, 0.000000000000000000, 0.000000000000000000, 0.000000000000000000 ) ;
#253 = CLOSED_SHELL ( 'NONE', ( #192, #156, #205, #190 ) ) ;
#254 = AXIS2_PLACEMENT_3D ( 'NONE', #302, #236, #299 ) ;
#255 = CARTESIAN_POINT ( 'NONE',  ( 0.000000000000000000, 0.6250000000000000000, 0.000000000000000000 ) ) ;
#256 = FILL_AREA_STYLE ('',( #14 ) ) ;
#257 = ORIENTED_EDGE ( 'NONE', *, *, #216, .F. ) ;
#258 =( NAMED_UNIT ( * ) PLANE_ANGLE_UNIT ( ) SI_UNIT ( $, .RADIAN. ) );
#259 = LENGTH_MEASURE_WITH_UNIT ( LENGTH_MEASURE( 0.02539999999999999897 ), #187 );
#260 = APPLICATION_PROTOCOL_DEFINITION ( 'draft international standard', 'automotive_design', 1998, #78 ) ;
#261 = CYLINDRICAL_SURFACE ( 'NONE', #87, 0.2500000000000000000 ) ;
#262 = ORIENTED_EDGE ( 'NONE', *, *, #2, .T. ) ;
#263 = DIRECTION ( 'NONE',  ( 0.000000000000000000, 0.000000000000000000, -1.000000000000000000 ) ) ;
#264 = ADVANCED_FACE ( 'NONE', ( #8 ), #10, .T. ) ;
#265 = DIRECTION ( 'NONE',  ( 0.000000000000000000, -1.000000000000000000, -0.000000000000000000 ) ) ;
#266 = CARTESIAN_POINT ( 'NONE',  ( 6.123233995736772199E-17, 2.500000000000000000, 0.000000000000000000 ) ) ;
#267 = PRODUCT_DEFINITION_FORMATION_WITH_SPECIFIED_SOURCE ( 'ANY', '', #298, .NOT_KNOWN. ) ;
#268 = EDGE_CURVE ( 'NONE', #248, #301, #202, .T. ) ;
#269 = VERTEX_POINT ( 'NONE', #62 ) ;
#270 = ORIENTED_EDGE ( 'NONE', *, *, #55, .F. ) ;
#271 = UNCERTAINTY_MEASURE_WITH_UNIT (LENGTH_MEASURE( 1.000000000000000082E-05 ), #105, 'distance_accuracy_value', 'NONE');
#272 = COLOUR_RGB ( '',0.7921568627450980005, 0.8196078431372548767, 0.9333333333333333481 ) ;
#273 = PRESENTATION_STYLE_ASSIGNMENT (( #57 ) ) ;
#274 = CARTESIAN_POINT ( 'NONE',  ( 0.2500000000000000000, 2.500000000000000000, 0.000000000000000000 ) ) ;
#275 = SURFACE_SIDE_STYLE ('',( #88 ) ) ;
#276 = CARTESIAN_POINT ( 'NONE',  ( 0.000000000000000000, 0.000000000000000000, 0.000000000000000000 ) ) ;
#277 = PLANE ( 'NONE',  #183 ) ;
#278 = ORIENTED_EDGE ( 'NONE', *, *, #283, .T. ) ;
#279 = DIRECTION ( 'NONE',  ( 3.265724797726278260E-17, 1.000000000000000000, -0.000000000000000000 ) ) ;
#280 = PRESENTATION_LAYER_ASSIGNMENT (  '', '', ( #61 ) ) ;
#281 = AXIS2_PLACEMENT_3D ( 'NONE', #123, #285, #222 ) ;
#282 = PLANE ( 'NONE',  #94 ) ;
#283 = EDGE_CURVE ( 'NONE', #301, #141, #157, .T. ) ;
#284 = AXIS2_PLACEMENT_3D ( 'NONE', #255, #65, #293 ) ;
#285 = DIRECTION ( 'NONE',  ( -0.000000000000000000, -1.000000000000000000, -0.000000000000000000 ) ) ;
#286 = UNCERTAINTY_MEASURE_WITH_UNIT (LENGTH_MEASURE( 1.000000000000000082E-05 ), #145, 'distance_accuracy_value', 'NONE');
#287 = AXIS2_PLACEMENT_3D ( 'NONE', #266, #43, #127 ) ;
#288 = CIRCLE ( 'NONE', #284, 0.2500000000000000000 ) ;
#289 = AXIS2_PLACEMENT_3D ( 'NONE', #168, #265, #263 ) ;
#290 = LENGTH_MEASURE_WITH_UNIT ( LENGTH_MEASURE( 0.02539999999999999897 ), #58 );
#291 = DIMENSIONAL_EXPONENTS ( 1.000000000000000000, 0.000000000000000000, 0.000000000000000000, 0.000000000000000000, 0.000000000000000000, 0.000000000000000000, 0.000000000000000000 ) ;
#292 = CARTESIAN_POINT ( 'NONE',  ( 0.000000000000000000, 0.6250000000000000000, 0.000000000000000000 ) ) ;
#293 = DIRECTION ( 'NONE',  ( -1.000000000000000000, 0.000000000000000000, 0.000000000000000000 ) ) ;
#294 = DIRECTION ( 'NONE',  ( -1.000000000000000000, 3.265724797726278260E-17, 0.000000000000000000 ) ) ;
#295 =( CONVERSION_BASED_UNIT ( 'INCH', #305 ) LENGTH_UNIT ( ) NAMED_UNIT ( #291 ) );
#296 = ORIENTED_EDGE ( 'NONE', *, *, #160, .T. ) ;
#297 = MECHANICAL_DESIGN_GEOMETRIC_PRESENTATION_REPRESENTATION (  '', ( #18 ), #227 ) ;
#298 = PRODUCT ( '82270W', '82270W', '', ( #92 ) ) ;
#299 = DIRECTION ( 'NONE',  ( 1.000000000000000000, 0.000000000000000000, 0.000000000000000000 ) ) ;
#300 =( NAMED_UNIT ( * ) SI_UNIT ( $, .STERADIAN. ) SOLID_ANGLE_UNIT ( ) );
#301 = VERTEX_POINT ( 'NONE', #206 ) ;
#302 = CARTESIAN_POINT ( 'NONE',  ( 0.000000000000000000, 0.000000000000000000, 0.000000000000000000 ) ) ;
#303 = DIRECTION ( 'NONE',  ( -3.265724797726278260E-17, -1.000000000000000000, 0.000000000000000000 ) ) ;
#304 = ADVANCED_FACE ( 'NONE', ( #108 ), #277, .F. ) ;
#305 = LENGTH_MEASURE_WITH_UNIT ( LENGTH_MEASURE( 0.02539999999999999897 ), #37 );
#306 = STYLED_ITEM ( 'NONE', ( #273 ), #190 ) ;
#307 = SURFACE_SIDE_STYLE ('',( #210 ) ) ;
#308 = DIMENSIONAL_EXPONENTS ( 1.000000000000000000, 0.000000000000000000, 0.000000000000000000, 0.000000000000000000, 0.000000000000000000, 0.000000000000000000, 0.000000000000000000 ) ;
#309 =( CONVERSION_BASED_UNIT ( 'INCH', #150 ) LENGTH_UNIT ( ) NAMED_UNIT ( #44 ) );
ENDSEC;
END-ISO-10303-21;
