ISO-10303-21;
HEADER;
FILE_DESCRIPTION (( 'STEP AP214' ),
    '1' );
FILE_NAME ('Micro_DM-375-2120.STEP',
    '2021-09-02T16:03:52',
    ( '' ),
    ( '' ),
    'SwSTEP 2.0',
    'SolidWorks 2020',
    '' );
FILE_SCHEMA (( 'AUTOMOTIVE_DESIGN' ));
ENDSEC;

DATA;
#1 = VECTOR ( 'NONE', #298, 39.37007874015748143 ) ;
#2 = DIRECTION ( 'NONE',  ( -1.000000000000000000, 0.0000000000000000000, 0.0000000000000000000 ) ) ;
#3 = ADVANCED_FACE ( 'NONE', ( #250 ), #162, .T. ) ;
#4 = ORIENTED_EDGE ( 'NONE', *, *, #66, .F. ) ;
#5 = APPLICATION_CONTEXT ( 'automotive_design' ) ;
#6 = UNCERTAINTY_MEASURE_WITH_UNIT (LENGTH_MEASURE( 1.000000000000000082E-05 ), #90, 'distance_accuracy_value', 'NONE');
#7 = FACE_OUTER_BOUND ( 'NONE', #65, .T. ) ;
#8 = CARTESIAN_POINT ( 'NONE',  ( -0.1874500000000001443, 0.0000000000000000000, 1.000000000000000000 ) ) ;
#9 = DIRECTION ( 'NONE',  ( -1.000000000000000000, 0.0000000000000000000, 0.0000000000000000000 ) ) ;
#10 = CONICAL_SURFACE ( 'NONE', #238, 0.007499999999999999722, 1.047197551196600518 ) ;
#11 = EDGE_LOOP ( 'NONE', ( #40, #88 ) ) ;
#12 = CARTESIAN_POINT ( 'NONE',  ( 0.0000000000000000000, 0.0000000000000000000, 1.000000000000000000 ) ) ;
#13 = VERTEX_POINT ( 'NONE', #8 ) ;
#14 = ORIENTED_EDGE ( 'NONE', *, *, #220, .T. ) ;
#15 = SHAPE_DEFINITION_REPRESENTATION ( #294, #246 ) ;
#16 = AXIS2_PLACEMENT_3D ( 'NONE', #205, #86, #210 ) ;
#17 = AXIS2_PLACEMENT_3D ( 'NONE', #224, #151, #2 ) ;
#18 = DIRECTION ( 'NONE',  ( 0.0000000000000000000, 0.0000000000000000000, 1.000000000000000000 ) ) ;
#19 = EDGE_CURVE ( 'NONE', #299, #188, #237, .T. ) ;
#20 = CIRCLE ( 'NONE', #108, 0.1724999999999995981 ) ;
#21 = ADVANCED_FACE ( 'NONE', ( #311 ), #87, .T. ) ;
#22 = DIRECTION ( 'NONE',  ( 1.000000000000000000, 0.0000000000000000000, 0.0000000000000000000 ) ) ;
#23 = AXIS2_PLACEMENT_3D ( 'NONE', #184, #236, #170 ) ;
#24 = DIRECTION ( 'NONE',  ( 0.0000000000000000000, 0.0000000000000000000, 1.000000000000000000 ) ) ;
#25 = ORIENTED_EDGE ( 'NONE', *, *, #52, .F. ) ;
#26 = CARTESIAN_POINT ( 'NONE',  ( 0.007499999999999999722, 0.0000000000000000000, 1.707404996040164512E-17 ) ) ;
#27 = ADVANCED_FACE ( 'NONE', ( #60 ), #97, .T. ) ;
#28 = AXIS2_PLACEMENT_3D ( 'NONE', #101, #326, #295 ) ;
#29 = ORIENTED_EDGE ( 'NONE', *, *, #58, .T. ) ;
#30 = PRESENTATION_STYLE_ASSIGNMENT (( #112 ) ) ;
#31 = DIRECTION ( 'NONE',  ( -0.0000000000000000000, -0.0000000000000000000, -1.000000000000000000 ) ) ;
#32 = ADVANCED_FACE ( 'NONE', ( #219 ), #216, .T. ) ;
#33 = LENGTH_MEASURE_WITH_UNIT ( LENGTH_MEASURE( 0.02539999999999999897 ), #59 );
#34 = CARTESIAN_POINT ( 'NONE',  ( 0.0000000000000000000, 0.0000000000000000000, 2.500000000000000000 ) ) ;
#35 = DIRECTION ( 'NONE',  ( -0.7071067811865385799, 0.0000000000000000000, -0.7071067811865563435 ) ) ;
#36 = AXIS2_PLACEMENT_3D ( 'NONE', #197, #53, #199 ) ;
#37 = LENGTH_MEASURE_WITH_UNIT ( LENGTH_MEASURE( 0.02539999999999999897 ), #165 );
#38 = ORIENTED_EDGE ( 'NONE', *, *, #164, .F. ) ;
#39 = SURFACE_STYLE_FILL_AREA ( #256 ) ;
#40 = ORIENTED_EDGE ( 'NONE', *, *, #324, .F. ) ;
#41 = DIRECTION ( 'NONE',  ( -1.000000000000000000, 0.0000000000000000000, 0.0000000000000000000 ) ) ;
#42 = CARTESIAN_POINT ( 'NONE',  ( 0.0000000000000000000, 0.0000000000000000000, 2.500000000000000000 ) ) ;
#43 = EDGE_CURVE ( 'NONE', #283, #113, #100, .T. ) ;
#44 = VECTOR ( 'NONE', #35, 39.37007874015748854 ) ;
#45 =( GEOMETRIC_REPRESENTATION_CONTEXT ( 3 ) GLOBAL_UNCERTAINTY_ASSIGNED_CONTEXT ( ( #316 ) ) GLOBAL_UNIT_ASSIGNED_CONTEXT ( ( #134, #288, #140 ) ) REPRESENTATION_CONTEXT ( 'NONE', 'WORKASPACE' ) );
#46 = ADVANCED_FACE ( 'NONE', ( #99 ), #289, .T. ) ;
#47 = CARTESIAN_POINT ( 'NONE',  ( 0.1875000000000000278, 2.296212748401287726E-17, 2.500000000000000000 ) ) ;
#48 = DIRECTION ( 'NONE',  ( 1.000000000000000000, 0.0000000000000000000, 0.0000000000000000000 ) ) ;
#49 = AXIS2_PLACEMENT_3D ( 'NONE', #103, #174, #267 ) ;
#50 = FACE_OUTER_BOUND ( 'NONE', #305, .T. ) ;
#51 = CARTESIAN_POINT ( 'NONE',  ( 0.1724999999999995981, 2.204364238465233357E-17, 2.500000000000000000 ) ) ;
#52 = EDGE_CURVE ( 'NONE', #135, #76, #319, .T. ) ;
#53 = DIRECTION ( 'NONE',  ( 0.0000000000000000000, 0.0000000000000000000, 1.000000000000000000 ) ) ;
#54 = ORIENTED_EDGE ( 'NONE', *, *, #83, .T. ) ;
#55 = CIRCLE ( 'NONE', #265, 0.007499999999999999722 ) ;
#56 = DIRECTION ( 'NONE',  ( 0.0000000000000000000, 0.0000000000000000000, 1.000000000000000000 ) ) ;
#57 = VERTEX_POINT ( 'NONE', #139 ) ;
#58 = EDGE_CURVE ( 'NONE', #157, #254, #222, .T. ) ;
#59 =( LENGTH_UNIT ( ) NAMED_UNIT ( * ) SI_UNIT ( $, .METRE. ) );
#60 = FACE_OUTER_BOUND ( 'NONE', #82, .T. ) ;
#61 = UNCERTAINTY_MEASURE_WITH_UNIT (LENGTH_MEASURE( 1.000000000000000082E-05 ), #318, 'distance_accuracy_value', 'NONE');
#62 = ORIENTED_EDGE ( 'NONE', *, *, #83, .F. ) ;
#63 = DIRECTION ( 'NONE',  ( 0.7071067811865385799, 8.659560562354823157E-17, -0.7071067811865563435 ) ) ;
#64 = DIMENSIONAL_EXPONENTS ( 1.000000000000000000, 0.0000000000000000000, 0.0000000000000000000, 0.0000000000000000000, 0.0000000000000000000, 0.0000000000000000000, 0.0000000000000000000 ) ;
#65 = EDGE_LOOP ( 'NONE', ( #229, #133, #54, #309 ) ) ;
#66 = EDGE_CURVE ( 'NONE', #113, #283, #242, .T. ) ;
#67 = DIRECTION ( 'NONE',  ( -0.0000000000000000000, -0.0000000000000000000, -1.000000000000000000 ) ) ;
#68 = CARTESIAN_POINT ( 'NONE',  ( -0.1875000000000000278, 0.0000000000000000000, 2.484999999999999432 ) ) ;
#69 = DIRECTION ( 'NONE',  ( -1.000000000000000000, 0.0000000000000000000, 0.0000000000000000000 ) ) ;
#70 = MECHANICAL_DESIGN_GEOMETRIC_PRESENTATION_REPRESENTATION (  '', ( #125 ), #247 ) ;
#71 = FACE_OUTER_BOUND ( 'NONE', #211, .T. ) ;
#72 = DIRECTION ( 'NONE',  ( 0.0000000000000000000, 0.0000000000000000000, -1.000000000000000000 ) ) ;
#73 = VERTEX_POINT ( 'NONE', #93 ) ;
#74 = LENGTH_MEASURE_WITH_UNIT ( LENGTH_MEASURE( 0.02539999999999999897 ), #147 );
#75 = CARTESIAN_POINT ( 'NONE',  ( 0.1874500000000000610, 0.0000000000000000000, 0.1038941809406725564 ) ) ;
#76 = VERTEX_POINT ( 'NONE', #68 ) ;
#77 = EDGE_CURVE ( 'NONE', #254, #157, #55, .T. ) ;
#78 = CARTESIAN_POINT ( 'NONE',  ( 0.0000000000000000000, 0.0000000000000000000, 1.707404996040164512E-17 ) ) ;
#79 = CARTESIAN_POINT ( 'NONE',  ( 0.007499999999999999722, 0.0000000000000000000, 1.707404996040164512E-17 ) ) ;
#80 = ORIENTED_EDGE ( 'NONE', *, *, #58, .F. ) ;
#81 = FILL_AREA_STYLE ('',( #313 ) ) ;
#82 = EDGE_LOOP ( 'NONE', ( #182, #226, #248, #25 ) ) ;
#83 = EDGE_CURVE ( 'NONE', #13, #57, #116, .T. ) ;
#84 = AXIS2_PLACEMENT_3D ( 'NONE', #187, #144, #96 ) ;
#85 = MECHANICAL_DESIGN_GEOMETRIC_PRESENTATION_REPRESENTATION (  '', ( #270 ), #291 ) ;
#86 = DIRECTION ( 'NONE',  ( -0.0000000000000000000, -0.0000000000000000000, -1.000000000000000000 ) ) ;
#87 = CYLINDRICAL_SURFACE ( 'NONE', #304, 0.1875000000000000278 ) ;
#88 = ORIENTED_EDGE ( 'NONE', *, *, #217, .F. ) ;
#89 = LINE ( 'NONE', #169, #323 ) ;
#90 =( CONVERSION_BASED_UNIT ( 'INCH', #37 ) LENGTH_UNIT ( ) NAMED_UNIT ( #264 ) );
#91 = DIRECTION ( 'NONE',  ( -1.000000000000000000, 0.0000000000000000000, 0.0000000000000000000 ) ) ;
#92 =( NAMED_UNIT ( * ) PLANE_ANGLE_UNIT ( ) SI_UNIT ( $, .RADIAN. ) );
#93 = CARTESIAN_POINT ( 'NONE',  ( 0.1875000000000000278, 2.296212748401287726E-17, 2.484999999999999432 ) ) ;
#94 = EDGE_CURVE ( 'NONE', #183, #135, #20, .T. ) ;
#95 = DIRECTION ( 'NONE',  ( -1.000000000000000000, 0.0000000000000000000, 0.0000000000000000000 ) ) ;
#96 = DIRECTION ( 'NONE',  ( -1.000000000000000000, 0.0000000000000000000, 0.0000000000000000000 ) ) ;
#97 = CONICAL_SURFACE ( 'NONE', #306, 0.1724999999999995981, 0.7853981633974357335 ) ;
#98 = CARTESIAN_POINT ( 'NONE',  ( 0.1875000000000000278, 2.296212748401287726E-17, 1.000000000000000000 ) ) ;
#99 = FACE_OUTER_BOUND ( 'NONE', #314, .T. ) ;
#100 = CIRCLE ( 'NONE', #107, 0.1875000000000000278 ) ;
#101 = CARTESIAN_POINT ( 'NONE',  ( 0.0000000000000000000, 0.0000000000000000000, 2.500000000000000000 ) ) ;
#102 = CIRCLE ( 'NONE', #158, 0.1874500000000000333 ) ;
#103 = CARTESIAN_POINT ( 'NONE',  ( 0.0000000000000000000, 0.0000000000000000000, 1.707404996040164512E-17 ) ) ;
#104 = CARTESIAN_POINT ( 'NONE',  ( 0.0000000000000000000, 0.0000000000000000000, 1.000000000000000000 ) ) ;
#105 = ORIENTED_EDGE ( 'NONE', *, *, #43, .T. ) ;
#106 = CARTESIAN_POINT ( 'NONE',  ( -0.1724999999999995981, 0.0000000000000000000, 2.500000000000000000 ) ) ;
#107 = AXIS2_PLACEMENT_3D ( 'NONE', #292, #262, #69 ) ;
#108 = AXIS2_PLACEMENT_3D ( 'NONE', #284, #209, #322 ) ;
#109 = DIRECTION ( 'NONE',  ( 0.0000000000000000000, 0.0000000000000000000, -1.000000000000000000 ) ) ;
#110 = CLOSED_SHELL ( 'NONE', ( #32, #159, #27, #21, #3, #46, #149, #230, #275, #320, #145 ) ) ;
#111 = EDGE_CURVE ( 'NONE', #183, #73, #89, .T. ) ;
#112 = SURFACE_STYLE_USAGE ( .BOTH. , #132 ) ;
#113 = VERTEX_POINT ( 'NONE', #98 ) ;
#114 = MANIFOLD_SOLID_BREP ( 'Cut-Revolve4', #110 ) ;
#115 = CARTESIAN_POINT ( 'NONE',  ( 0.1874500000000000610, 2.295600425001714235E-17, 0.0000000000000000000 ) ) ;
#116 = LINE ( 'NONE', #123, #146 ) ;
#117 = ORIENTED_EDGE ( 'NONE', *, *, #308, .T. ) ;
#118 = DIRECTION ( 'NONE',  ( -0.0000000000000000000, -0.0000000000000000000, -1.000000000000000000 ) ) ;
#119 = SURFACE_STYLE_FILL_AREA ( #81 ) ;
#120 = AXIS2_PLACEMENT_3D ( 'NONE', #142, #31, #91 ) ;
#121 =( NAMED_UNIT ( * ) SI_UNIT ( $, .STERADIAN. ) SOLID_ANGLE_UNIT ( ) );
#122 = DIRECTION ( 'NONE',  ( -0.0000000000000000000, -0.0000000000000000000, -1.000000000000000000 ) ) ;
#123 = CARTESIAN_POINT ( 'NONE',  ( -0.1874500000000000610, 0.0000000000000000000, 0.0000000000000000000 ) ) ;
#124 = CARTESIAN_POINT ( 'NONE',  ( 0.0000000000000000000, 0.0000000000000000000, 2.500000000000000000 ) ) ;
#125 = STYLED_ITEM ( 'NONE', ( #30 ), #246 ) ;
#126 = EDGE_CURVE ( 'NONE', #76, #283, #301, .T. ) ;
#127 = ORIENTED_EDGE ( 'NONE', *, *, #126, .T. ) ;
#128 = CARTESIAN_POINT ( 'NONE',  ( -0.007499999999999999722, 1.193724467468882761E-17, 1.707404996040164512E-17 ) ) ;
#129 = LINE ( 'NONE', #26, #1 ) ;
#130 = EDGE_LOOP ( 'NONE', ( #286, #178, #206, #208 ) ) ;
#131 = CIRCLE ( 'NONE', #214, 0.1875000000000000278 ) ;
#132 = SURFACE_SIDE_STYLE ('',( #119 ) ) ;
#133 = ORIENTED_EDGE ( 'NONE', *, *, #217, .T. ) ;
#134 =( CONVERSION_BASED_UNIT ( 'INCH', #33 ) LENGTH_UNIT ( ) NAMED_UNIT ( #137 ) );
#135 = VERTEX_POINT ( 'NONE', #106 ) ;
#136 = DIRECTION ( 'NONE',  ( 0.0000000000000000000, 0.0000000000000000000, -1.000000000000000000 ) ) ;
#137 = DIMENSIONAL_EXPONENTS ( 1.000000000000000000, 0.0000000000000000000, 0.0000000000000000000, 0.0000000000000000000, 0.0000000000000000000, 0.0000000000000000000, 0.0000000000000000000 ) ;
#138 = PRESENTATION_LAYER_ASSIGNMENT (  '', '', ( #270 ) ) ;
#139 = CARTESIAN_POINT ( 'NONE',  ( -0.1874500000000000610, 2.295600425001714852E-17, 0.1038941809406725564 ) ) ;
#140 =( NAMED_UNIT ( * ) SI_UNIT ( $, .STERADIAN. ) SOLID_ANGLE_UNIT ( ) );
#141 = ORIENTED_EDGE ( 'NONE', *, *, #164, .T. ) ;
#142 = CARTESIAN_POINT ( 'NONE',  ( 0.0000000000000000000, 0.0000000000000000000, 2.500000000000000000 ) ) ;
#143 = APPLICATION_PROTOCOL_DEFINITION ( 'draft international standard', 'automotive_design', 1998, #5 ) ;
#144 = DIRECTION ( 'NONE',  ( -0.0000000000000000000, -0.0000000000000000000, -1.000000000000000000 ) ) ;
#145 = ADVANCED_FACE ( 'NONE', ( #227 ), #180, .F. ) ;
#146 = VECTOR ( 'NONE', #118, 39.37007874015748143 ) ;
#147 =( LENGTH_UNIT ( ) NAMED_UNIT ( * ) SI_UNIT ( $, .METRE. ) );
#148 = AXIS2_PLACEMENT_3D ( 'NONE', #104, #303, #156 ) ;
#149 = ADVANCED_FACE ( 'NONE', ( #245 ), #218, .T. ) ;
#150 = CARTESIAN_POINT ( 'NONE',  ( -0.1875000000000000278, 0.0000000000000000000, 1.000000000000000000 ) ) ;
#151 = DIRECTION ( 'NONE',  ( -0.0000000000000000000, -0.0000000000000000000, -1.000000000000000000 ) ) ;
#152 = VECTOR ( 'NONE', #177, 39.37007874015748143 ) ;
#153 = ORIENTED_EDGE ( 'NONE', *, *, #269, .T. ) ;
#154 = DIRECTION ( 'NONE',  ( -1.000000000000000000, 0.0000000000000000000, 0.0000000000000000000 ) ) ;
#155 = CARTESIAN_POINT ( 'NONE',  ( 0.1874500000000001443, 0.0000000000000000000, 1.000000000000000000 ) ) ;
#156 = DIRECTION ( 'NONE',  ( -1.000000000000000000, 0.0000000000000000000, 0.0000000000000000000 ) ) ;
#157 = VERTEX_POINT ( 'NONE', #128 ) ;
#158 = AXIS2_PLACEMENT_3D ( 'NONE', #280, #307, #191 ) ;
#159 = ADVANCED_FACE ( 'NONE', ( #221 ), #10, .T. ) ;
#160 = VECTOR ( 'NONE', #296, 39.37007874015748143 ) ;
#161 = DIRECTION ( 'NONE',  ( 1.000000000000000000, 0.0000000000000000000, 0.0000000000000000000 ) ) ;
#162 = CYLINDRICAL_SURFACE ( 'NONE', #120, 0.1875000000000000278 ) ;
#163 = CARTESIAN_POINT ( 'NONE',  ( 0.0000000000000000000, 0.0000000000000000000, 2.500000000000000000 ) ) ;
#164 = EDGE_CURVE ( 'NONE', #57, #188, #195, .T. ) ;
#165 =( LENGTH_UNIT ( ) NAMED_UNIT ( * ) SI_UNIT ( $, .METRE. ) );
#166 = ORIENTED_EDGE ( 'NONE', *, *, #126, .F. ) ;
#167 = AXIS2_PLACEMENT_3D ( 'NONE', #124, #109, #273 ) ;
#168 = EDGE_LOOP ( 'NONE', ( #80, #297, #141, #244 ) ) ;
#169 = CARTESIAN_POINT ( 'NONE',  ( 0.1724999999999995981, 2.112515728529179297E-17, 2.500000000000000000 ) ) ;
#170 = DIRECTION ( 'NONE',  ( -1.000000000000000000, 0.0000000000000000000, 0.0000000000000000000 ) ) ;
#171 = DIRECTION ( 'NONE',  ( 1.000000000000000000, 0.0000000000000000000, -0.0000000000000000000 ) ) ;
#172 = AXIS2_PLACEMENT_3D ( 'NONE', #12, #192, #9 ) ;
#173 = EDGE_LOOP ( 'NONE', ( #315, #29 ) ) ;
#174 = DIRECTION ( 'NONE',  ( 0.0000000000000000000, 0.0000000000000000000, 1.000000000000000000 ) ) ;
#175 = EDGE_CURVE ( 'NONE', #76, #73, #255, .T. ) ;
#176 = PRODUCT_DEFINITION_CONTEXT ( 'detailed design', #5, 'design' ) ;
#177 = DIRECTION ( 'NONE',  ( -0.0000000000000000000, -0.0000000000000000000, -1.000000000000000000 ) ) ;
#178 = ORIENTED_EDGE ( 'NONE', *, *, #269, .F. ) ;
#179 = FACE_BOUND ( 'NONE', #11, .T. ) ;
#180 = PLANE ( 'NONE',  #36 ) ;
#181 = LINE ( 'NONE', #327, #160 ) ;
#182 = ORIENTED_EDGE ( 'NONE', *, *, #94, .F. ) ;
#183 = VERTEX_POINT ( 'NONE', #51 ) ;
#184 = CARTESIAN_POINT ( 'NONE',  ( 0.0000000000000000000, 0.0000000000000000000, 1.000000000000000000 ) ) ;
#185 = DIRECTION ( 'NONE',  ( -1.000000000000000000, 0.0000000000000000000, 0.0000000000000000000 ) ) ;
#186 = ORIENTED_EDGE ( 'NONE', *, *, #324, .T. ) ;
#187 = CARTESIAN_POINT ( 'NONE',  ( 0.0000000000000000000, 0.0000000000000000000, 1.707404996040164512E-17 ) ) ;
#188 = VERTEX_POINT ( 'NONE', #75 ) ;
#189 = CONICAL_SURFACE ( 'NONE', #49, 0.007499999999999999722, 1.047197551196600518 ) ;
#190 = SURFACE_STYLE_USAGE ( .BOTH. , #207 ) ;
#191 = DIRECTION ( 'NONE',  ( -1.000000000000000000, 0.0000000000000000000, 0.0000000000000000000 ) ) ;
#192 = DIRECTION ( 'NONE',  ( -0.0000000000000000000, -0.0000000000000000000, -1.000000000000000000 ) ) ;
#193 = VECTOR ( 'NONE', #122, 39.37007874015748143 ) ;
#194 = DIRECTION ( 'NONE',  ( -0.0000000000000000000, -0.0000000000000000000, -1.000000000000000000 ) ) ;
#195 = CIRCLE ( 'NONE', #17, 0.1874500000000000333 ) ;
#196 = COLOUR_RGB ( '',0.7921568627450980005, 0.8196078431372548767, 0.9333333333333333481 ) ;
#197 = CARTESIAN_POINT ( 'NONE',  ( 0.0000000000000000000, 0.0000000000000000000, 0.0000000000000000000 ) ) ;
#198 = CARTESIAN_POINT ( 'NONE',  ( 0.0000000000000000000, 0.0000000000000000000, 2.484999999999999432 ) ) ;
#199 = DIRECTION ( 'NONE',  ( 1.000000000000000000, 0.0000000000000000000, -0.0000000000000000000 ) ) ;
#200 = CIRCLE ( 'NONE', #148, 0.1874500000000001443 ) ;
#201 = PRODUCT ( 'Micro_DM-375-2120', 'Micro_DM-375-2120', '', ( #261 ) ) ;
#202 = ORIENTED_EDGE ( 'NONE', *, *, #293, .T. ) ;
#203 =( NAMED_UNIT ( * ) SI_UNIT ( $, .STERADIAN. ) SOLID_ANGLE_UNIT ( ) );
#204 = ORIENTED_EDGE ( 'NONE', *, *, #66, .T. ) ;
#205 = CARTESIAN_POINT ( 'NONE',  ( 0.0000000000000000000, 0.0000000000000000000, 0.0000000000000000000 ) ) ;
#206 = ORIENTED_EDGE ( 'NONE', *, *, #52, .T. ) ;
#207 = SURFACE_SIDE_STYLE ('',( #39 ) ) ;
#208 = ORIENTED_EDGE ( 'NONE', *, *, #293, .F. ) ;
#209 = DIRECTION ( 'NONE',  ( 0.0000000000000000000, 0.0000000000000000000, 1.000000000000000000 ) ) ;
#210 = DIRECTION ( 'NONE',  ( -1.000000000000000000, 0.0000000000000000000, 0.0000000000000000000 ) ) ;
#211 = EDGE_LOOP ( 'NONE', ( #329, #302, #14, #117 ) ) ;
#212 = CARTESIAN_POINT ( 'NONE',  ( 0.1874500000000001443, 2.295600425001715468E-17, 1.000000000000000000 ) ) ;
#213 = DIRECTION ( 'NONE',  ( -0.0000000000000000000, -0.0000000000000000000, -1.000000000000000000 ) ) ;
#214 = AXIS2_PLACEMENT_3D ( 'NONE', #198, #72, #48 ) ;
#215 = CARTESIAN_POINT ( 'NONE',  ( 0.0000000000000000000, 0.0000000000000000000, 0.0000000000000000000 ) ) ;
#216 = CYLINDRICAL_SURFACE ( 'NONE', #276, 0.1874500000000000610 ) ;
#217 = EDGE_CURVE ( 'NONE', #299, #13, #200, .T. ) ;
#218 = CONICAL_SURFACE ( 'NONE', #167, 0.1724999999999995981, 0.7853981633974357335 ) ;
#219 = FACE_OUTER_BOUND ( 'NONE', #251, .T. ) ;
#220 = EDGE_CURVE ( 'NONE', #254, #188, #129, .T. ) ;
#221 = FACE_OUTER_BOUND ( 'NONE', #168, .T. ) ;
#222 = CIRCLE ( 'NONE', #84, 0.007499999999999999722 ) ;
#223 = PRODUCT_DEFINITION_FORMATION_WITH_SPECIFIED_SOURCE ( 'ANY', '', #201, .NOT_KNOWN. ) ;
#224 = CARTESIAN_POINT ( 'NONE',  ( 0.0000000000000000000, 0.0000000000000000000, 0.1038941809406725564 ) ) ;
#225 = DIRECTION ( 'NONE',  ( 0.0000000000000000000, 0.0000000000000000000, -1.000000000000000000 ) ) ;
#226 = ORIENTED_EDGE ( 'NONE', *, *, #111, .T. ) ;
#227 = FACE_OUTER_BOUND ( 'NONE', #173, .T. ) ;
#228 = DIRECTION ( 'NONE',  ( -0.0000000000000000000, 0.0000000000000000000, -1.000000000000000000 ) ) ;
#229 = ORIENTED_EDGE ( 'NONE', *, *, #19, .F. ) ;
#230 = ADVANCED_FACE ( 'NONE', ( #179, #50 ), #325, .T. ) ;
#231 = ORIENTED_EDGE ( 'NONE', *, *, #290, .T. ) ;
#232 = DIRECTION ( 'NONE',  ( -1.000000000000000000, 0.0000000000000000000, 0.0000000000000000000 ) ) ;
#233 = VECTOR ( 'NONE', #241, 39.37007874015748143 ) ;
#234 = PRODUCT_RELATED_PRODUCT_CATEGORY ( 'part', '', ( #201 ) ) ;
#235 = ORIENTED_EDGE ( 'NONE', *, *, #175, .T. ) ;
#236 = DIRECTION ( 'NONE',  ( -0.0000000000000000000, -0.0000000000000000000, -1.000000000000000000 ) ) ;
#237 = LINE ( 'NONE', #115, #193 ) ;
#238 = AXIS2_PLACEMENT_3D ( 'NONE', #78, #24, #22 ) ;
#239 = PRODUCT_DEFINITION ( 'UNKNOWN', '', #223, #176 ) ;
#240 = AXIS2_PLACEMENT_3D ( 'NONE', #155, #228, #154 ) ;
#241 = DIRECTION ( 'NONE',  ( -0.0000000000000000000, -0.0000000000000000000, -1.000000000000000000 ) ) ;
#242 = CIRCLE ( 'NONE', #172, 0.1875000000000000278 ) ;
#243 = CARTESIAN_POINT ( 'NONE',  ( -0.1875000000000000278, 0.0000000000000000000, 2.500000000000000000 ) ) ;
#244 = ORIENTED_EDGE ( 'NONE', *, *, #220, .F. ) ;
#245 = FACE_OUTER_BOUND ( 'NONE', #130, .T. ) ;
#246 = ADVANCED_BREP_SHAPE_REPRESENTATION ( 'Micro_DM-375-2120', ( #114, #310 ), #45 ) ;
#247 =( GEOMETRIC_REPRESENTATION_CONTEXT ( 3 ) GLOBAL_UNCERTAINTY_ASSIGNED_CONTEXT ( ( #6 ) ) GLOBAL_UNIT_ASSIGNED_CONTEXT ( ( #90, #253, #121 ) ) REPRESENTATION_CONTEXT ( 'NONE', 'WORKASPACE' ) );
#248 = ORIENTED_EDGE ( 'NONE', *, *, #175, .F. ) ;
#249 = APPLICATION_PROTOCOL_DEFINITION ( 'draft international standard', 'automotive_design', 1998, #321 ) ;
#250 = FACE_OUTER_BOUND ( 'NONE', #328, .T. ) ;
#251 = EDGE_LOOP ( 'NONE', ( #186, #279, #38, #62 ) ) ;
#252 = CARTESIAN_POINT ( 'NONE',  ( -0.1724999999999995981, 0.0000000000000000000, 2.500000000000000000 ) ) ;
#253 =( NAMED_UNIT ( * ) PLANE_ANGLE_UNIT ( ) SI_UNIT ( $, .RADIAN. ) );
#254 = VERTEX_POINT ( 'NONE', #79 ) ;
#255 = CIRCLE ( 'NONE', #287, 0.1875000000000000278 ) ;
#256 = FILL_AREA_STYLE ('',( #259 ) ) ;
#257 = ORIENTED_EDGE ( 'NONE', *, *, #43, .F. ) ;
#258 = EDGE_CURVE ( 'NONE', #157, #57, #181, .T. ) ;
#259 = FILL_AREA_STYLE_COLOUR ( '', #196 ) ;
#260 = CARTESIAN_POINT ( 'NONE',  ( 0.0000000000000000000, 0.0000000000000000000, 1.707404996040164512E-17 ) ) ;
#261 = PRODUCT_CONTEXT ( 'NONE', #321, 'mechanical' ) ;
#262 = DIRECTION ( 'NONE',  ( -0.0000000000000000000, -0.0000000000000000000, -1.000000000000000000 ) ) ;
#263 = COLOUR_RGB ( '',0.7921568627450980005, 0.8196078431372548767, 0.9333333333333333481 ) ;
#264 = DIMENSIONAL_EXPONENTS ( 1.000000000000000000, 0.0000000000000000000, 0.0000000000000000000, 0.0000000000000000000, 0.0000000000000000000, 0.0000000000000000000, 0.0000000000000000000 ) ;
#265 = AXIS2_PLACEMENT_3D ( 'NONE', #260, #67, #41 ) ;
#266 = LINE ( 'NONE', #47, #233 ) ;
#267 = DIRECTION ( 'NONE',  ( 1.000000000000000000, 0.0000000000000000000, 0.0000000000000000000 ) ) ;
#268 = EDGE_LOOP ( 'NONE', ( #235, #231, #257, #166 ) ) ;
#269 = EDGE_CURVE ( 'NONE', #135, #183, #317, .T. ) ;
#270 = STYLED_ITEM ( 'NONE', ( #312 ), #114 ) ;
#271 = CARTESIAN_POINT ( 'NONE',  ( 0.0000000000000000000, 0.0000000000000000000, 2.484999999999999432 ) ) ;
#272 = DIRECTION ( 'NONE',  ( 1.000000000000000000, 0.0000000000000000000, 0.0000000000000000000 ) ) ;
#273 = DIRECTION ( 'NONE',  ( -1.000000000000000000, 0.0000000000000000000, 0.0000000000000000000 ) ) ;
#274 = ORIENTED_EDGE ( 'NONE', *, *, #290, .F. ) ;
#275 = ADVANCED_FACE ( 'NONE', ( #71 ), #189, .T. ) ;
#276 = AXIS2_PLACEMENT_3D ( 'NONE', #215, #194, #95 ) ;
#277 = CIRCLE ( 'NONE', #23, 0.1874500000000001443 ) ;
#278 = CARTESIAN_POINT ( 'NONE',  ( 0.0000000000000000000, 0.0000000000000000000, 0.0000000000000000000 ) ) ;
#279 = ORIENTED_EDGE ( 'NONE', *, *, #19, .T. ) ;
#280 = CARTESIAN_POINT ( 'NONE',  ( 0.0000000000000000000, 0.0000000000000000000, 0.1038941809406725564 ) ) ;
#281 = ORIENTED_EDGE ( 'NONE', *, *, #94, .T. ) ;
#282 = CYLINDRICAL_SURFACE ( 'NONE', #16, 0.1874500000000000610 ) ;
#283 = VERTEX_POINT ( 'NONE', #150 ) ;
#284 = CARTESIAN_POINT ( 'NONE',  ( 0.0000000000000000000, 0.0000000000000000000, 2.500000000000000000 ) ) ;
#285 = AXIS2_PLACEMENT_3D ( 'NONE', #42, #18, #171 ) ;
#286 = ORIENTED_EDGE ( 'NONE', *, *, #111, .F. ) ;
#287 = AXIS2_PLACEMENT_3D ( 'NONE', #271, #225, #272 ) ;
#288 =( NAMED_UNIT ( * ) PLANE_ANGLE_UNIT ( ) SI_UNIT ( $, .RADIAN. ) );
#289 = PLANE ( 'NONE',  #285 ) ;
#290 = EDGE_CURVE ( 'NONE', #73, #113, #266, .T. ) ;
#291 =( GEOMETRIC_REPRESENTATION_CONTEXT ( 3 ) GLOBAL_UNCERTAINTY_ASSIGNED_CONTEXT ( ( #61 ) ) GLOBAL_UNIT_ASSIGNED_CONTEXT ( ( #318, #92, #203 ) ) REPRESENTATION_CONTEXT ( 'NONE', 'WORKASPACE' ) );
#292 = CARTESIAN_POINT ( 'NONE',  ( 0.0000000000000000000, 0.0000000000000000000, 1.000000000000000000 ) ) ;
#293 = EDGE_CURVE ( 'NONE', #73, #76, #131, .T. ) ;
#294 = PRODUCT_DEFINITION_SHAPE ( 'NONE', 'NONE',  #239 ) ;
#295 = DIRECTION ( 'NONE',  ( 1.000000000000000000, 0.0000000000000000000, 0.0000000000000000000 ) ) ;
#296 = DIRECTION ( 'NONE',  ( -0.8660254037844400399, 1.060575238724908640E-16, 0.4999999999999976685 ) ) ;
#297 = ORIENTED_EDGE ( 'NONE', *, *, #258, .T. ) ;
#298 = DIRECTION ( 'NONE',  ( 0.8660254037844400399, 0.0000000000000000000, 0.4999999999999976685 ) ) ;
#299 = VERTEX_POINT ( 'NONE', #212 ) ;
#300 = PRESENTATION_LAYER_ASSIGNMENT (  '', '', ( #125 ) ) ;
#301 = LINE ( 'NONE', #243, #152 ) ;
#302 = ORIENTED_EDGE ( 'NONE', *, *, #77, .F. ) ;
#303 = DIRECTION ( 'NONE',  ( -0.0000000000000000000, -0.0000000000000000000, -1.000000000000000000 ) ) ;
#304 = AXIS2_PLACEMENT_3D ( 'NONE', #163, #213, #185 ) ;
#305 = EDGE_LOOP ( 'NONE', ( #105, #204 ) ) ;
#306 = AXIS2_PLACEMENT_3D ( 'NONE', #34, #136, #232 ) ;
#307 = DIRECTION ( 'NONE',  ( -0.0000000000000000000, -0.0000000000000000000, -1.000000000000000000 ) ) ;
#308 = EDGE_CURVE ( 'NONE', #188, #57, #102, .T. ) ;
#309 = ORIENTED_EDGE ( 'NONE', *, *, #308, .F. ) ;
#310 = AXIS2_PLACEMENT_3D ( 'NONE', #278, #56, #161 ) ;
#311 = FACE_OUTER_BOUND ( 'NONE', #268, .T. ) ;
#312 = PRESENTATION_STYLE_ASSIGNMENT (( #190 ) ) ;
#313 = FILL_AREA_STYLE_COLOUR ( '', #263 ) ;
#314 = EDGE_LOOP ( 'NONE', ( #153, #281 ) ) ;
#315 = ORIENTED_EDGE ( 'NONE', *, *, #77, .T. ) ;
#316 = UNCERTAINTY_MEASURE_WITH_UNIT (LENGTH_MEASURE( 1.000000000000000082E-05 ), #134, 'distance_accuracy_value', 'NONE');
#317 = CIRCLE ( 'NONE', #28, 0.1724999999999995981 ) ;
#318 =( CONVERSION_BASED_UNIT ( 'INCH', #74 ) LENGTH_UNIT ( ) NAMED_UNIT ( #64 ) );
#319 = LINE ( 'NONE', #252, #44 ) ;
#320 = ADVANCED_FACE ( 'NONE', ( #7 ), #282, .T. ) ;
#321 = APPLICATION_CONTEXT ( 'automotive_design' ) ;
#322 = DIRECTION ( 'NONE',  ( 1.000000000000000000, 0.0000000000000000000, 0.0000000000000000000 ) ) ;
#323 = VECTOR ( 'NONE', #63, 39.37007874015748854 ) ;
#324 = EDGE_CURVE ( 'NONE', #13, #299, #277, .T. ) ;
#325 = PLANE ( 'NONE',  #240 ) ;
#326 = DIRECTION ( 'NONE',  ( 0.0000000000000000000, 0.0000000000000000000, 1.000000000000000000 ) ) ;
#327 = CARTESIAN_POINT ( 'NONE',  ( -0.007499999999999999722, 9.184850993605147975E-19, 1.707404996040164512E-17 ) ) ;
#328 = EDGE_LOOP ( 'NONE', ( #274, #202, #127, #4 ) ) ;
#329 = ORIENTED_EDGE ( 'NONE', *, *, #258, .F. ) ;
ENDSEC;
END-ISO-10303-21;
