ISO-10303-21;
HEADER;
FILE_DESCRIPTION (( 'STEP AP214' ),
    '1' );
FILE_NAME ('Micro_BMR-015-2.STEP',
    '2021-09-03T13:44:49',
    ( '' ),
    ( '' ),
    'SwSTEP 2.0',
    'SolidWorks 2020',
    '' );
FILE_SCHEMA (( 'AUTOMOTIVE_DESIGN' ));
ENDSEC;

DATA;
#1 = PRODUCT_RELATED_PRODUCT_CATEGORY ( 'part', '', ( #66 ) ) ;
#2 = CARTESIAN_POINT ( 'NONE',  ( 0.0000000000000000000, 0.0000000000000000000, 1.485000000000000764 ) ) ;
#3 = UNCERTAINTY_MEASURE_WITH_UNIT (LENGTH_MEASURE( 1.000000000000000082E-05 ), #84, 'distance_accuracy_value', 'NONE');
#4 = APPLICATION_CONTEXT ( 'automotive_design' ) ;
#5 = COLOUR_RGB ( '',0.7921568627450980005, 0.8196078431372548767, 0.9333333333333333481 ) ;
#6 = FILL_AREA_STYLE_COLOUR ( '', #78 ) ;
#7 = AXIS2_PLACEMENT_3D ( 'NONE', #259, #313, #54 ) ;
#8 = DIMENSIONAL_EXPONENTS ( 1.000000000000000000, 0.0000000000000000000, 0.0000000000000000000, 0.0000000000000000000, 0.0000000000000000000, 0.0000000000000000000, 0.0000000000000000000 ) ;
#9 = EDGE_CURVE ( 'NONE', #141, #220, #283, .T. ) ;
#10 = UNCERTAINTY_MEASURE_WITH_UNIT (LENGTH_MEASURE( 1.000000000000000082E-05 ), #151, 'distance_accuracy_value', 'NONE');
#11 =( GEOMETRIC_REPRESENTATION_CONTEXT ( 3 ) GLOBAL_UNCERTAINTY_ASSIGNED_CONTEXT ( ( #10 ) ) GLOBAL_UNIT_ASSIGNED_CONTEXT ( ( #151, #179, #181 ) ) REPRESENTATION_CONTEXT ( 'NONE', 'WORKASPACE' ) );
#12 = FACE_OUTER_BOUND ( 'NONE', #73, .T. ) ;
#13 = EDGE_LOOP ( 'NONE', ( #295, #322, #40, #32 ) ) ;
#14 = DIRECTION ( 'NONE',  ( -0.7071067811865462405, 0.0000000000000000000, -0.7071067811865486830 ) ) ;
#15 = SURFACE_STYLE_USAGE ( .BOTH. , #279 ) ;
#16 = ADVANCED_FACE ( 'NONE', ( #285 ), #131, .T. ) ;
#17 = CARTESIAN_POINT ( 'NONE',  ( -0.007492499999999994824, 4.285804554466057710E-18, 0.04499999999999999833 ) ) ;
#18 = CARTESIAN_POINT ( 'NONE',  ( 0.0000000000000000000, 0.0000000000000000000, 1.500000000000000222 ) ) ;
#19 = CLOSED_SHELL ( 'NONE', ( #323, #91, #16, #163, #34, #177, #77, #93, #121, #287, #168 ) ) ;
#20 = MECHANICAL_DESIGN_GEOMETRIC_PRESENTATION_REPRESENTATION (  '', ( #96 ), #139 ) ;
#21 = FACE_OUTER_BOUND ( 'NONE', #119, .T. ) ;
#22 = ORIENTED_EDGE ( 'NONE', *, *, #23, .F. ) ;
#23 = EDGE_CURVE ( 'NONE', #175, #111, #82, .T. ) ;
#24 = EDGE_CURVE ( 'NONE', #53, #172, #106, .T. ) ;
#25 = DIRECTION ( 'NONE',  ( 1.224646799147353207E-16, 1.000000000000000000, -0.0000000000000000000 ) ) ;
#26 = ORIENTED_EDGE ( 'NONE', *, *, #24, .F. ) ;
#27 = VECTOR ( 'NONE', #150, 39.37007874015748143 ) ;
#28 = SPHERICAL_SURFACE ( 'NONE', #296, 0.007492500000000000028 ) ;
#29 = CIRCLE ( 'NONE', #65, 0.04750000000000064587 ) ;
#30 = VERTEX_POINT ( 'NONE', #61 ) ;
#31 = CARTESIAN_POINT ( 'NONE',  ( 0.06250000000000006939, 7.654042494670963708E-18, 0.3569630346926195297 ) ) ;
#32 = ORIENTED_EDGE ( 'NONE', *, *, #146, .F. ) ;
#33 = FACE_OUTER_BOUND ( 'NONE', #69, .T. ) ;
#34 = ADVANCED_FACE ( 'NONE', ( #87 ), #114, .T. ) ;
#35 = DIRECTION ( 'NONE',  ( 1.000000000000000000, 0.0000000000000000000, 0.0000000000000000000 ) ) ;
#36 = STYLED_ITEM ( 'NONE', ( #249 ), #263 ) ;
#37 = EDGE_CURVE ( 'NONE', #224, #101, #315, .T. ) ;
#38 = SURFACE_STYLE_FILL_AREA ( #299 ) ;
#39 = CARTESIAN_POINT ( 'NONE',  ( 0.0000000000000000000, 0.0000000000000000000, 0.0000000000000000000 ) ) ;
#40 = ORIENTED_EDGE ( 'NONE', *, *, #46, .T. ) ;
#41 = APPLICATION_PROTOCOL_DEFINITION ( 'draft international standard', 'automotive_design', 1998, #4 ) ;
#42 = VECTOR ( 'NONE', #160, 39.37007874015748143 ) ;
#43 = VECTOR ( 'NONE', #274, 39.37007874015747433 ) ;
#44 = CARTESIAN_POINT ( 'NONE',  ( 0.0000000000000000000, 0.0000000000000000000, 0.0000000000000000000 ) ) ;
#45 = CARTESIAN_POINT ( 'NONE',  ( 0.0000000000000000000, 0.0000000000000000000, 0.0000000000000000000 ) ) ;
#46 = EDGE_CURVE ( 'NONE', #111, #280, #282, .T. ) ;
#47 = DIRECTION ( 'NONE',  ( -1.000000000000000000, 0.0000000000000000000, 0.0000000000000000000 ) ) ;
#48 = ORIENTED_EDGE ( 'NONE', *, *, #244, .F. ) ;
#49 = ORIENTED_EDGE ( 'NONE', *, *, #98, .F. ) ;
#50 = DIRECTION ( 'NONE',  ( -1.000000000000000000, 0.0000000000000000000, 1.424261758458595593E-16 ) ) ;
#51 = ORIENTED_EDGE ( 'NONE', *, *, #234, .T. ) ;
#52 = DIRECTION ( 'NONE',  ( 0.0000000000000000000, 0.0000000000000000000, -1.000000000000000000 ) ) ;
#53 = VERTEX_POINT ( 'NONE', #17 ) ;
#54 = DIRECTION ( 'NONE',  ( -1.000000000000000000, 0.0000000000000000000, 0.0000000000000000000 ) ) ;
#55 = ORIENTED_EDGE ( 'NONE', *, *, #202, .T. ) ;
#56 = CARTESIAN_POINT ( 'NONE',  ( -0.06249999999999997918, 0.0000000000000000000, 0.3569630346926195297 ) ) ;
#57 = AXIS2_PLACEMENT_3D ( 'NONE', #100, #25, #195 ) ;
#58 = PRESENTATION_STYLE_ASSIGNMENT (( #229 ) ) ;
#59 = DIRECTION ( 'NONE',  ( -1.000000000000000000, 0.0000000000000000000, 1.424261758458595593E-16 ) ) ;
#60 = CARTESIAN_POINT ( 'NONE',  ( 9.175666142611546005E-19, 0.0000000000000000000, 0.007492500000000000028 ) ) ;
#61 = CARTESIAN_POINT ( 'NONE',  ( -0.06250000000000002776, 0.0000000000000000000, 1.485000000000000764 ) ) ;
#62 = ORIENTED_EDGE ( 'NONE', *, *, #68, .T. ) ;
#63 = CIRCLE ( 'NONE', #104, 0.007492500000000000028 ) ;
#64 =( LENGTH_UNIT ( ) NAMED_UNIT ( * ) SI_UNIT ( $, .METRE. ) );
#65 = AXIS2_PLACEMENT_3D ( 'NONE', #86, #277, #188 ) ;
#66 = PRODUCT ( 'Micro_BMR-015-2', 'Micro_BMR-015-2', '', ( #158 ) ) ;
#67 = CARTESIAN_POINT ( 'NONE',  ( 9.175666142611546005E-19, 0.0000000000000000000, 0.007492500000000000028 ) ) ;
#68 = EDGE_CURVE ( 'NONE', #220, #30, #209, .T. ) ;
#69 = EDGE_LOOP ( 'NONE', ( #264, #286, #117, #193 ) ) ;
#70 = CYLINDRICAL_SURFACE ( 'NONE', #199, 0.007492500000000000028 ) ;
#71 = ORIENTED_EDGE ( 'NONE', *, *, #112, .F. ) ;
#72 = EDGE_LOOP ( 'NONE', ( #123, #216, #71, #225 ) ) ;
#73 = EDGE_LOOP ( 'NONE', ( #22, #240, #169, #55 ) ) ;
#74 = DIRECTION ( 'NONE',  ( -1.224646799147353454E-16, -0.0000000000000000000, -1.000000000000000000 ) ) ;
#75 = DIRECTION ( 'NONE',  ( -0.0000000000000000000, -0.0000000000000000000, -1.000000000000000000 ) ) ;
#76 = EDGE_LOOP ( 'NONE', ( #242, #265, #132 ) ) ;
#77 = ADVANCED_FACE ( 'NONE', ( #21 ), #306, .T. ) ;
#78 = COLOUR_RGB ( '',0.7921568627450980005, 0.8196078431372548767, 0.9333333333333333481 ) ;
#79 = VECTOR ( 'NONE', #14, 39.37007874015748854 ) ;
#80 = LINE ( 'NONE', #155, #241 ) ;
#81 = CARTESIAN_POINT ( 'NONE',  ( 5.510910596163090326E-18, 0.0000000000000000000, 0.04499999999999999833 ) ) ;
#82 = LINE ( 'NONE', #302, #268 ) ;
#83 = FILL_AREA_STYLE ('',( #109 ) ) ;
#84 =( CONVERSION_BASED_UNIT ( 'INCH', #162 ) LENGTH_UNIT ( ) NAMED_UNIT ( #8 ) );
#85 = VERTEX_POINT ( 'NONE', #253 ) ;
#86 = CARTESIAN_POINT ( 'NONE',  ( 0.0000000000000000000, 0.0000000000000000000, 1.500000000000000222 ) ) ;
#87 = FACE_OUTER_BOUND ( 'NONE', #72, .T. ) ;
#88 = CIRCLE ( 'NONE', #152, 0.06250000000000002776 ) ;
#89 = AXIS2_PLACEMENT_3D ( 'NONE', #39, #154, #247 ) ;
#90 = DIRECTION ( 'NONE',  ( 0.0000000000000000000, -1.000000000000000000, 0.0000000000000000000 ) ) ;
#91 = ADVANCED_FACE ( 'NONE', ( #164 ), #70, .T. ) ;
#92 = ORIENTED_EDGE ( 'NONE', *, *, #234, .F. ) ;
#93 = ADVANCED_FACE ( 'NONE', ( #256 ), #144, .T. ) ;
#94 = DIRECTION ( 'NONE',  ( 0.0000000000000000000, 0.0000000000000000000, 1.000000000000000000 ) ) ;
#95 = ORIENTED_EDGE ( 'NONE', *, *, #103, .T. ) ;
#96 = STYLED_ITEM ( 'NONE', ( #58 ), #281 ) ;
#97 = CARTESIAN_POINT ( 'NONE',  ( 0.007492500000000006100, 0.0000000000000000000, 0.04499999999999999833 ) ) ;
#98 = EDGE_CURVE ( 'NONE', #53, #175, #115, .T. ) ;
#99 = EDGE_LOOP ( 'NONE', ( #26, #239, #196, #140 ) ) ;
#100 = CARTESIAN_POINT ( 'NONE',  ( 9.175666142611546005E-19, 0.0000000000000000000, 0.007492500000000000028 ) ) ;
#101 = VERTEX_POINT ( 'NONE', #31 ) ;
#102 = DIRECTION ( 'NONE',  ( 1.224646799147353454E-16, 0.0000000000000000000, 1.000000000000000000 ) ) ;
#103 = EDGE_CURVE ( 'NONE', #85, #280, #292, .T. ) ;
#104 = AXIS2_PLACEMENT_3D ( 'NONE', #135, #90, #213 ) ;
#105 = AXIS2_PLACEMENT_3D ( 'NONE', #113, #134, #237 ) ;
#106 = LINE ( 'NONE', #182, #43 ) ;
#107 = PRODUCT_DEFINITION ( 'UNKNOWN', '', #219, #314 ) ;
#108 = DIRECTION ( 'NONE',  ( 0.0000000000000000000, 1.000000000000000000, 0.0000000000000000000 ) ) ;
#109 = FILL_AREA_STYLE_COLOUR ( '', #5 ) ;
#110 = LINE ( 'NONE', #208, #27 ) ;
#111 = VERTEX_POINT ( 'NONE', #176 ) ;
#112 = EDGE_CURVE ( 'NONE', #172, #101, #231, .T. ) ;
#113 = CARTESIAN_POINT ( 'NONE',  ( 0.0000000000000000000, 0.0000000000000000000, 1.500000000000000222 ) ) ;
#114 = CYLINDRICAL_SURFACE ( 'NONE', #105, 0.06250000000000002776 ) ;
#115 = CIRCLE ( 'NONE', #7, 0.007492500000000000028 ) ;
#116 = EDGE_CURVE ( 'NONE', #30, #172, #122, .T. ) ;
#117 = ORIENTED_EDGE ( 'NONE', *, *, #136, .F. ) ;
#118 = CARTESIAN_POINT ( 'NONE',  ( 0.0000000000000000000, 0.0000000000000000000, 1.500000000000000222 ) ) ;
#119 = EDGE_LOOP ( 'NONE', ( #51, #260 ) ) ;
#120 = AXIS2_PLACEMENT_3D ( 'NONE', #118, #222, #290 ) ;
#121 = ADVANCED_FACE ( 'NONE', ( #143 ), #298, .T. ) ;
#122 = LINE ( 'NONE', #218, #252 ) ;
#123 = ORIENTED_EDGE ( 'NONE', *, *, #136, .T. ) ;
#124 = DIRECTION ( 'NONE',  ( -0.0000000000000000000, -0.0000000000000000000, -1.000000000000000000 ) ) ;
#125 = ORIENTED_EDGE ( 'NONE', *, *, #116, .T. ) ;
#126 = CARTESIAN_POINT ( 'NONE',  ( 9.175666142611546005E-19, 0.0000000000000000000, 0.007492500000000000028 ) ) ;
#127 = CYLINDRICAL_SURFACE ( 'NONE', #174, 0.06250000000000002776 ) ;
#128 = CARTESIAN_POINT ( 'NONE',  ( 0.06250000000000002776, 7.654042494670959086E-18, 1.485000000000000764 ) ) ;
#129 = CARTESIAN_POINT ( 'NONE',  ( 4.371536378502421744E-17, 0.0000000000000000000, 0.3569630346926195297 ) ) ;
#130 = DIMENSIONAL_EXPONENTS ( 1.000000000000000000, 0.0000000000000000000, 0.0000000000000000000, 0.0000000000000000000, 0.0000000000000000000, 0.0000000000000000000, 0.0000000000000000000 ) ;
#131 = CONICAL_SURFACE ( 'NONE', #321, 0.007492500000000000028, 0.1745329251994339192 ) ;
#132 = ORIENTED_EDGE ( 'NONE', *, *, #202, .F. ) ;
#133 = AXIS2_PLACEMENT_3D ( 'NONE', #198, #200, #267 ) ;
#134 = DIRECTION ( 'NONE',  ( -0.0000000000000000000, -0.0000000000000000000, -1.000000000000000000 ) ) ;
#135 = CARTESIAN_POINT ( 'NONE',  ( 9.175666142611546005E-19, 0.0000000000000000000, 0.007492500000000000028 ) ) ;
#136 = EDGE_CURVE ( 'NONE', #30, #224, #88, .T. ) ;
#137 = DIRECTION ( 'NONE',  ( -1.000000000000000000, 0.0000000000000000000, 1.224646799147353454E-16 ) ) ;
#138 = EDGE_LOOP ( 'NONE', ( #49, #303, #215, #284 ) ) ;
#139 =( GEOMETRIC_REPRESENTATION_CONTEXT ( 3 ) GLOBAL_UNCERTAINTY_ASSIGNED_CONTEXT ( ( #309 ) ) GLOBAL_UNIT_ASSIGNED_CONTEXT ( ( #203, #301, #270 ) ) REPRESENTATION_CONTEXT ( 'NONE', 'WORKASPACE' ) );
#140 = ORIENTED_EDGE ( 'NONE', *, *, #223, .T. ) ;
#141 = VERTEX_POINT ( 'NONE', #149 ) ;
#142 = LINE ( 'NONE', #201, #311 ) ;
#143 = FACE_OUTER_BOUND ( 'NONE', #99, .T. ) ;
#144 = CONICAL_SURFACE ( 'NONE', #228, 0.04750000000000064587, 0.7853981633974466137 ) ;
#145 = ORIENTED_EDGE ( 'NONE', *, *, #223, .F. ) ;
#146 = EDGE_CURVE ( 'NONE', #53, #280, #142, .T. ) ;
#147 = CARTESIAN_POINT ( 'NONE',  ( 0.0000000000000000000, 0.0000000000000000000, 1.500000000000000222 ) ) ;
#148 = DIRECTION ( 'NONE',  ( 0.0000000000000000000, 0.0000000000000000000, -1.000000000000000000 ) ) ;
#149 = CARTESIAN_POINT ( 'NONE',  ( 0.04750000000000064587, 6.735557395310483192E-18, 1.500000000000000222 ) ) ;
#150 = DIRECTION ( 'NONE',  ( 0.1736481776669314137, 0.0000000000000000000, 0.9848077530122077983 ) ) ;
#151 =( CONVERSION_BASED_UNIT ( 'INCH', #276 ) LENGTH_UNIT ( ) NAMED_UNIT ( #130 ) );
#152 = AXIS2_PLACEMENT_3D ( 'NONE', #226, #52, #197 ) ;
#153 = CIRCLE ( 'NONE', #183, 0.007492500000000000028 ) ;
#154 = DIRECTION ( 'NONE',  ( 0.0000000000000000000, 0.0000000000000000000, 1.000000000000000000 ) ) ;
#155 = CARTESIAN_POINT ( 'NONE',  ( 0.04750000000000064587, 5.817072295950006528E-18, 1.500000000000000222 ) ) ;
#156 = APPLICATION_PROTOCOL_DEFINITION ( 'draft international standard', 'automotive_design', 1998, #307 ) ;
#157 = DIRECTION ( 'NONE',  ( 0.7071067811865462405, 8.659560562354916834E-17, -0.7071067811865486830 ) ) ;
#158 = PRODUCT_CONTEXT ( 'NONE', #307, 'mechanical' ) ;
#159 = CONICAL_SURFACE ( 'NONE', #120, 0.04750000000000064587, 0.7853981633974466137 ) ;
#160 = DIRECTION ( 'NONE',  ( -0.0000000000000000000, -0.0000000000000000000, -1.000000000000000000 ) ) ;
#161 = AXIS2_PLACEMENT_3D ( 'NONE', #126, #102, #59 ) ;
#162 = LENGTH_MEASURE_WITH_UNIT ( LENGTH_MEASURE( 0.02539999999999999897 ), #64 );
#163 = ADVANCED_FACE ( 'NONE', ( #33 ), #159, .T. ) ;
#164 = FACE_OUTER_BOUND ( 'NONE', #13, .T. ) ;
#165 = CARTESIAN_POINT ( 'NONE',  ( 5.510910596163090326E-18, 0.0000000000000000000, 0.04499999999999999833 ) ) ;
#166 = CARTESIAN_POINT ( 'NONE',  ( 0.06250000000000002776, 7.654042494670959086E-18, 1.500000000000000222 ) ) ;
#167 = CARTESIAN_POINT ( 'NONE',  ( 0.0000000000000000000, 0.0000000000000000000, 1.500000000000000222 ) ) ;
#168 = ADVANCED_FACE ( 'NONE', ( #320 ), #28, .T. ) ;
#169 = ORIENTED_EDGE ( 'NONE', *, *, #146, .T. ) ;
#170 = DIRECTION ( 'NONE',  ( -1.224646799147353454E-16, -0.0000000000000000000, -1.000000000000000000 ) ) ;
#171 = ORIENTED_EDGE ( 'NONE', *, *, #194, .F. ) ;
#172 = VERTEX_POINT ( 'NONE', #56 ) ;
#173 = CARTESIAN_POINT ( 'NONE',  ( 9.175666142611546005E-19, 0.0000000000000000000, 0.007492500000000000028 ) ) ;
#174 = AXIS2_PLACEMENT_3D ( 'NONE', #227, #75, #245 ) ;
#175 = VERTEX_POINT ( 'NONE', #97 ) ;
#176 = CARTESIAN_POINT ( 'NONE',  ( 0.007492500000000001763, 9.175666142611544079E-19, 0.007492499999999999161 ) ) ;
#177 = ADVANCED_FACE ( 'NONE', ( #262 ), #127, .T. ) ;
#178 = CIRCLE ( 'NONE', #251, 0.06250000000000002776 ) ;
#179 =( NAMED_UNIT ( * ) PLANE_ANGLE_UNIT ( ) SI_UNIT ( $, .RADIAN. ) );
#180 = SURFACE_SIDE_STYLE ('',( #38 ) ) ;
#181 =( NAMED_UNIT ( * ) SI_UNIT ( $, .STERADIAN. ) SOLID_ANGLE_UNIT ( ) );
#182 = CARTESIAN_POINT ( 'NONE',  ( -0.007492499999999994824, 9.175666142611544079E-19, 0.04499999999999999833 ) ) ;
#183 = AXIS2_PLACEMENT_3D ( 'NONE', #165, #258, #47 ) ;
#184 =( NAMED_UNIT ( * ) SI_UNIT ( $, .STERADIAN. ) SOLID_ANGLE_UNIT ( ) );
#185 = DIRECTION ( 'NONE',  ( 1.000000000000000000, 0.0000000000000000000, 0.0000000000000000000 ) ) ;
#186 =( LENGTH_UNIT ( ) NAMED_UNIT ( * ) SI_UNIT ( $, .METRE. ) );
#187 = PRODUCT_DEFINITION_SHAPE ( 'NONE', 'NONE',  #107 ) ;
#188 = DIRECTION ( 'NONE',  ( 1.000000000000000000, 0.0000000000000000000, 0.0000000000000000000 ) ) ;
#189 = AXIS2_PLACEMENT_3D ( 'NONE', #67, #233, #50 ) ;
#190 = DIRECTION ( 'NONE',  ( -1.000000000000000000, 0.0000000000000000000, 1.224646799147353454E-16 ) ) ;
#191 = AXIS2_PLACEMENT_3D ( 'NONE', #167, #94, #278 ) ;
#192 = SURFACE_STYLE_FILL_AREA ( #83 ) ;
#193 = ORIENTED_EDGE ( 'NONE', *, *, #68, .F. ) ;
#194 = EDGE_CURVE ( 'NONE', #224, #30, #178, .T. ) ;
#195 = DIRECTION ( 'NONE',  ( -1.000000000000000000, 1.224646799147353207E-16, 0.0000000000000000000 ) ) ;
#196 = ORIENTED_EDGE ( 'NONE', *, *, #206, .T. ) ;
#197 = DIRECTION ( 'NONE',  ( 1.000000000000000000, 0.0000000000000000000, 0.0000000000000000000 ) ) ;
#198 = CARTESIAN_POINT ( 'NONE',  ( 5.510910596163090326E-18, 0.0000000000000000000, 0.04499999999999999833 ) ) ;
#199 = AXIS2_PLACEMENT_3D ( 'NONE', #44, #211, #190 ) ;
#200 = DIRECTION ( 'NONE',  ( 1.224646799147353454E-16, 0.0000000000000000000, 1.000000000000000000 ) ) ;
#201 = CARTESIAN_POINT ( 'NONE',  ( -0.007492500000000000028, 0.0000000000000000000, 9.175666142611546005E-19 ) ) ;
#202 = EDGE_CURVE ( 'NONE', #280, #111, #217, .T. ) ;
#203 =( CONVERSION_BASED_UNIT ( 'INCH', #230 ) LENGTH_UNIT ( ) NAMED_UNIT ( #269 ) );
#204 = CIRCLE ( 'NONE', #235, 0.06250000000000002776 ) ;
#205 = DIRECTION ( 'NONE',  ( -1.224646799147353454E-16, -0.0000000000000000000, -1.000000000000000000 ) ) ;
#206 = EDGE_CURVE ( 'NONE', #175, #101, #110, .T. ) ;
#207 =( LENGTH_UNIT ( ) NAMED_UNIT ( * ) SI_UNIT ( $, .METRE. ) );
#208 = CARTESIAN_POINT ( 'NONE',  ( 0.007492500000000006100, 0.0000000000000000000, 0.04499999999999999833 ) ) ;
#209 = LINE ( 'NONE', #214, #79 ) ;
#210 = CARTESIAN_POINT ( 'NONE',  ( -0.007492499999999999161, 0.0000000000000000000, 0.007492500000000001763 ) ) ;
#211 = DIRECTION ( 'NONE',  ( -1.224646799147353454E-16, -0.0000000000000000000, -1.000000000000000000 ) ) ;
#212 = DIRECTION ( 'NONE',  ( 0.0000000000000000000, 0.0000000000000000000, -1.000000000000000000 ) ) ;
#213 = DIRECTION ( 'NONE',  ( 0.0000000000000000000, 0.0000000000000000000, -1.000000000000000000 ) ) ;
#214 = CARTESIAN_POINT ( 'NONE',  ( -0.04750000000000064587, 0.0000000000000000000, 1.500000000000000222 ) ) ;
#215 = ORIENTED_EDGE ( 'NONE', *, *, #112, .T. ) ;
#216 = ORIENTED_EDGE ( 'NONE', *, *, #37, .T. ) ;
#217 = CIRCLE ( 'NONE', #161, 0.007492500000000000028 ) ;
#218 = CARTESIAN_POINT ( 'NONE',  ( -0.06250000000000002776, 0.0000000000000000000, 1.500000000000000222 ) ) ;
#219 = PRODUCT_DEFINITION_FORMATION_WITH_SPECIFIED_SOURCE ( 'ANY', '', #66, .NOT_KNOWN. ) ;
#220 = VERTEX_POINT ( 'NONE', #272 ) ;
#221 = AXIS2_PLACEMENT_3D ( 'NONE', #147, #325, #35 ) ;
#222 = DIRECTION ( 'NONE',  ( 0.0000000000000000000, 0.0000000000000000000, -1.000000000000000000 ) ) ;
#223 = EDGE_CURVE ( 'NONE', #101, #172, #204, .T. ) ;
#224 = VERTEX_POINT ( 'NONE', #128 ) ;
#225 = ORIENTED_EDGE ( 'NONE', *, *, #116, .F. ) ;
#226 = CARTESIAN_POINT ( 'NONE',  ( 0.0000000000000000000, 0.0000000000000000000, 1.485000000000000764 ) ) ;
#227 = CARTESIAN_POINT ( 'NONE',  ( 0.0000000000000000000, 0.0000000000000000000, 1.500000000000000222 ) ) ;
#228 = AXIS2_PLACEMENT_3D ( 'NONE', #18, #212, #238 ) ;
#229 = SURFACE_STYLE_USAGE ( .BOTH. , #180 ) ;
#230 = LENGTH_MEASURE_WITH_UNIT ( LENGTH_MEASURE( 0.02539999999999999897 ), #207 );
#231 = CIRCLE ( 'NONE', #317, 0.06250000000000002776 ) ;
#232 = EDGE_CURVE ( 'NONE', #141, #224, #80, .T. ) ;
#233 = DIRECTION ( 'NONE',  ( 1.224646799147353454E-16, 0.0000000000000000000, 1.000000000000000000 ) ) ;
#234 = EDGE_CURVE ( 'NONE', #220, #141, #29, .T. ) ;
#235 = AXIS2_PLACEMENT_3D ( 'NONE', #129, #205, #185 ) ;
#236 = AXIS2_PLACEMENT_3D ( 'NONE', #60, #108, #248 ) ;
#237 = DIRECTION ( 'NONE',  ( -1.000000000000000000, 0.0000000000000000000, 0.0000000000000000000 ) ) ;
#238 = DIRECTION ( 'NONE',  ( -1.000000000000000000, 0.0000000000000000000, 0.0000000000000000000 ) ) ;
#239 = ORIENTED_EDGE ( 'NONE', *, *, #319, .F. ) ;
#240 = ORIENTED_EDGE ( 'NONE', *, *, #319, .T. ) ;
#241 = VECTOR ( 'NONE', #157, 39.37007874015748854 ) ;
#242 = ORIENTED_EDGE ( 'NONE', *, *, #103, .F. ) ;
#243 = DIRECTION ( 'NONE',  ( 1.000000000000000000, 0.0000000000000000000, 0.0000000000000000000 ) ) ;
#244 = EDGE_CURVE ( 'NONE', #85, #111, #63, .T. ) ;
#245 = DIRECTION ( 'NONE',  ( -1.000000000000000000, 0.0000000000000000000, 0.0000000000000000000 ) ) ;
#246 = MECHANICAL_DESIGN_GEOMETRIC_PRESENTATION_REPRESENTATION (  '', ( #36 ), #294 ) ;
#247 = DIRECTION ( 'NONE',  ( 1.000000000000000000, 0.0000000000000000000, 0.0000000000000000000 ) ) ;
#248 = DIRECTION ( 'NONE',  ( 1.000000000000000000, 0.0000000000000000000, 0.0000000000000000000 ) ) ;
#249 = PRESENTATION_STYLE_ASSIGNMENT (( #15 ) ) ;
#250 = ORIENTED_EDGE ( 'NONE', *, *, #46, .F. ) ;
#251 = AXIS2_PLACEMENT_3D ( 'NONE', #2, #148, #243 ) ;
#252 = VECTOR ( 'NONE', #124, 39.37007874015748143 ) ;
#253 = CARTESIAN_POINT ( 'NONE',  ( 1.376349921391731997E-18, 0.0000000000000000000, 0.0000000000000000000 ) ) ;
#254 =( NAMED_UNIT ( * ) PLANE_ANGLE_UNIT ( ) SI_UNIT ( $, .RADIAN. ) );
#255 = ORIENTED_EDGE ( 'NONE', *, *, #194, .T. ) ;
#256 = FACE_OUTER_BOUND ( 'NONE', #316, .T. ) ;
#257 = DIRECTION ( 'NONE',  ( 1.224646799147353454E-16, 0.0000000000000000000, 1.000000000000000000 ) ) ;
#258 = DIRECTION ( 'NONE',  ( -1.224646799147353454E-16, -0.0000000000000000000, -1.000000000000000000 ) ) ;
#259 = CARTESIAN_POINT ( 'NONE',  ( 5.510910596163090326E-18, 0.0000000000000000000, 0.04499999999999999833 ) ) ;
#260 = ORIENTED_EDGE ( 'NONE', *, *, #9, .T. ) ;
#261 = DIRECTION ( 'NONE',  ( 1.000000000000000000, 0.0000000000000000000, 0.0000000000000000000 ) ) ;
#262 = FACE_OUTER_BOUND ( 'NONE', #324, .T. ) ;
#263 = MANIFOLD_SOLID_BREP ( 'Fillet1', #19 ) ;
#264 = ORIENTED_EDGE ( 'NONE', *, *, #9, .F. ) ;
#265 = ORIENTED_EDGE ( 'NONE', *, *, #244, .T. ) ;
#266 = DIRECTION ( 'NONE',  ( 0.0000000000000000000, 1.000000000000000000, 0.0000000000000000000 ) ) ;
#267 = DIRECTION ( 'NONE',  ( 1.000000000000000000, 0.0000000000000000000, 0.0000000000000000000 ) ) ;
#268 = VECTOR ( 'NONE', #271, 39.37007874015748143 ) ;
#269 = DIMENSIONAL_EXPONENTS ( 1.000000000000000000, 0.0000000000000000000, 0.0000000000000000000, 0.0000000000000000000, 0.0000000000000000000, 0.0000000000000000000, 0.0000000000000000000 ) ;
#270 =( NAMED_UNIT ( * ) SI_UNIT ( $, .STERADIAN. ) SOLID_ANGLE_UNIT ( ) );
#271 = DIRECTION ( 'NONE',  ( -1.224646799147353454E-16, -0.0000000000000000000, -1.000000000000000000 ) ) ;
#272 = CARTESIAN_POINT ( 'NONE',  ( -0.04750000000000064587, 0.0000000000000000000, 1.500000000000000222 ) ) ;
#273 = SPHERICAL_SURFACE ( 'NONE', #236, 0.007492500000000000028 ) ;
#274 = DIRECTION ( 'NONE',  ( -0.1736481776669312194, 2.126576849575783625E-17, 0.9848077530122080203 ) ) ;
#275 = EDGE_LOOP ( 'NONE', ( #48, #95, #250 ) ) ;
#276 = LENGTH_MEASURE_WITH_UNIT ( LENGTH_MEASURE( 0.02539999999999999897 ), #186 );
#277 = DIRECTION ( 'NONE',  ( 0.0000000000000000000, 0.0000000000000000000, 1.000000000000000000 ) ) ;
#278 = DIRECTION ( 'NONE',  ( 1.000000000000000000, 0.0000000000000000000, -0.0000000000000000000 ) ) ;
#279 = SURFACE_SIDE_STYLE ('',( #192 ) ) ;
#280 = VERTEX_POINT ( 'NONE', #210 ) ;
#281 = ADVANCED_BREP_SHAPE_REPRESENTATION ( 'Micro_BMR-015-2', ( #263, #89 ), #11 ) ;
#282 = CIRCLE ( 'NONE', #189, 0.007492500000000000028 ) ;
#283 = CIRCLE ( 'NONE', #221, 0.04750000000000064587 ) ;
#284 = ORIENTED_EDGE ( 'NONE', *, *, #206, .F. ) ;
#285 = FACE_OUTER_BOUND ( 'NONE', #138, .T. ) ;
#286 = ORIENTED_EDGE ( 'NONE', *, *, #232, .T. ) ;
#287 = ADVANCED_FACE ( 'NONE', ( #12 ), #308, .T. ) ;
#288 = CARTESIAN_POINT ( 'NONE',  ( 4.371536378502421744E-17, 0.0000000000000000000, 0.3569630346926195297 ) ) ;
#289 = ORIENTED_EDGE ( 'NONE', *, *, #232, .F. ) ;
#290 = DIRECTION ( 'NONE',  ( -1.000000000000000000, 0.0000000000000000000, 0.0000000000000000000 ) ) ;
#291 = ORIENTED_EDGE ( 'NONE', *, *, #37, .F. ) ;
#292 = CIRCLE ( 'NONE', #57, 0.007492500000000000028 ) ;
#293 = DIRECTION ( 'NONE',  ( 1.000000000000000000, 0.0000000000000000000, 0.0000000000000000000 ) ) ;
#294 =( GEOMETRIC_REPRESENTATION_CONTEXT ( 3 ) GLOBAL_UNCERTAINTY_ASSIGNED_CONTEXT ( ( #3 ) ) GLOBAL_UNIT_ASSIGNED_CONTEXT ( ( #84, #254, #184 ) ) REPRESENTATION_CONTEXT ( 'NONE', 'WORKASPACE' ) );
#295 = ORIENTED_EDGE ( 'NONE', *, *, #98, .T. ) ;
#296 = AXIS2_PLACEMENT_3D ( 'NONE', #173, #266, #293 ) ;
#297 = PRESENTATION_LAYER_ASSIGNMENT (  '', '', ( #96 ) ) ;
#298 = CONICAL_SURFACE ( 'NONE', #133, 0.007492500000000000028, 0.1745329251994339192 ) ;
#299 = FILL_AREA_STYLE ('',( #6 ) ) ;
#300 = DIRECTION ( 'NONE',  ( 1.000000000000000000, 0.0000000000000000000, 0.0000000000000000000 ) ) ;
#301 =( NAMED_UNIT ( * ) PLANE_ANGLE_UNIT ( ) SI_UNIT ( $, .RADIAN. ) );
#302 = CARTESIAN_POINT ( 'NONE',  ( 0.007492500000000000028, 9.175666142611544079E-19, -9.175666142611546005E-19 ) ) ;
#303 = ORIENTED_EDGE ( 'NONE', *, *, #24, .T. ) ;
#304 = FACE_OUTER_BOUND ( 'NONE', #275, .T. ) ;
#305 = SHAPE_DEFINITION_REPRESENTATION ( #187, #281 ) ;
#306 = PLANE ( 'NONE',  #191 ) ;
#307 = APPLICATION_CONTEXT ( 'automotive_design' ) ;
#308 = CYLINDRICAL_SURFACE ( 'NONE', #318, 0.007492500000000000028 ) ;
#309 = UNCERTAINTY_MEASURE_WITH_UNIT (LENGTH_MEASURE( 1.000000000000000082E-05 ), #203, 'distance_accuracy_value', 'NONE');
#310 = DIRECTION ( 'NONE',  ( -1.224646799147353454E-16, -0.0000000000000000000, -1.000000000000000000 ) ) ;
#311 = VECTOR ( 'NONE', #170, 39.37007874015748143 ) ;
#312 = PRESENTATION_LAYER_ASSIGNMENT (  '', '', ( #36 ) ) ;
#313 = DIRECTION ( 'NONE',  ( -1.224646799147353454E-16, -0.0000000000000000000, -1.000000000000000000 ) ) ;
#314 = PRODUCT_DEFINITION_CONTEXT ( 'detailed design', #4, 'design' ) ;
#315 = LINE ( 'NONE', #166, #42 ) ;
#316 = EDGE_LOOP ( 'NONE', ( #289, #92, #62, #171 ) ) ;
#317 = AXIS2_PLACEMENT_3D ( 'NONE', #288, #74, #261 ) ;
#318 = AXIS2_PLACEMENT_3D ( 'NONE', #45, #310, #137 ) ;
#319 = EDGE_CURVE ( 'NONE', #175, #53, #153, .T. ) ;
#320 = FACE_OUTER_BOUND ( 'NONE', #76, .T. ) ;
#321 = AXIS2_PLACEMENT_3D ( 'NONE', #81, #257, #300 ) ;
#322 = ORIENTED_EDGE ( 'NONE', *, *, #23, .T. ) ;
#323 = ADVANCED_FACE ( 'NONE', ( #304 ), #273, .T. ) ;
#324 = EDGE_LOOP ( 'NONE', ( #291, #255, #125, #145 ) ) ;
#325 = DIRECTION ( 'NONE',  ( 0.0000000000000000000, 0.0000000000000000000, 1.000000000000000000 ) ) ;
ENDSEC;
END-ISO-10303-21;
